  0
SECTION
  2
HEADER
  9
$ACADVER
  1
AC1014
  9
$ACADMAINTVER
 70
     9
  9
$DWGCODEPAGE
  3
ANSI_932
  9
$INSBASE
 10
0.0
 20
0.0
 30
0.0
  9
$EXTMIN
 10
-18.00000000000011
 20
-62.09999999999998
 30
0.0
  9
$EXTMAX
 10
173.0
 20
44.10000000000001
 30
0.0
  9
$LIMMIN
 10
0.0
 20
0.0
  9
$LIMMAX
 10
12.0
 20
9.0
  9
$ORTHOMODE
 70
     0
  9
$REGENMODE
 70
     1
  9
$FILLMODE
 70
     1
  9
$QTEXTMODE
 70
     0
  9
$MIRRTEXT
 70
     1
  9
$DRAGMODE
 70
     2
  9
$LTSCALE
 40
1.0
  9
$OSMODE
 70
    37
  9
$ATTMODE
 70
     1
  9
$TEXTSIZE
 40
0.2
  9
$TRACEWID
 40
0.05
  9
$TEXTSTYLE
  7
STANDARD
  9
$CLAYER
  8
0
  9
$CELTYPE
  6
BYLAYER
  9
$CECOLOR
 62
   256
  9
$CELTSCALE
 40
1.0
  9
$DELOBJ
 70
     1
  9
$DISPSILH
 70
     0
  9
$DIMSCALE
 40
1.0
  9
$DIMASZ
 40
0.18
  9
$DIMEXO
 40
0.0625
  9
$DIMDLI
 40
0.38
  9
$DIMRND
 40
0.0
  9
$DIMDLE
 40
0.0
  9
$DIMEXE
 40
0.18
  9
$DIMTP
 40
0.0
  9
$DIMTM
 40
0.0
  9
$DIMTXT
 40
0.18
  9
$DIMCEN
 40
0.09
  9
$DIMTSZ
 40
0.0
  9
$DIMTOL
 70
     0
  9
$DIMLIM
 70
     0
  9
$DIMTIH
 70
     1
  9
$DIMTOH
 70
     1
  9
$DIMSE1
 70
     0
  9
$DIMSE2
 70
     0
  9
$DIMTAD
 70
     0
  9
$DIMZIN
 70
     0
  9
$DIMBLK
  1

  9
$DIMASO
 70
     1
  9
$DIMSHO
 70
     1
  9
$DIMPOST
  1

  9
$DIMAPOST
  1

  9
$DIMALT
 70
     0
  9
$DIMALTD
 70
     2
  9
$DIMALTF
 40
25.4
  9
$DIMLFAC
 40
1.0
  9
$DIMTOFL
 70
     0
  9
$DIMTVP
 40
0.0
  9
$DIMTIX
 70
     0
  9
$DIMSOXD
 70
     0
  9
$DIMSAH
 70
     0
  9
$DIMBLK1
  1

  9
$DIMBLK2
  1

  9
$DIMSTYLE
  2
STANDARD
  9
$DIMCLRD
 70
     0
  9
$DIMCLRE
 70
     0
  9
$DIMCLRT
 70
     0
  9
$DIMTFAC
 40
1.0
  9
$DIMGAP
 40
0.09
  9
$DIMJUST
 70
     0
  9
$DIMSD1
 70
     0
  9
$DIMSD2
 70
     0
  9
$DIMTOLJ
 70
     1
  9
$DIMTZIN
 70
     0
  9
$DIMALTZ
 70
     0
  9
$DIMALTTZ
 70
     0
  9
$DIMFIT
 70
     3
  9
$DIMUPT
 70
     0
  9
$DIMUNIT
 70
     2
  9
$DIMDEC
 70
     4
  9
$DIMTDEC
 70
     4
  9
$DIMALTU
 70
     2
  9
$DIMALTTD
 70
     2
  9
$DIMTXSTY
  7
STANDARD
  9
$DIMAUNIT
 70
     0
  9
$LUNITS
 70
     2
  9
$LUPREC
 70
     4
  9
$SKETCHINC
 40
0.1
  9
$FILLETRAD
 40
0.5
  9
$AUNITS
 70
     0
  9
$AUPREC
 70
     0
  9
$MENU
  1
.
  9
$ELEVATION
 40
0.0
  9
$PELEVATION
 40
0.0
  9
$THICKNESS
 40
0.0
  9
$LIMCHECK
 70
     0
  9
$CHAMFERA
 40
0.0
  9
$CHAMFERB
 40
0.0
  9
$CHAMFERC
 40
0.0
  9
$CHAMFERD
 40
0.0
  9
$SKPOLY
 70
     0
  9
$TDCREATE
 40
2458906.58325853
  9
$TDUPDATE
 40
2458906.583258762
  9
$TDINDWG
 40
0.0000000116
  9
$TDUSRTIMER
 40
0.0000000116
  9
$USRTIMER
 70
     1
  9
$ANGBASE
 50
0.0
  9
$ANGDIR
 70
     0
  9
$PDMODE
 70
     0
  9
$PDSIZE
 40
0.0
  9
$PLINEWID
 40
0.0
  9
$COORDS
 70
     1
  9
$SPLFRAME
 70
     0
  9
$SPLINETYPE
 70
     6
  9
$SPLINESEGS
 70
     8
  9
$ATTDIA
 70
     0
  9
$ATTREQ
 70
     1
  9
$HANDLING
 70
     1
  9
$HANDSEED
  5
61C
  9
$SURFTAB1
 70
     6
  9
$SURFTAB2
 70
     6
  9
$SURFTYPE
 70
     6
  9
$SURFU
 70
     6
  9
$SURFV
 70
     6
  9
$UCSNAME
  2

  9
$UCSORG
 10
0.0
 20
0.0
 30
0.0
  9
$UCSXDIR
 10
1.0
 20
0.0
 30
0.0
  9
$UCSYDIR
 10
0.0
 20
1.0
 30
0.0
  9
$PUCSNAME
  2

  9
$PUCSORG
 10
0.0
 20
0.0
 30
0.0
  9
$PUCSXDIR
 10
1.0
 20
0.0
 30
0.0
  9
$PUCSYDIR
 10
0.0
 20
1.0
 30
0.0
  9
$USERI1
 70
     0
  9
$USERI2
 70
     0
  9
$USERI3
 70
     0
  9
$USERI4
 70
     0
  9
$USERI5
 70
     0
  9
$USERR1
 40
20.0
  9
$USERR2
 40
0.0
  9
$USERR3
 40
0.0
  9
$USERR4
 40
0.0
  9
$USERR5
 40
0.0
  9
$WORLDVIEW
 70
     1
  9
$SHADEDGE
 70
     3
  9
$SHADEDIF
 70
    70
  9
$TILEMODE
 70
     1
  9
$MAXACTVP
 70
    64
  9
$PINSBASE
 10
0.0
 20
0.0
 30
0.0
  9
$PLIMCHECK
 70
     0
  9
$PEXTMIN
 10
1.00000000000000E+20
 20
1.00000000000000E+20
 30
1.00000000000000E+20
  9
$PEXTMAX
 10
-1.00000000000000E+20
 20
-1.00000000000000E+20
 30
-1.00000000000000E+20
  9
$PLIMMIN
 10
0.0
 20
0.0
  9
$PLIMMAX
 10
12.0
 20
9.0
  9
$UNITMODE
 70
     0
  9
$VISRETAIN
 70
     1
  9
$PLINEGEN
 70
     0
  9
$PSLTSCALE
 70
     1
  9
$TREEDEPTH
 70
  3020
  9
$PICKSTYLE
 70
     1
  9
$CMLSTYLE
  2
STANDARD
  9
$CMLJUST
 70
     0
  9
$CMLSCALE
 40
1.0
  9
$PROXYGRAPHICS
 70
     1
  9
$MEASUREMENT
 70
     1
  0
ENDSEC
  0
SECTION
  2
CLASSES
  0
CLASS
  1
ACDBDICTIONARYWDFLT
  2
AcDbDictionaryWithDefault
  3
ObjectDBX Classes
 90
        0
280
     0
281
     0
  0
CLASS
  1
VISUALSTYLE
  2
AcDbVisualStyle
  3
ObjectDBX Classes
 90
     4095
280
     0
281
     0
  0
CLASS
  1
MATERIAL
  2
AcDbMaterial
  3
ObjectDBX Classes
 90
     1153
280
     0
281
     0
  0
CLASS
  1
SCALE
  2
AcDbScale
  3
ObjectDBX Classes
 90
     1153
280
     0
281
     0
  0
CLASS
  1
TABLESTYLE
  2
AcDbTableStyle
  3
ObjectDBX Classes
 90
     4095
280
     0
281
     0
  0
CLASS
  1
MLEADERSTYLE
  2
AcDbMLeaderStyle
  3
ACDB_MLEADERSTYLE_CLASS
 90
     4095
280
     0
281
     0
  0
CLASS
  1
SUN
  2
AcDbSun
  3
SCENEOE
 90
     1153
280
     0
281
     0
  0
CLASS
  1
DICTIONARYVAR
  2
AcDbDictionaryVar
  3
ObjectDBX Classes
 90
        0
280
     0
281
     0
  0
CLASS
  1
XRECORD
  2
AcDbXrecord
  3
ObjectDBX Classes
 90
        0
280
     0
281
     0
  0
CLASS
  1
LWPOLYLINE
  2
AcDbPolyline
  3
ObjectDBX Classes
 90
        0
280
     0
281
     1
  0
CLASS
  1
HATCH
  2
AcDbHatch
  3
ObjectDBX Classes
 90
        0
280
     0
281
     1
  0
CLASS
  1
ACDBPLACEHOLDER
  2
AcDbPlaceHolder
  3
ObjectDBX Classes
 90
        0
280
     0
281
     0
  0
CLASS
  1
LAYOUT
  2
AcDbLayout
  3
ObjectDBX Classes
 90
        0
280
     0
281
     0
  0
ENDSEC
  0
SECTION
  2
TABLES
  0
TABLE
  2
VPORT
  5
8
102
{ACAD_XDICTIONARY
360
611
102
}
330
0
100
AcDbSymbolTable
 70
     1
  0
VPORT
  5
29
330
8
100
AcDbSymbolTableRecord
100
AcDbViewportTableRecord
  2
*ACTIVE
 70
     0
 10
0.0
 20
0.0
 11
1.0
 21
1.0
 12
77.49999999999994
 22
-8.99999999999999
 13
0.0
 23
0.0
 14
0.5
 24
0.5
 15
0.5
 25
0.5
 16
0.0
 26
0.0
 36
1.0
 17
0.0
 27
0.0
 37
0.0
 40
131.0930362116993
 41
1.60267857142857
 42
50.0
 43
0.0
 44
0.0
 50
0.0
 51
0.0
 71
     0
 72
   100
 73
     1
 74
     3
 75
     0
 76
     0
 77
     0
 78
     0
  0
ENDTAB
  0
TABLE
  2
LTYPE
  5
5
330
0
100
AcDbSymbolTable
 70
     8
  0
LTYPE
  5
14
330
5
100
AcDbSymbolTableRecord
100
AcDbLinetypeTableRecord
  2
BYBLOCK
 70
     0
  3

 72
    65
 73
     0
 40
0.0
  0
LTYPE
  5
15
330
5
100
AcDbSymbolTableRecord
100
AcDbLinetypeTableRecord
  2
BYLAYER
 70
     0
  3

 72
    65
 73
     0
 40
0.0
  0
LTYPE
  5
16
330
5
100
AcDbSymbolTableRecord
100
AcDbLinetypeTableRecord
  2
CONTINUOUS
 70
     0
  3
Solid line
 72
    65
 73
     0
 40
0.0
  0
LTYPE
  5
6E
330
5
100
AcDbSymbolTableRecord
100
AcDbLinetypeTableRecord
  2
DASHED
 70
     0
  3
Dashed
 72
    65
 73
     2
 40
15.0
 49
7.0
 74
     0
 49
-8.0
 74
     0
  0
LTYPE
  5
6F
330
5
100
AcDbSymbolTableRecord
100
AcDbLinetypeTableRecord
  2
DOTTED
 70
     0
  3
Dotted
 72
    65
 73
     2
 40
1.0
 49
0.0
 74
     0
 49
-1.0
 74
     0
  0
LTYPE
  5
70
330
5
100
AcDbSymbolTableRecord
100
AcDbLinetypeTableRecord
  2
DOT_CENTER
 70
     0
  3
Dot_Center
 72
    65
 73
     4
 40
14.0
 49
12.0
 74
     0
 49
-1.0
 74
     0
 49
0.0
 74
     0
 49
-1.0
 74
     0
  0
LTYPE
  5
71
330
5
100
AcDbSymbolTableRecord
100
AcDbLinetypeTableRecord
  2
LONG_DASHED
 70
     0
  3
Long_Dashed
 72
    65
 73
     2
 40
15.0
 49
10.0
 74
     0
 49
-5.0
 74
     0
  0
LTYPE
  5
72
330
5
100
AcDbSymbolTableRecord
100
AcDbLinetypeTableRecord
  2
DASH_CENTER
 70
     0
  3
Dash_Center
 72
    65
 73
     4
 40
14.0
 49
11.0
 74
     0
 49
-1.0
 74
     0
 49
1.0
 74
     0
 49
-1.0
 74
     0
  0
LTYPE
  5
73
330
5
100
AcDbSymbolTableRecord
100
AcDbLinetypeTableRecord
  2
PHANTOM
 70
     0
  3
Phantom
 72
    65
 73
     6
 40
13.0
 49
10.0
 74
     0
 49
-1.0
 74
     0
 49
0.0
 74
     0
 49
-1.0
 74
     0
 49
0.0
 74
     0
 49
-1.0
 74
     0
  0
LTYPE
  5
74
330
5
100
AcDbSymbolTableRecord
100
AcDbLinetypeTableRecord
  2
CENTER_DASH_DASH
 70
     0
  3
Center_Dash_Dash
 72
    65
 73
     6
 40
14.0
 49
9.0
 74
     0
 49
-1.0
 74
     0
 49
1.0
 74
     0
 49
-1.0
 74
     0
 49
1.0
 74
     0
 49
-1.0
 74
     0
  0
ENDTAB
  0
TABLE
  2
LAYER
  5
2
330
0
100
AcDbSymbolTable
 70
     3
  0
LAYER
  5
10
330
2
100
AcDbSymbolTableRecord
100
AcDbLayerTableRecord
  2
0
 70
     0
 62
     7
  6
CONTINUOUS
  0
LAYER
  5
75
330
2
100
AcDbSymbolTableRecord
100
AcDbLayerTableRecord
  2
1
 70
     0
 62
     7
  6
CONTINUOUS
  0
LAYER
  5
76
330
2
100
AcDbSymbolTableRecord
100
AcDbLayerTableRecord
  2
PV
 70
     0
 62
     7
  6
CONTINUOUS
  0
ENDTAB
  0
TABLE
  2
STYLE
  5
3
330
0
100
AcDbSymbolTable
 70
     1
  0
STYLE
  5
11
330
3
100
AcDbSymbolTableRecord
100
AcDbTextStyleTableRecord
  2
STANDARD
 70
     0
 40
0.0
 41
1.0
 50
0.0
 71
     0
 42
0.2
  3
txt
  4

  0
ENDTAB
  0
TABLE
  2
VIEW
  5
6
330
0
100
AcDbSymbolTable
 70
     0
  0
ENDTAB
  0
TABLE
  2
UCS
  5
7
330
0
100
AcDbSymbolTable
 70
     0
  0
ENDTAB
  0
TABLE
  2
APPID
  5
9
330
0
100
AcDbSymbolTable
 70
     2
  0
APPID
  5
12
330
9
100
AcDbSymbolTableRecord
100
AcDbRegAppTableRecord
  2
ACAD
 70
     0
  0
APPID
  5
61B
330
9
100
AcDbSymbolTableRecord
100
AcDbRegAppTableRecord
  2
ACAD_MLEADERVER
 70
     0
  0
ENDTAB
  0
TABLE
  2
DIMSTYLE
  5
A
330
0
100
AcDbSymbolTable
 70
     1
  0
DIMSTYLE
105
27
330
A
100
AcDbSymbolTableRecord
100
AcDbDimStyleTableRecord
  2
STANDARD
 70
     0
  3

  4

  5

  6

  7

 40
1.0
 41
0.18
 42
0.0625
 43
0.38
 44
0.18
 45
0.0
 46
0.0
 47
0.0
 48
0.0
140
0.18
141
0.09
142
0.0
143
25.4
144
1.0
145
0.0
146
1.0
147
0.09
 71
     0
 72
     0
 73
     1
 74
     1
 75
     0
 76
     0
 77
     0
 78
     0
170
     0
171
     2
172
     0
173
     0
174
     0
175
     0
176
     0
177
     0
178
     0
270
     2
271
     4
272
     4
273
     2
274
     2
340
11
275
     0
280
     0
281
     0
282
     0
283
     1
284
     0
285
     0
286
     0
287
     3
288
     0
  0
ENDTAB
  0
TABLE
  2
BLOCK_RECORD
  5
1
330
0
100
AcDbSymbolTable
 70
     1
  0
BLOCK_RECORD
  5
1F
330
1
100
AcDbSymbolTableRecord
100
AcDbBlockTableRecord
  2
*MODEL_SPACE
  0
BLOCK_RECORD
  5
1B
330
1
100
AcDbSymbolTableRecord
100
AcDbBlockTableRecord
  2
*PAPER_SPACE
  0
ENDTAB
  0
ENDSEC
  0
SECTION
  2
BLOCKS
  0
BLOCK
  5
20
330
1F
100
AcDbEntity
  8
0
100
AcDbBlockBegin
  2
*MODEL_SPACE
 70
     0
 10
0.0
 20
0.0
 30
0.0
  3
*MODEL_SPACE
  1

  0
ENDBLK
  5
21
330
1F
100
AcDbEntity
  8
0
100
AcDbBlockEnd
  0
BLOCK
  5
1C
330
1B
100
AcDbEntity
 67
     1
  8
0
100
AcDbBlockBegin
  2
*PAPER_SPACE
 70
     0
 10
0.0
 20
0.0
 30
0.0
  3
*PAPER_SPACE
  1

  0
ENDBLK
  5
1D
330
1B
100
AcDbEntity
 67
     1
  8
0
100
AcDbBlockEnd
  0
ENDSEC
  0
SECTION
  2
ENTITIES
  0
LINE
  5
77
330
1F
100
AcDbEntity
  8
0
  6
CONTINUOUS
 62
     7
100
AcDbLine
 10
167.4861561236693
 20
-50.19999999999993
 30
0.0
 11
167.4861561236693
 21
-47.68860009363283
 31
0.0
  0
LINE
  5
78
330
1F
100
AcDbEntity
  8
0
  6
CONTINUOUS
 62
     7
100
AcDbLine
 10
166.4861561236693
 20
-48.5499999999999
 30
0.0
 11
166.4861561236693
 21
-47.68860009363283
 31
0.0
  0
LINE
  5
79
330
1F
100
AcDbEntity
  8
0
  6
CONTINUOUS
 62
     7
100
AcDbLine
 10
166.4861561236693
 20
-45.911399906367
 30
0.0
 11
166.4861561236693
 21
-45.0499999999999
 31
0.0
  0
LINE
  5
7A
330
1F
100
AcDbEntity
  8
0
  6
CONTINUOUS
 62
     7
100
AcDbLine
 10
167.4861561236693
 20
-50.19999999999993
 30
0.0
 11
167.0861561236693
 21
-50.19999999999993
 31
0.0
  0
LINE
  5
7B
330
1F
100
AcDbEntity
  8
0
  6
CONTINUOUS
 62
     7
100
AcDbLine
 10
167.4861561236693
 20
-43.39999999999992
 30
0.0
 11
167.0861561236693
 21
-43.39999999999992
 31
0.0
  0
LINE
  5
7C
330
1F
100
AcDbEntity
  8
0
  6
CONTINUOUS
 62
     7
100
AcDbLine
 10
166.4861561236693
 20
-48.5499999999999
 30
0.0
 11
166.0861561236693
 21
-50.19999999999993
 31
0.0
  0
LINE
  5
7D
330
1F
100
AcDbEntity
  8
0
  6
CONTINUOUS
 62
     7
100
AcDbLine
 10
167.4861561236693
 20
-48.5499999999999
 30
0.0
 11
167.0861561236693
 21
-50.19999999999993
 31
0.0
  0
LINE
  5
7E
330
1F
100
AcDbEntity
  8
0
  6
CONTINUOUS
 62
     7
100
AcDbLine
 10
167.4861561236693
 20
-43.39999999999992
 30
0.0
 11
167.4861561236693
 21
-45.911399906367
 31
0.0
  0
LINE
  5
7F
330
1F
100
AcDbEntity
  8
0
  6
CONTINUOUS
 62
     7
100
AcDbLine
 10
166.0861561236693
 20
-47.39999999999992
 30
0.0
 11
166.356380811987
 21
-47.50133425811904
 31
0.0
  0
LINE
  5
80
330
1F
100
AcDbEntity
  8
0
  6
CONTINUOUS
 62
     7
100
AcDbLine
 10
166.0861561236693
 20
-46.19999999999993
 30
0.0
 11
166.356380811987
 21
-46.09866574188078
 31
0.0
  0
LINE
  5
81
330
1F
100
AcDbEntity
  8
0
  6
CONTINUOUS
 62
     7
100
AcDbLine
 10
167.0861561236693
 20
-47.39999999999992
 30
0.0
 11
167.356380811987
 21
-47.50133425811904
 31
0.0
  0
LINE
  5
82
330
1F
100
AcDbEntity
  8
0
  6
CONTINUOUS
 62
     7
100
AcDbLine
 10
167.0861561236693
 20
-46.19999999999993
 30
0.0
 11
167.0861561236693
 21
-47.39999999999992
 31
0.0
  0
LINE
  5
83
330
1F
100
AcDbEntity
  8
0
  6
CONTINUOUS
 62
     7
100
AcDbLine
 10
167.0861561236693
 20
-46.19999999999993
 30
0.0
 11
167.356380811987
 21
-46.09866574188078
 31
0.0
  0
LINE
  5
84
330
1F
100
AcDbEntity
  8
0
  6
CONTINUOUS
 62
     7
100
AcDbLine
 10
166.0861561236693
 20
-43.39999999999992
 30
0.0
 11
166.4861561236693
 21
-45.0499999999999
 31
0.0
  0
LINE
  5
85
330
1F
100
AcDbEntity
  8
0
  6
CONTINUOUS
 62
     7
100
AcDbLine
 10
167.0861561236693
 20
-43.39999999999992
 30
0.0
 11
167.4861561236693
 21
-45.0499999999999
 31
0.0
  0
LINE
  5
86
330
1F
100
AcDbEntity
  8
0
  6
CONTINUOUS
 62
     7
100
AcDbLine
 10
167.0861561236693
 20
-50.19999999999993
 30
0.0
 11
166.0861561236693
 21
-50.19999999999993
 31
0.0
  0
LINE
  5
87
330
1F
100
AcDbEntity
  8
0
  6
CONTINUOUS
 62
     7
100
AcDbLine
 10
167.0861561236693
 20
-43.39999999999992
 30
0.0
 11
166.0861561236693
 21
-43.39999999999992
 31
0.0
  0
LINE
  5
88
330
1F
100
AcDbEntity
  8
0
  6
CONTINUOUS
 62
     7
100
AcDbLine
 10
168.2252762652938
 20
-49.5499999999999
 30
0.0
 11
167.4861561236693
 21
-49.5499999999999
 31
0.0
  0
LINE
  5
89
330
1F
100
AcDbEntity
  8
0
  6
CONTINUOUS
 62
     7
100
AcDbLine
 10
167.4861561236693
 20
-44.0499999999999
 30
0.0
 11
168.2252762652938
 21
-44.0499999999999
 31
0.0
  0
LINE
  5
8A
330
1F
100
AcDbEntity
  8
0
  6
CONTINUOUS
 62
     7
100
AcDbLine
 10
167.4861561236693
 20
-45.911399906367
 30
0.0
 11
167.4861561236693
 21
-47.68860009363283
 31
0.0
  0
LINE
  5
8B
330
1F
100
AcDbEntity
  8
0
  6
CONTINUOUS
 62
     7
100
AcDbLine
 10
167.4861561236693
 20
-41.79999999999995
 30
0.0
 11
167.4861561236693
 21
-39.28860009363285
 31
0.0
  0
LINE
  5
8C
330
1F
100
AcDbEntity
  8
0
  6
CONTINUOUS
 62
     7
100
AcDbLine
 10
166.4861561236693
 20
-40.14999999999992
 30
0.0
 11
166.4861561236693
 21
-39.28860009363285
 31
0.0
  0
LINE
  5
8D
330
1F
100
AcDbEntity
  8
0
  6
CONTINUOUS
 62
     7
100
AcDbLine
 10
166.4861561236693
 20
-37.51139990636699
 30
0.0
 11
166.4861561236693
 21
-36.64999999999992
 31
0.0
  0
LINE
  5
8E
330
1F
100
AcDbEntity
  8
0
  6
CONTINUOUS
 62
     7
100
AcDbLine
 10
167.4861561236693
 20
-41.79999999999995
 30
0.0
 11
167.0861561236693
 21
-41.79999999999995
 31
0.0
  0
LINE
  5
8F
330
1F
100
AcDbEntity
  8
0
  6
CONTINUOUS
 62
     7
100
AcDbLine
 10
167.4861561236693
 20
-34.99999999999991
 30
0.0
 11
167.0861561236693
 21
-34.99999999999991
 31
0.0
  0
LINE
  5
90
330
1F
100
AcDbEntity
  8
0
  6
CONTINUOUS
 62
     7
100
AcDbLine
 10
166.4861561236693
 20
-40.14999999999992
 30
0.0
 11
166.0861561236693
 21
-41.79999999999995
 31
0.0
  0
LINE
  5
91
330
1F
100
AcDbEntity
  8
0
  6
CONTINUOUS
 62
     7
100
AcDbLine
 10
167.4861561236693
 20
-40.14999999999992
 30
0.0
 11
167.0861561236693
 21
-41.79999999999995
 31
0.0
  0
LINE
  5
92
330
1F
100
AcDbEntity
  8
0
  6
CONTINUOUS
 62
     7
100
AcDbLine
 10
167.4861561236693
 20
-34.99999999999991
 30
0.0
 11
167.4861561236693
 21
-37.51139990636699
 31
0.0
  0
LINE
  5
93
330
1F
100
AcDbEntity
  8
0
  6
CONTINUOUS
 62
     7
100
AcDbLine
 10
166.0861561236693
 20
-38.99999999999991
 30
0.0
 11
166.356380811987
 21
-39.10133425811904
 31
0.0
  0
LINE
  5
94
330
1F
100
AcDbEntity
  8
0
  6
CONTINUOUS
 62
     7
100
AcDbLine
 10
166.0861561236693
 20
-37.79999999999995
 30
0.0
 11
166.356380811987
 21
-37.6986657418808
 31
0.0
  0
LINE
  5
95
330
1F
100
AcDbEntity
  8
0
  6
CONTINUOUS
 62
     7
100
AcDbLine
 10
167.0861561236693
 20
-38.99999999999991
 30
0.0
 11
167.356380811987
 21
-39.10133425811904
 31
0.0
  0
LINE
  5
96
330
1F
100
AcDbEntity
  8
0
  6
CONTINUOUS
 62
     7
100
AcDbLine
 10
167.0861561236693
 20
-37.79999999999995
 30
0.0
 11
167.0861561236693
 21
-38.99999999999991
 31
0.0
  0
LINE
  5
97
330
1F
100
AcDbEntity
  8
0
  6
CONTINUOUS
 62
     7
100
AcDbLine
 10
167.0861561236693
 20
-37.79999999999995
 30
0.0
 11
167.356380811987
 21
-37.6986657418808
 31
0.0
  0
LINE
  5
98
330
1F
100
AcDbEntity
  8
0
  6
CONTINUOUS
 62
     7
100
AcDbLine
 10
166.0861561236693
 20
-34.99999999999991
 30
0.0
 11
166.4861561236693
 21
-36.64999999999992
 31
0.0
  0
LINE
  5
99
330
1F
100
AcDbEntity
  8
0
  6
CONTINUOUS
 62
     7
100
AcDbLine
 10
167.0861561236693
 20
-34.99999999999991
 30
0.0
 11
167.4861561236693
 21
-36.64999999999992
 31
0.0
  0
LINE
  5
9A
330
1F
100
AcDbEntity
  8
0
  6
CONTINUOUS
 62
     7
100
AcDbLine
 10
167.0861561236693
 20
-41.79999999999995
 30
0.0
 11
166.0861561236693
 21
-41.79999999999995
 31
0.0
  0
LINE
  5
9B
330
1F
100
AcDbEntity
  8
0
  6
CONTINUOUS
 62
     7
100
AcDbLine
 10
167.0861561236693
 20
-34.99999999999991
 30
0.0
 11
166.0861561236693
 21
-34.99999999999991
 31
0.0
  0
LINE
  5
9C
330
1F
100
AcDbEntity
  8
0
  6
CONTINUOUS
 62
     7
100
AcDbLine
 10
168.2252762652938
 20
-41.14999999999992
 30
0.0
 11
167.4861561236693
 21
-41.14999999999992
 31
0.0
  0
LINE
  5
9D
330
1F
100
AcDbEntity
  8
0
  6
CONTINUOUS
 62
     7
100
AcDbLine
 10
167.4861561236693
 20
-35.64999999999992
 30
0.0
 11
168.2252762652938
 21
-35.64999999999992
 31
0.0
  0
LINE
  5
9E
330
1F
100
AcDbEntity
  8
0
  6
CONTINUOUS
 62
     7
100
AcDbLine
 10
167.4861561236693
 20
-37.51139990636699
 30
0.0
 11
167.4861561236693
 21
-39.28860009363285
 31
0.0
  0
LINE
  5
9F
330
1F
100
AcDbEntity
  8
0
  6
CONTINUOUS
 62
     7
100
AcDbLine
 10
167.4861561236693
 20
-33.39999999999998
 30
0.0
 11
167.4861561236693
 21
-30.88860009363287
 31
0.0
  0
LINE
  5
A0
330
1F
100
AcDbEntity
  8
0
  6
CONTINUOUS
 62
     7
100
AcDbLine
 10
166.4861561236693
 20
-31.74999999999994
 30
0.0
 11
166.4861561236693
 21
-30.88860009363287
 31
0.0
  0
LINE
  5
A1
330
1F
100
AcDbEntity
  8
0
  6
CONTINUOUS
 62
     7
100
AcDbLine
 10
166.4861561236693
 20
-29.11139990636701
 30
0.0
 11
166.4861561236693
 21
-28.24999999999994
 31
0.0
  0
LINE
  5
A2
330
1F
100
AcDbEntity
  8
0
  6
CONTINUOUS
 62
     7
100
AcDbLine
 10
167.4861561236693
 20
-33.39999999999998
 30
0.0
 11
167.0861561236693
 21
-33.39999999999998
 31
0.0
  0
LINE
  5
A3
330
1F
100
AcDbEntity
  8
0
  6
CONTINUOUS
 62
     7
100
AcDbLine
 10
167.4861561236693
 20
-26.59999999999997
 30
0.0
 11
167.0861561236693
 21
-26.59999999999997
 31
0.0
  0
LINE
  5
A4
330
1F
100
AcDbEntity
  8
0
  6
CONTINUOUS
 62
     7
100
AcDbLine
 10
166.4861561236693
 20
-31.74999999999994
 30
0.0
 11
166.0861561236693
 21
-33.39999999999998
 31
0.0
  0
LINE
  5
A5
330
1F
100
AcDbEntity
  8
0
  6
CONTINUOUS
 62
     7
100
AcDbLine
 10
167.4861561236693
 20
-31.74999999999994
 30
0.0
 11
167.0861561236693
 21
-33.39999999999998
 31
0.0
  0
LINE
  5
A6
330
1F
100
AcDbEntity
  8
0
  6
CONTINUOUS
 62
     7
100
AcDbLine
 10
167.4861561236693
 20
-26.59999999999997
 30
0.0
 11
167.4861561236693
 21
-29.11139990636701
 31
0.0
  0
LINE
  5
A7
330
1F
100
AcDbEntity
  8
0
  6
CONTINUOUS
 62
     7
100
AcDbLine
 10
166.0861561236693
 20
-30.59999999999997
 30
0.0
 11
166.356380811987
 21
-30.70133425811906
 31
0.0
  0
LINE
  5
A8
330
1F
100
AcDbEntity
  8
0
  6
CONTINUOUS
 62
     7
100
AcDbLine
 10
166.0861561236693
 20
-29.39999999999998
 30
0.0
 11
166.356380811987
 21
-29.29866574188082
 31
0.0
  0
LINE
  5
A9
330
1F
100
AcDbEntity
  8
0
  6
CONTINUOUS
 62
     7
100
AcDbLine
 10
167.0861561236693
 20
-30.59999999999997
 30
0.0
 11
167.356380811987
 21
-30.70133425811906
 31
0.0
  0
LINE
  5
AA
330
1F
100
AcDbEntity
  8
0
  6
CONTINUOUS
 62
     7
100
AcDbLine
 10
167.0861561236693
 20
-29.39999999999998
 30
0.0
 11
167.0861561236693
 21
-30.59999999999997
 31
0.0
  0
LINE
  5
AB
330
1F
100
AcDbEntity
  8
0
  6
CONTINUOUS
 62
     7
100
AcDbLine
 10
167.0861561236693
 20
-29.39999999999998
 30
0.0
 11
167.356380811987
 21
-29.29866574188082
 31
0.0
  0
LINE
  5
AC
330
1F
100
AcDbEntity
  8
0
  6
CONTINUOUS
 62
     7
100
AcDbLine
 10
166.0861561236693
 20
-26.59999999999997
 30
0.0
 11
166.4861561236693
 21
-28.24999999999994
 31
0.0
  0
LINE
  5
AD
330
1F
100
AcDbEntity
  8
0
  6
CONTINUOUS
 62
     7
100
AcDbLine
 10
167.0861561236693
 20
-26.59999999999997
 30
0.0
 11
167.4861561236693
 21
-28.24999999999994
 31
0.0
  0
LINE
  5
AE
330
1F
100
AcDbEntity
  8
0
  6
CONTINUOUS
 62
     7
100
AcDbLine
 10
167.0861561236693
 20
-33.39999999999998
 30
0.0
 11
166.0861561236693
 21
-33.39999999999998
 31
0.0
  0
LINE
  5
AF
330
1F
100
AcDbEntity
  8
0
  6
CONTINUOUS
 62
     7
100
AcDbLine
 10
167.0861561236693
 20
-26.59999999999997
 30
0.0
 11
166.0861561236693
 21
-26.59999999999997
 31
0.0
  0
LINE
  5
B0
330
1F
100
AcDbEntity
  8
0
  6
CONTINUOUS
 62
     7
100
AcDbLine
 10
168.2252762652938
 20
-32.74999999999994
 30
0.0
 11
167.4861561236693
 21
-32.74999999999994
 31
0.0
  0
LINE
  5
B1
330
1F
100
AcDbEntity
  8
0
  6
CONTINUOUS
 62
     7
100
AcDbLine
 10
167.4861561236693
 20
-27.24999999999994
 30
0.0
 11
168.2252762652938
 21
-27.24999999999994
 31
0.0
  0
LINE
  5
B2
330
1F
100
AcDbEntity
  8
0
  6
CONTINUOUS
 62
     7
100
AcDbLine
 10
167.4861561236693
 20
-29.11139990636701
 30
0.0
 11
167.4861561236693
 21
-30.88860009363287
 31
0.0
  0
LINE
  5
B3
330
1F
100
AcDbEntity
  8
0
  6
CONTINUOUS
 62
     7
100
AcDbLine
 10
167.4861561236693
 20
-24.99999999999997
 30
0.0
 11
167.4861561236693
 21
-22.48860009363293
 31
0.0
  0
LINE
  5
B4
330
1F
100
AcDbEntity
  8
0
  6
CONTINUOUS
 62
     7
100
AcDbLine
 10
166.4861561236693
 20
-23.34999999999999
 30
0.0
 11
166.4861561236693
 21
-22.48860009363293
 31
0.0
  0
LINE
  5
B5
330
1F
100
AcDbEntity
  8
0
  6
CONTINUOUS
 62
     7
100
AcDbLine
 10
166.4861561236693
 20
-20.71139990636703
 30
0.0
 11
166.4861561236693
 21
-19.84999999999999
 31
0.0
  0
LINE
  5
B6
330
1F
100
AcDbEntity
  8
0
  6
CONTINUOUS
 62
     7
100
AcDbLine
 10
167.4861561236693
 20
-24.99999999999997
 30
0.0
 11
167.0861561236693
 21
-24.99999999999997
 31
0.0
  0
LINE
  5
B7
330
1F
100
AcDbEntity
  8
0
  6
CONTINUOUS
 62
     7
100
AcDbLine
 10
167.4861561236693
 20
-18.19999999999996
 30
0.0
 11
167.0861561236693
 21
-18.19999999999996
 31
0.0
  0
LINE
  5
B8
330
1F
100
AcDbEntity
  8
0
  6
CONTINUOUS
 62
     7
100
AcDbLine
 10
166.4861561236693
 20
-23.34999999999999
 30
0.0
 11
166.0861561236693
 21
-24.99999999999997
 31
0.0
  0
LINE
  5
B9
330
1F
100
AcDbEntity
  8
0
  6
CONTINUOUS
 62
     7
100
AcDbLine
 10
167.4861561236693
 20
-23.34999999999999
 30
0.0
 11
167.0861561236693
 21
-24.99999999999997
 31
0.0
  0
LINE
  5
BA
330
1F
100
AcDbEntity
  8
0
  6
CONTINUOUS
 62
     7
100
AcDbLine
 10
167.4861561236693
 20
-18.19999999999996
 30
0.0
 11
167.4861561236693
 21
-20.71139990636703
 31
0.0
  0
LINE
  5
BB
330
1F
100
AcDbEntity
  8
0
  6
CONTINUOUS
 62
     7
100
AcDbLine
 10
166.0861561236693
 20
-22.19999999999996
 30
0.0
 11
166.356380811987
 21
-22.30133425811908
 31
0.0
  0
LINE
  5
BC
330
1F
100
AcDbEntity
  8
0
  6
CONTINUOUS
 62
     7
100
AcDbLine
 10
166.0861561236693
 20
-20.99999999999997
 30
0.0
 11
166.356380811987
 21
-20.89866574188082
 31
0.0
  0
LINE
  5
BD
330
1F
100
AcDbEntity
  8
0
  6
CONTINUOUS
 62
     7
100
AcDbLine
 10
167.0861561236693
 20
-22.19999999999996
 30
0.0
 11
167.356380811987
 21
-22.30133425811908
 31
0.0
  0
LINE
  5
BE
330
1F
100
AcDbEntity
  8
0
  6
CONTINUOUS
 62
     7
100
AcDbLine
 10
167.0861561236693
 20
-20.99999999999997
 30
0.0
 11
167.0861561236693
 21
-22.19999999999996
 31
0.0
  0
LINE
  5
BF
330
1F
100
AcDbEntity
  8
0
  6
CONTINUOUS
 62
     7
100
AcDbLine
 10
167.0861561236693
 20
-20.99999999999997
 30
0.0
 11
167.356380811987
 21
-20.89866574188082
 31
0.0
  0
LINE
  5
C0
330
1F
100
AcDbEntity
  8
0
  6
CONTINUOUS
 62
     7
100
AcDbLine
 10
166.0861561236693
 20
-18.19999999999996
 30
0.0
 11
166.4861561236693
 21
-19.84999999999999
 31
0.0
  0
LINE
  5
C1
330
1F
100
AcDbEntity
  8
0
  6
CONTINUOUS
 62
     7
100
AcDbLine
 10
167.0861561236693
 20
-18.19999999999996
 30
0.0
 11
167.4861561236693
 21
-19.84999999999999
 31
0.0
  0
LINE
  5
C2
330
1F
100
AcDbEntity
  8
0
  6
CONTINUOUS
 62
     7
100
AcDbLine
 10
167.0861561236693
 20
-24.99999999999997
 30
0.0
 11
166.0861561236693
 21
-24.99999999999997
 31
0.0
  0
LINE
  5
C3
330
1F
100
AcDbEntity
  8
0
  6
CONTINUOUS
 62
     7
100
AcDbLine
 10
167.0861561236693
 20
-18.19999999999996
 30
0.0
 11
166.0861561236693
 21
-18.19999999999996
 31
0.0
  0
LINE
  5
C4
330
1F
100
AcDbEntity
  8
0
  6
CONTINUOUS
 62
     7
100
AcDbLine
 10
168.2252762652938
 20
-24.34999999999999
 30
0.0
 11
167.4861561236693
 21
-24.34999999999999
 31
0.0
  0
LINE
  5
C5
330
1F
100
AcDbEntity
  8
0
  6
CONTINUOUS
 62
     7
100
AcDbLine
 10
167.4861561236693
 20
-18.84999999999999
 30
0.0
 11
168.2252762652938
 21
-18.84999999999999
 31
0.0
  0
LINE
  5
C6
330
1F
100
AcDbEntity
  8
0
  6
CONTINUOUS
 62
     7
100
AcDbLine
 10
167.4861561236693
 20
-20.71139990636703
 30
0.0
 11
167.4861561236693
 21
-22.48860009363293
 31
0.0
  0
LINE
  5
C7
330
1F
100
AcDbEntity
  8
0
  6
CONTINUOUS
 62
     7
100
AcDbLine
 10
167.4861561236693
 20
-16.59999999999999
 30
0.0
 11
167.4861561236693
 21
-14.08860009363295
 31
0.0
  0
LINE
  5
C8
330
1F
100
AcDbEntity
  8
0
  6
CONTINUOUS
 62
     7
100
AcDbLine
 10
166.4861561236693
 20
-14.95000000000002
 30
0.0
 11
166.4861561236693
 21
-14.08860009363295
 31
0.0
  0
LINE
  5
C9
330
1F
100
AcDbEntity
  8
0
  6
CONTINUOUS
 62
     7
100
AcDbLine
 10
166.4861561236693
 20
-12.31139990636709
 30
0.0
 11
166.4861561236693
 21
-11.45000000000002
 31
0.0
  0
LINE
  5
CA
330
1F
100
AcDbEntity
  8
0
  6
CONTINUOUS
 62
     7
100
AcDbLine
 10
167.4861561236693
 20
-16.59999999999999
 30
0.0
 11
167.0861561236693
 21
-16.59999999999999
 31
0.0
  0
LINE
  5
CB
330
1F
100
AcDbEntity
  8
0
  6
CONTINUOUS
 62
     7
100
AcDbLine
 10
167.4861561236693
 20
-9.79999999999998
 30
0.0
 11
167.0861561236693
 21
-9.79999999999998
 31
0.0
  0
LINE
  5
CC
330
1F
100
AcDbEntity
  8
0
  6
CONTINUOUS
 62
     7
100
AcDbLine
 10
166.4861561236693
 20
-14.95000000000002
 30
0.0
 11
166.0861561236693
 21
-16.59999999999999
 31
0.0
  0
LINE
  5
CD
330
1F
100
AcDbEntity
  8
0
  6
CONTINUOUS
 62
     7
100
AcDbLine
 10
167.4861561236693
 20
-14.95000000000002
 30
0.0
 11
167.0861561236693
 21
-16.59999999999999
 31
0.0
  0
LINE
  5
CE
330
1F
100
AcDbEntity
  8
0
  6
CONTINUOUS
 62
     7
100
AcDbLine
 10
167.4861561236693
 20
-9.79999999999998
 30
0.0
 11
167.4861561236693
 21
-12.31139990636709
 31
0.0
  0
LINE
  5
CF
330
1F
100
AcDbEntity
  8
0
  6
CONTINUOUS
 62
     7
100
AcDbLine
 10
166.0861561236693
 20
-13.79999999999998
 30
0.0
 11
166.356380811987
 21
-13.90133425811914
 31
0.0
  0
LINE
  5
D0
330
1F
100
AcDbEntity
  8
0
  6
CONTINUOUS
 62
     7
100
AcDbLine
 10
166.0861561236693
 20
-12.59999999999999
 30
0.0
 11
166.356380811987
 21
-12.49866574188084
 31
0.0
  0
LINE
  5
D1
330
1F
100
AcDbEntity
  8
0
  6
CONTINUOUS
 62
     7
100
AcDbLine
 10
167.0861561236693
 20
-13.79999999999998
 30
0.0
 11
167.356380811987
 21
-13.90133425811914
 31
0.0
  0
LINE
  5
D2
330
1F
100
AcDbEntity
  8
0
  6
CONTINUOUS
 62
     7
100
AcDbLine
 10
167.0861561236693
 20
-12.59999999999999
 30
0.0
 11
167.0861561236693
 21
-13.79999999999998
 31
0.0
  0
LINE
  5
D3
330
1F
100
AcDbEntity
  8
0
  6
CONTINUOUS
 62
     7
100
AcDbLine
 10
167.0861561236693
 20
-12.59999999999999
 30
0.0
 11
167.356380811987
 21
-12.49866574188084
 31
0.0
  0
LINE
  5
D4
330
1F
100
AcDbEntity
  8
0
  6
CONTINUOUS
 62
     7
100
AcDbLine
 10
166.0861561236693
 20
-9.79999999999998
 30
0.0
 11
166.4861561236693
 21
-11.45000000000002
 31
0.0
  0
LINE
  5
D5
330
1F
100
AcDbEntity
  8
0
  6
CONTINUOUS
 62
     7
100
AcDbLine
 10
167.0861561236693
 20
-9.79999999999998
 30
0.0
 11
167.4861561236693
 21
-11.45000000000002
 31
0.0
  0
LINE
  5
D6
330
1F
100
AcDbEntity
  8
0
  6
CONTINUOUS
 62
     7
100
AcDbLine
 10
167.0861561236693
 20
-16.59999999999999
 30
0.0
 11
166.0861561236693
 21
-16.59999999999999
 31
0.0
  0
LINE
  5
D7
330
1F
100
AcDbEntity
  8
0
  6
CONTINUOUS
 62
     7
100
AcDbLine
 10
167.0861561236693
 20
-9.79999999999998
 30
0.0
 11
166.0861561236693
 21
-9.79999999999998
 31
0.0
  0
LINE
  5
D8
330
1F
100
AcDbEntity
  8
0
  6
CONTINUOUS
 62
     7
100
AcDbLine
 10
168.2252762652938
 20
-15.95000000000002
 30
0.0
 11
167.4861561236693
 21
-15.95000000000002
 31
0.0
  0
LINE
  5
D9
330
1F
100
AcDbEntity
  8
0
  6
CONTINUOUS
 62
     7
100
AcDbLine
 10
167.4861561236693
 20
-10.45000000000002
 30
0.0
 11
168.2252762652938
 21
-10.45000000000002
 31
0.0
  0
LINE
  5
DA
330
1F
100
AcDbEntity
  8
0
  6
CONTINUOUS
 62
     7
100
AcDbLine
 10
167.4861561236693
 20
-12.31139990636709
 30
0.0
 11
167.4861561236693
 21
-14.08860009363295
 31
0.0
  0
LINE
  5
DB
330
1F
100
AcDbEntity
  8
0
  6
CONTINUOUS
 62
     7
100
AcDbLine
 10
167.4861561236693
 20
-8.20000000000002
 30
0.0
 11
167.4861561236693
 21
-5.68860009363297
 31
0.0
  0
LINE
  5
DC
330
1F
100
AcDbEntity
  8
0
  6
CONTINUOUS
 62
     7
100
AcDbLine
 10
166.4861561236693
 20
-6.55000000000004
 30
0.0
 11
166.4861561236693
 21
-5.68860009363297
 31
0.0
  0
LINE
  5
DD
330
1F
100
AcDbEntity
  8
0
  6
CONTINUOUS
 62
     7
100
AcDbLine
 10
166.4861561236693
 20
-3.91139990636711
 30
0.0
 11
166.4861561236693
 21
-3.05000000000004
 31
0.0
  0
LINE
  5
DE
330
1F
100
AcDbEntity
  8
0
  6
CONTINUOUS
 62
     7
100
AcDbLine
 10
167.4861561236693
 20
-8.20000000000002
 30
0.0
 11
167.0861561236693
 21
-8.20000000000002
 31
0.0
  0
LINE
  5
DF
330
1F
100
AcDbEntity
  8
0
  6
CONTINUOUS
 62
     7
100
AcDbLine
 10
167.4861561236693
 20
-1.40000000000001
 30
0.0
 11
167.0861561236693
 21
-1.40000000000001
 31
0.0
  0
LINE
  5
E0
330
1F
100
AcDbEntity
  8
0
  6
CONTINUOUS
 62
     7
100
AcDbLine
 10
166.4861561236693
 20
-6.55000000000004
 30
0.0
 11
166.0861561236693
 21
-8.20000000000002
 31
0.0
  0
LINE
  5
E1
330
1F
100
AcDbEntity
  8
0
  6
CONTINUOUS
 62
     7
100
AcDbLine
 10
167.4861561236693
 20
-6.55000000000004
 30
0.0
 11
167.0861561236693
 21
-8.20000000000002
 31
0.0
  0
LINE
  5
E2
330
1F
100
AcDbEntity
  8
0
  6
CONTINUOUS
 62
     7
100
AcDbLine
 10
167.4861561236693
 20
-1.40000000000001
 30
0.0
 11
167.4861561236693
 21
-3.91139990636711
 31
0.0
  0
LINE
  5
E3
330
1F
100
AcDbEntity
  8
0
  6
CONTINUOUS
 62
     7
100
AcDbLine
 10
166.0861561236693
 20
-5.40000000000001
 30
0.0
 11
166.356380811987
 21
-5.50133425811916
 31
0.0
  0
LINE
  5
E4
330
1F
100
AcDbEntity
  8
0
  6
CONTINUOUS
 62
     7
100
AcDbLine
 10
166.0861561236693
 20
-4.20000000000002
 30
0.0
 11
166.356380811987
 21
-4.09866574188086
 31
0.0
  0
LINE
  5
E5
330
1F
100
AcDbEntity
  8
0
  6
CONTINUOUS
 62
     7
100
AcDbLine
 10
167.0861561236693
 20
-5.40000000000001
 30
0.0
 11
167.356380811987
 21
-5.50133425811916
 31
0.0
  0
LINE
  5
E6
330
1F
100
AcDbEntity
  8
0
  6
CONTINUOUS
 62
     7
100
AcDbLine
 10
167.0861561236693
 20
-4.20000000000002
 30
0.0
 11
167.0861561236693
 21
-5.40000000000001
 31
0.0
  0
LINE
  5
E7
330
1F
100
AcDbEntity
  8
0
  6
CONTINUOUS
 62
     7
100
AcDbLine
 10
167.0861561236693
 20
-4.20000000000002
 30
0.0
 11
167.356380811987
 21
-4.09866574188086
 31
0.0
  0
LINE
  5
E8
330
1F
100
AcDbEntity
  8
0
  6
CONTINUOUS
 62
     7
100
AcDbLine
 10
166.0861561236693
 20
-1.40000000000001
 30
0.0
 11
166.4861561236693
 21
-3.05000000000004
 31
0.0
  0
LINE
  5
E9
330
1F
100
AcDbEntity
  8
0
  6
CONTINUOUS
 62
     7
100
AcDbLine
 10
167.0861561236693
 20
-1.40000000000001
 30
0.0
 11
167.4861561236693
 21
-3.05000000000004
 31
0.0
  0
LINE
  5
EA
330
1F
100
AcDbEntity
  8
0
  6
CONTINUOUS
 62
     7
100
AcDbLine
 10
167.0861561236693
 20
-8.20000000000002
 30
0.0
 11
166.0861561236693
 21
-8.20000000000002
 31
0.0
  0
LINE
  5
EB
330
1F
100
AcDbEntity
  8
0
  6
CONTINUOUS
 62
     7
100
AcDbLine
 10
167.0861561236693
 20
-1.40000000000001
 30
0.0
 11
166.0861561236693
 21
-1.40000000000001
 31
0.0
  0
LINE
  5
EC
330
1F
100
AcDbEntity
  8
0
  6
CONTINUOUS
 62
     7
100
AcDbLine
 10
168.2252762652938
 20
-7.55000000000004
 30
0.0
 11
167.4861561236693
 21
-7.55000000000004
 31
0.0
  0
LINE
  5
ED
330
1F
100
AcDbEntity
  8
0
  6
CONTINUOUS
 62
     7
100
AcDbLine
 10
167.4861561236693
 20
-2.05000000000004
 30
0.0
 11
168.2252762652938
 21
-2.05000000000004
 31
0.0
  0
LINE
  5
EE
330
1F
100
AcDbEntity
  8
0
  6
CONTINUOUS
 62
     7
100
AcDbLine
 10
167.4861561236693
 20
-3.91139990636711
 30
0.0
 11
167.4861561236693
 21
-5.68860009363297
 31
0.0
  0
LINE
  5
EF
330
1F
100
AcDbEntity
  8
0
  6
CONTINUOUS
 62
     7
100
AcDbLine
 10
167.4861561236693
 20
0.19999999999996
 30
0.0
 11
167.4861561236693
 21
2.71139990636703
 31
0.0
  0
LINE
  5
F0
330
1F
100
AcDbEntity
  8
0
  6
CONTINUOUS
 62
     7
100
AcDbLine
 10
166.4861561236693
 20
1.84999999999997
 30
0.0
 11
166.4861561236693
 21
2.71139990636703
 31
0.0
  0
LINE
  5
F1
330
1F
100
AcDbEntity
  8
0
  6
CONTINUOUS
 62
     7
100
AcDbLine
 10
166.4861561236693
 20
4.48860009363287
 30
0.0
 11
166.4861561236693
 21
5.34999999999994
 31
0.0
  0
LINE
  5
F2
330
1F
100
AcDbEntity
  8
0
  6
CONTINUOUS
 62
     7
100
AcDbLine
 10
167.4861561236693
 20
0.19999999999996
 30
0.0
 11
167.0861561236693
 21
0.19999999999996
 31
0.0
  0
LINE
  5
F3
330
1F
100
AcDbEntity
  8
0
  6
CONTINUOUS
 62
     7
100
AcDbLine
 10
167.4861561236693
 20
6.99999999999997
 30
0.0
 11
167.0861561236693
 21
6.99999999999997
 31
0.0
  0
LINE
  5
F4
330
1F
100
AcDbEntity
  8
0
  6
CONTINUOUS
 62
     7
100
AcDbLine
 10
166.4861561236693
 20
1.84999999999997
 30
0.0
 11
166.0861561236693
 21
0.19999999999996
 31
0.0
  0
LINE
  5
F5
330
1F
100
AcDbEntity
  8
0
  6
CONTINUOUS
 62
     7
100
AcDbLine
 10
167.4861561236693
 20
1.84999999999997
 30
0.0
 11
167.0861561236693
 21
0.19999999999996
 31
0.0
  0
LINE
  5
F6
330
1F
100
AcDbEntity
  8
0
  6
CONTINUOUS
 62
     7
100
AcDbLine
 10
167.4861561236693
 20
6.99999999999997
 30
0.0
 11
167.4861561236693
 21
4.48860009363287
 31
0.0
  0
LINE
  5
F7
330
1F
100
AcDbEntity
  8
0
  6
CONTINUOUS
 62
     7
100
AcDbLine
 10
166.0861561236693
 20
2.99999999999994
 30
0.0
 11
166.356380811987
 21
2.89866574188082
 31
0.0
  0
LINE
  5
F8
330
1F
100
AcDbEntity
  8
0
  6
CONTINUOUS
 62
     7
100
AcDbLine
 10
166.0861561236693
 20
4.19999999999996
 30
0.0
 11
166.356380811987
 21
4.30133425811911
 31
0.0
  0
LINE
  5
F9
330
1F
100
AcDbEntity
  8
0
  6
CONTINUOUS
 62
     7
100
AcDbLine
 10
167.0861561236693
 20
2.99999999999994
 30
0.0
 11
167.356380811987
 21
2.89866574188082
 31
0.0
  0
LINE
  5
FA
330
1F
100
AcDbEntity
  8
0
  6
CONTINUOUS
 62
     7
100
AcDbLine
 10
167.0861561236693
 20
4.19999999999996
 30
0.0
 11
167.0861561236693
 21
2.99999999999994
 31
0.0
  0
LINE
  5
FB
330
1F
100
AcDbEntity
  8
0
  6
CONTINUOUS
 62
     7
100
AcDbLine
 10
167.0861561236693
 20
4.19999999999996
 30
0.0
 11
167.356380811987
 21
4.30133425811911
 31
0.0
  0
LINE
  5
FC
330
1F
100
AcDbEntity
  8
0
  6
CONTINUOUS
 62
     7
100
AcDbLine
 10
166.0861561236693
 20
6.99999999999997
 30
0.0
 11
166.4861561236693
 21
5.34999999999994
 31
0.0
  0
LINE
  5
FD
330
1F
100
AcDbEntity
  8
0
  6
CONTINUOUS
 62
     7
100
AcDbLine
 10
167.0861561236693
 20
6.99999999999997
 30
0.0
 11
167.4861561236693
 21
5.34999999999994
 31
0.0
  0
LINE
  5
FE
330
1F
100
AcDbEntity
  8
0
  6
CONTINUOUS
 62
     7
100
AcDbLine
 10
167.0861561236693
 20
0.19999999999996
 30
0.0
 11
166.0861561236693
 21
0.19999999999996
 31
0.0
  0
LINE
  5
FF
330
1F
100
AcDbEntity
  8
0
  6
CONTINUOUS
 62
     7
100
AcDbLine
 10
167.0861561236693
 20
6.99999999999997
 30
0.0
 11
166.0861561236693
 21
6.99999999999997
 31
0.0
  0
LINE
  5
100
330
1F
100
AcDbEntity
  8
0
  6
CONTINUOUS
 62
     7
100
AcDbLine
 10
168.2252762652938
 20
0.84999999999994
 30
0.0
 11
167.4861561236693
 21
0.84999999999994
 31
0.0
  0
LINE
  5
101
330
1F
100
AcDbEntity
  8
0
  6
CONTINUOUS
 62
     7
100
AcDbLine
 10
167.4861561236693
 20
6.34999999999994
 30
0.0
 11
168.2252762652938
 21
6.34999999999994
 31
0.0
  0
LINE
  5
102
330
1F
100
AcDbEntity
  8
0
  6
CONTINUOUS
 62
     7
100
AcDbLine
 10
167.4861561236693
 20
4.48860009363287
 30
0.0
 11
167.4861561236693
 21
2.71139990636703
 31
0.0
  0
LINE
  5
103
330
1F
100
AcDbEntity
  8
0
  6
CONTINUOUS
 62
     7
100
AcDbLine
 10
167.4861561236693
 20
8.59999999999994
 30
0.0
 11
167.4861561236693
 21
11.11139990636701
 31
0.0
  0
LINE
  5
104
330
1F
100
AcDbEntity
  8
0
  6
CONTINUOUS
 62
     7
100
AcDbLine
 10
166.4861561236693
 20
10.24999999999991
 30
0.0
 11
166.4861561236693
 21
11.11139990636701
 31
0.0
  0
LINE
  5
105
330
1F
100
AcDbEntity
  8
0
  6
CONTINUOUS
 62
     7
100
AcDbLine
 10
166.4861561236693
 20
12.88860009363285
 30
0.0
 11
166.4861561236693
 21
13.74999999999991
 31
0.0
  0
LINE
  5
106
330
1F
100
AcDbEntity
  8
0
  6
CONTINUOUS
 62
     7
100
AcDbLine
 10
167.4861561236693
 20
8.59999999999994
 30
0.0
 11
167.0861561236693
 21
8.59999999999994
 31
0.0
  0
LINE
  5
107
330
1F
100
AcDbEntity
  8
0
  6
CONTINUOUS
 62
     7
100
AcDbLine
 10
167.4861561236693
 20
15.39999999999995
 30
0.0
 11
167.0861561236693
 21
15.39999999999995
 31
0.0
  0
LINE
  5
108
330
1F
100
AcDbEntity
  8
0
  6
CONTINUOUS
 62
     7
100
AcDbLine
 10
166.4861561236693
 20
10.24999999999991
 30
0.0
 11
166.0861561236693
 21
8.59999999999994
 31
0.0
  0
LINE
  5
109
330
1F
100
AcDbEntity
  8
0
  6
CONTINUOUS
 62
     7
100
AcDbLine
 10
167.4861561236693
 20
10.24999999999991
 30
0.0
 11
167.0861561236693
 21
8.59999999999994
 31
0.0
  0
LINE
  5
10A
330
1F
100
AcDbEntity
  8
0
  6
CONTINUOUS
 62
     7
100
AcDbLine
 10
167.4861561236693
 20
15.39999999999995
 30
0.0
 11
167.4861561236693
 21
12.88860009363285
 31
0.0
  0
LINE
  5
10B
330
1F
100
AcDbEntity
  8
0
  6
CONTINUOUS
 62
     7
100
AcDbLine
 10
166.0861561236693
 20
11.39999999999995
 30
0.0
 11
166.356380811987
 21
11.29866574188082
 31
0.0
  0
LINE
  5
10C
330
1F
100
AcDbEntity
  8
0
  6
CONTINUOUS
 62
     7
100
AcDbLine
 10
166.0861561236693
 20
12.59999999999994
 30
0.0
 11
166.356380811987
 21
12.70133425811909
 31
0.0
  0
LINE
  5
10D
330
1F
100
AcDbEntity
  8
0
  6
CONTINUOUS
 62
     7
100
AcDbLine
 10
167.0861561236693
 20
11.39999999999995
 30
0.0
 11
167.356380811987
 21
11.29866574188082
 31
0.0
  0
LINE
  5
10E
330
1F
100
AcDbEntity
  8
0
  6
CONTINUOUS
 62
     7
100
AcDbLine
 10
167.0861561236693
 20
12.59999999999994
 30
0.0
 11
167.0861561236693
 21
11.39999999999995
 31
0.0
  0
LINE
  5
10F
330
1F
100
AcDbEntity
  8
0
  6
CONTINUOUS
 62
     7
100
AcDbLine
 10
167.0861561236693
 20
12.59999999999994
 30
0.0
 11
167.356380811987
 21
12.70133425811909
 31
0.0
  0
LINE
  5
110
330
1F
100
AcDbEntity
  8
0
  6
CONTINUOUS
 62
     7
100
AcDbLine
 10
166.0861561236693
 20
15.39999999999995
 30
0.0
 11
166.4861561236693
 21
13.74999999999991
 31
0.0
  0
LINE
  5
111
330
1F
100
AcDbEntity
  8
0
  6
CONTINUOUS
 62
     7
100
AcDbLine
 10
167.0861561236693
 20
15.39999999999995
 30
0.0
 11
167.4861561236693
 21
13.74999999999991
 31
0.0
  0
LINE
  5
112
330
1F
100
AcDbEntity
  8
0
  6
CONTINUOUS
 62
     7
100
AcDbLine
 10
167.0861561236693
 20
8.59999999999994
 30
0.0
 11
166.0861561236693
 21
8.59999999999994
 31
0.0
  0
LINE
  5
113
330
1F
100
AcDbEntity
  8
0
  6
CONTINUOUS
 62
     7
100
AcDbLine
 10
167.0861561236693
 20
15.39999999999995
 30
0.0
 11
166.0861561236693
 21
15.39999999999995
 31
0.0
  0
LINE
  5
114
330
1F
100
AcDbEntity
  8
0
  6
CONTINUOUS
 62
     7
100
AcDbLine
 10
168.2252762652938
 20
9.24999999999994
 30
0.0
 11
167.4861561236693
 21
9.24999999999994
 31
0.0
  0
LINE
  5
115
330
1F
100
AcDbEntity
  8
0
  6
CONTINUOUS
 62
     7
100
AcDbLine
 10
167.4861561236693
 20
14.74999999999991
 30
0.0
 11
168.2252762652938
 21
14.74999999999991
 31
0.0
  0
LINE
  5
116
330
1F
100
AcDbEntity
  8
0
  6
CONTINUOUS
 62
     7
100
AcDbLine
 10
167.4861561236693
 20
12.88860009363285
 30
0.0
 11
167.4861561236693
 21
11.11139990636701
 31
0.0
  0
LINE
  5
117
330
1F
100
AcDbEntity
  8
0
  6
CONTINUOUS
 62
     7
100
AcDbLine
 10
167.4861561236693
 20
16.99999999999991
 30
0.0
 11
167.4861561236693
 21
19.51139990636699
 31
0.0
  0
LINE
  5
118
330
1F
100
AcDbEntity
  8
0
  6
CONTINUOUS
 62
     7
100
AcDbLine
 10
166.4861561236693
 20
18.64999999999992
 30
0.0
 11
166.4861561236693
 21
19.51139990636699
 31
0.0
  0
LINE
  5
119
330
1F
100
AcDbEntity
  8
0
  6
CONTINUOUS
 62
     7
100
AcDbLine
 10
166.4861561236693
 20
21.28860009363285
 30
0.0
 11
166.4861561236693
 21
22.14999999999992
 31
0.0
  0
LINE
  5
11A
330
1F
100
AcDbEntity
  8
0
  6
CONTINUOUS
 62
     7
100
AcDbLine
 10
167.4861561236693
 20
16.99999999999991
 30
0.0
 11
167.0861561236693
 21
16.99999999999991
 31
0.0
  0
LINE
  5
11B
330
1F
100
AcDbEntity
  8
0
  6
CONTINUOUS
 62
     7
100
AcDbLine
 10
167.4861561236693
 20
23.79999999999993
 30
0.0
 11
167.0861561236693
 21
23.79999999999993
 31
0.0
  0
LINE
  5
11C
330
1F
100
AcDbEntity
  8
0
  6
CONTINUOUS
 62
     7
100
AcDbLine
 10
166.4861561236693
 20
18.64999999999992
 30
0.0
 11
166.0861561236693
 21
16.99999999999991
 31
0.0
  0
LINE
  5
11D
330
1F
100
AcDbEntity
  8
0
  6
CONTINUOUS
 62
     7
100
AcDbLine
 10
167.4861561236693
 20
18.64999999999992
 30
0.0
 11
167.0861561236693
 21
16.99999999999991
 31
0.0
  0
LINE
  5
11E
330
1F
100
AcDbEntity
  8
0
  6
CONTINUOUS
 62
     7
100
AcDbLine
 10
167.4861561236693
 20
23.79999999999993
 30
0.0
 11
167.4861561236693
 21
21.28860009363285
 31
0.0
  0
LINE
  5
11F
330
1F
100
AcDbEntity
  8
0
  6
CONTINUOUS
 62
     7
100
AcDbLine
 10
166.0861561236693
 20
19.79999999999993
 30
0.0
 11
166.356380811987
 21
19.6986657418808
 31
0.0
  0
LINE
  5
120
330
1F
100
AcDbEntity
  8
0
  6
CONTINUOUS
 62
     7
100
AcDbLine
 10
166.0861561236693
 20
20.99999999999991
 30
0.0
 11
166.356380811987
 21
21.10133425811907
 31
0.0
  0
LINE
  5
121
330
1F
100
AcDbEntity
  8
0
  6
CONTINUOUS
 62
     7
100
AcDbLine
 10
167.0861561236693
 20
19.79999999999993
 30
0.0
 11
167.356380811987
 21
19.6986657418808
 31
0.0
  0
LINE
  5
122
330
1F
100
AcDbEntity
  8
0
  6
CONTINUOUS
 62
     7
100
AcDbLine
 10
167.0861561236693
 20
20.99999999999991
 30
0.0
 11
167.0861561236693
 21
19.79999999999993
 31
0.0
  0
LINE
  5
123
330
1F
100
AcDbEntity
  8
0
  6
CONTINUOUS
 62
     7
100
AcDbLine
 10
167.0861561236693
 20
20.99999999999991
 30
0.0
 11
167.356380811987
 21
21.10133425811907
 31
0.0
  0
LINE
  5
124
330
1F
100
AcDbEntity
  8
0
  6
CONTINUOUS
 62
     7
100
AcDbLine
 10
166.0861561236693
 20
23.79999999999993
 30
0.0
 11
166.4861561236693
 21
22.14999999999992
 31
0.0
  0
LINE
  5
125
330
1F
100
AcDbEntity
  8
0
  6
CONTINUOUS
 62
     7
100
AcDbLine
 10
167.0861561236693
 20
23.79999999999993
 30
0.0
 11
167.4861561236693
 21
22.14999999999992
 31
0.0
  0
LINE
  5
126
330
1F
100
AcDbEntity
  8
0
  6
CONTINUOUS
 62
     7
100
AcDbLine
 10
167.0861561236693
 20
16.99999999999991
 30
0.0
 11
166.0861561236693
 21
16.99999999999991
 31
0.0
  0
LINE
  5
127
330
1F
100
AcDbEntity
  8
0
  6
CONTINUOUS
 62
     7
100
AcDbLine
 10
167.0861561236693
 20
23.79999999999993
 30
0.0
 11
166.0861561236693
 21
23.79999999999993
 31
0.0
  0
LINE
  5
128
330
1F
100
AcDbEntity
  8
0
  6
CONTINUOUS
 62
     7
100
AcDbLine
 10
168.2252762652938
 20
17.64999999999992
 30
0.0
 11
167.4861561236693
 21
17.64999999999992
 31
0.0
  0
LINE
  5
129
330
1F
100
AcDbEntity
  8
0
  6
CONTINUOUS
 62
     7
100
AcDbLine
 10
167.4861561236693
 20
23.14999999999992
 30
0.0
 11
168.2252762652938
 21
23.14999999999992
 31
0.0
  0
LINE
  5
12A
330
1F
100
AcDbEntity
  8
0
  6
CONTINUOUS
 62
     7
100
AcDbLine
 10
167.4861561236693
 20
21.28860009363285
 30
0.0
 11
167.4861561236693
 21
19.51139990636699
 31
0.0
  0
LINE
  5
12B
330
1F
100
AcDbEntity
  8
0
  6
CONTINUOUS
 62
     7
100
AcDbLine
 10
167.4861561236693
 20
25.39999999999989
 30
0.0
 11
167.4861561236693
 21
27.91139990636697
 31
0.0
  0
LINE
  5
12C
330
1F
100
AcDbEntity
  8
0
  6
CONTINUOUS
 62
     7
100
AcDbLine
 10
166.4861561236693
 20
27.0499999999999
 30
0.0
 11
166.4861561236693
 21
27.91139990636697
 31
0.0
  0
LINE
  5
12D
330
1F
100
AcDbEntity
  8
0
  6
CONTINUOUS
 62
     7
100
AcDbLine
 10
166.4861561236693
 20
29.68860009363283
 30
0.0
 11
166.4861561236693
 21
30.5499999999999
 31
0.0
  0
LINE
  5
12E
330
1F
100
AcDbEntity
  8
0
  6
CONTINUOUS
 62
     7
100
AcDbLine
 10
167.4861561236693
 20
25.39999999999989
 30
0.0
 11
167.0861561236693
 21
25.39999999999989
 31
0.0
  0
LINE
  5
12F
330
1F
100
AcDbEntity
  8
0
  6
CONTINUOUS
 62
     7
100
AcDbLine
 10
167.4861561236693
 20
32.1999999999999
 30
0.0
 11
167.0861561236693
 21
32.1999999999999
 31
0.0
  0
LINE
  5
130
330
1F
100
AcDbEntity
  8
0
  6
CONTINUOUS
 62
     7
100
AcDbLine
 10
166.4861561236693
 20
27.0499999999999
 30
0.0
 11
166.0861561236693
 21
25.39999999999989
 31
0.0
  0
LINE
  5
131
330
1F
100
AcDbEntity
  8
0
  6
CONTINUOUS
 62
     7
100
AcDbLine
 10
167.4861561236693
 20
27.0499999999999
 30
0.0
 11
167.0861561236693
 21
25.39999999999989
 31
0.0
  0
LINE
  5
132
330
1F
100
AcDbEntity
  8
0
  6
CONTINUOUS
 62
     7
100
AcDbLine
 10
167.4861561236693
 20
32.1999999999999
 30
0.0
 11
167.4861561236693
 21
29.68860009363283
 31
0.0
  0
LINE
  5
133
330
1F
100
AcDbEntity
  8
0
  6
CONTINUOUS
 62
     7
100
AcDbLine
 10
166.0861561236693
 20
28.1999999999999
 30
0.0
 11
166.356380811987
 21
28.09866574188078
 31
0.0
  0
LINE
  5
134
330
1F
100
AcDbEntity
  8
0
  6
CONTINUOUS
 62
     7
100
AcDbLine
 10
166.0861561236693
 20
29.39999999999989
 30
0.0
 11
166.356380811987
 21
29.50133425811904
 31
0.0
  0
LINE
  5
135
330
1F
100
AcDbEntity
  8
0
  6
CONTINUOUS
 62
     7
100
AcDbLine
 10
167.0861561236693
 20
28.1999999999999
 30
0.0
 11
167.356380811987
 21
28.09866574188078
 31
0.0
  0
LINE
  5
136
330
1F
100
AcDbEntity
  8
0
  6
CONTINUOUS
 62
     7
100
AcDbLine
 10
167.0861561236693
 20
29.39999999999989
 30
0.0
 11
167.0861561236693
 21
28.1999999999999
 31
0.0
  0
LINE
  5
137
330
1F
100
AcDbEntity
  8
0
  6
CONTINUOUS
 62
     7
100
AcDbLine
 10
167.0861561236693
 20
29.39999999999989
 30
0.0
 11
167.356380811987
 21
29.50133425811904
 31
0.0
  0
LINE
  5
138
330
1F
100
AcDbEntity
  8
0
  6
CONTINUOUS
 62
     7
100
AcDbLine
 10
166.0861561236693
 20
32.1999999999999
 30
0.0
 11
166.4861561236693
 21
30.5499999999999
 31
0.0
  0
LINE
  5
139
330
1F
100
AcDbEntity
  8
0
  6
CONTINUOUS
 62
     7
100
AcDbLine
 10
167.0861561236693
 20
32.1999999999999
 30
0.0
 11
167.4861561236693
 21
30.5499999999999
 31
0.0
  0
LINE
  5
13A
330
1F
100
AcDbEntity
  8
0
  6
CONTINUOUS
 62
     7
100
AcDbLine
 10
167.0861561236693
 20
25.39999999999989
 30
0.0
 11
166.0861561236693
 21
25.39999999999989
 31
0.0
  0
LINE
  5
13B
330
1F
100
AcDbEntity
  8
0
  6
CONTINUOUS
 62
     7
100
AcDbLine
 10
167.0861561236693
 20
32.1999999999999
 30
0.0
 11
166.0861561236693
 21
32.1999999999999
 31
0.0
  0
LINE
  5
13C
330
1F
100
AcDbEntity
  8
0
  6
CONTINUOUS
 62
     7
100
AcDbLine
 10
168.2252762652938
 20
26.0499999999999
 30
0.0
 11
167.4861561236693
 21
26.0499999999999
 31
0.0
  0
LINE
  5
13D
330
1F
100
AcDbEntity
  8
0
  6
CONTINUOUS
 62
     7
100
AcDbLine
 10
167.4861561236693
 20
31.5499999999999
 30
0.0
 11
168.2252762652938
 21
31.5499999999999
 31
0.0
  0
LINE
  5
13E
330
1F
100
AcDbEntity
  8
0
  6
CONTINUOUS
 62
     7
100
AcDbLine
 10
167.4861561236693
 20
29.68860009363283
 30
0.0
 11
167.4861561236693
 21
27.91139990636697
 31
0.0
  0
LINE
  5
13F
330
1F
100
AcDbEntity
  8
1
  6
CONTINUOUS
 62
     7
100
AcDbLine
 10
166.9
 20
36.50000000000001
 30
0.0
 11
166.4
 21
36.50000000000001
 31
0.0
  0
LINE
  5
140
330
1F
100
AcDbEntity
  8
1
  6
CONTINUOUS
 62
     7
100
AcDbLine
 10
167.5
 20
37.09999999999999
 30
0.0
 11
167.5
 21
37.25000000000001
 31
0.0
  0
LINE
  5
141
330
1F
100
AcDbEntity
  8
1
  6
CONTINUOUS
 62
     7
100
AcDbLine
 10
167.5
 20
43.50000000000001
 30
0.0
 11
166.9
 21
43.50000000000001
 31
0.0
  0
LINE
  5
142
330
1F
100
AcDbEntity
  8
1
  6
CONTINUOUS
 62
     7
100
AcDbLine
 10
166.9
 20
43.50000000000001
 30
0.0
 11
166.9
 21
41.5
 31
0.0
  0
LINE
  5
143
330
1F
100
AcDbEntity
  8
1
  6
CONTINUOUS
 62
     7
100
AcDbLine
 10
166.9
 20
37.09999999999999
 30
0.0
 11
166.4
 21
37.09999999999999
 31
0.0
  0
LINE
  5
144
330
1F
100
AcDbEntity
  8
1
  6
CONTINUOUS
 62
     7
100
AcDbLine
 10
166.4
 20
36.50000000000001
 30
0.0
 11
166.4
 21
37.09999999999999
 31
0.0
  0
LINE
  5
145
330
1F
100
AcDbEntity
  8
1
  6
CONTINUOUS
 62
     7
100
AcDbLine
 10
166.4
 20
37.09999999999999
 30
0.0
 11
166.4
 21
38.5
 31
0.0
  0
LINE
  5
146
330
1F
100
AcDbEntity
  8
1
  6
CONTINUOUS
 62
     7
100
AcDbLine
 10
166.4
 20
39.50000000000001
 30
0.0
 11
162.0
 21
39.50000000000001
 31
0.0
  0
LINE
  5
147
330
1F
100
AcDbEntity
  8
1
  6
CONTINUOUS
 62
     7
100
AcDbLine
 10
75.5
 20
39.50000000000001
 30
0.0
 11
75.5
 21
36.50000000000001
 31
0.0
  0
LINE
  5
148
330
1F
100
AcDbEntity
  8
1
  6
CONTINUOUS
 62
     7
100
AcDbLine
 10
134.8
 20
39.50000000000001
 30
0.0
 11
134.8
 21
42.90000000000001
 31
0.0
  0
LINE
  5
149
330
1F
100
AcDbEntity
  8
1
  6
CONTINUOUS
 62
     7
100
AcDbLine
 10
136.0
 20
39.50000000000001
 30
0.0
 11
75.5
 21
39.50000000000001
 31
0.0
  0
LINE
  5
14A
330
1F
100
AcDbEntity
  8
1
  6
CONTINUOUS
 62
     7
100
AcDbLine
 10
136.0
 20
44.10000000000001
 30
0.0
 11
159.6
 21
44.10000000000001
 31
0.0
  0
LINE
  5
14B
330
1F
100
AcDbEntity
  8
1
  6
CONTINUOUS
 62
     7
100
AcDbLine
 10
160.8
 20
42.90000000000001
 30
0.0
 11
160.8
 21
41.5
 31
0.0
  0
LINE
  5
14C
330
1F
100
AcDbEntity
  8
1
  6
CONTINUOUS
 62
     7
100
AcDbLine
 10
162.0
 20
39.50000000000001
 30
0.0
 11
160.8
 21
39.50000000000001
 31
0.0
  0
LINE
  5
14D
330
1F
100
AcDbEntity
  8
1
  6
CONTINUOUS
 62
     7
100
AcDbLine
 10
136.0
 20
39.50000000000001
 30
0.0
 11
136.0
 21
42.90000000000001
 31
0.0
  0
LINE
  5
14E
330
1F
100
AcDbEntity
  8
1
  6
CONTINUOUS
 62
     7
100
AcDbLine
 10
137.2
 20
39.50000000000001
 30
0.0
 11
136.0
 21
39.50000000000001
 31
0.0
  0
LINE
  5
14F
330
1F
100
AcDbEntity
  8
1
  6
CONTINUOUS
 62
     7
100
AcDbLine
 10
136.0
 20
42.90000000000001
 30
0.0
 11
159.6
 21
42.90000000000001
 31
0.0
  0
LINE
  5
150
330
1F
100
AcDbEntity
  8
1
  6
CONTINUOUS
 62
     7
100
AcDbLine
 10
160.8
 20
42.90000000000001
 30
0.0
 11
160.8
 21
41.5
 31
0.0
  0
LINE
  5
151
330
1F
100
AcDbEntity
  8
1
  6
CONTINUOUS
 62
     7
100
AcDbLine
 10
160.8
 20
39.50000000000001
 30
0.0
 11
159.6
 21
39.50000000000001
 31
0.0
  0
LINE
  5
152
330
1F
100
AcDbEntity
  8
1
  6
CONTINUOUS
 62
     7
100
AcDbLine
 10
159.6
 20
42.90000000000001
 30
0.0
 11
159.6
 21
41.5
 31
0.0
  0
LINE
  5
153
330
1F
100
AcDbEntity
  8
1
  6
CONTINUOUS
 62
     7
100
AcDbLine
 10
159.6
 20
39.50000000000001
 30
0.0
 11
147.5
 21
39.50000000000001
 31
0.0
  0
LINE
  5
154
330
1F
100
AcDbEntity
  8
1
  6
CONTINUOUS
 62
     7
100
AcDbLine
 10
167.5
 20
37.25000000000001
 30
0.0
 11
168.5
 21
37.25000000000001
 31
0.0
  0
LINE
  5
155
330
1F
100
AcDbEntity
  8
1
  6
CONTINUOUS
 62
     7
100
AcDbLine
 10
167.5
 20
37.25000000000001
 30
0.0
 11
167.5
 21
42.75
 31
0.0
  0
LINE
  5
156
330
1F
100
AcDbEntity
  8
1
  6
CONTINUOUS
 62
     7
100
AcDbLine
 10
169.5
 20
38.25000000000001
 30
0.0
 11
169.5
 21
41.75000000000001
 31
0.0
  0
LINE
  5
157
330
1F
100
AcDbEntity
  8
1
  6
CONTINUOUS
 62
     7
100
AcDbLine
 10
168.5
 20
42.75000000000001
 30
0.0
 11
167.5
 21
42.75
 31
0.0
  0
LINE
  5
158
330
1F
100
AcDbEntity
  8
1
  6
CONTINUOUS
 62
     7
100
AcDbLine
 10
167.5
 20
42.75
 30
0.0
 11
167.5
 21
43.50000000000001
 31
0.0
  0
LINE
  5
159
330
1F
100
AcDbEntity
  8
1
  6
CONTINUOUS
 62
     7
100
AcDbLine
 10
166.9
 20
41.5
 30
0.0
 11
160.8
 21
41.5
 31
0.0
  0
LINE
  5
15A
330
1F
100
AcDbEntity
  8
1
  6
CONTINUOUS
 62
     7
100
AcDbLine
 10
166.9
 20
41.5
 30
0.0
 11
166.9
 21
41.0
 31
0.0
  0
LINE
  5
15B
330
1F
100
AcDbEntity
  8
1
  6
CONTINUOUS
 62
     7
100
AcDbLine
 10
160.8
 20
41.5
 30
0.0
 11
160.8
 21
41.0
 31
0.0
  0
LINE
  5
15C
330
1F
100
AcDbEntity
  8
1
  6
CONTINUOUS
 62
     7
100
AcDbLine
 10
160.8
 20
41.5
 30
0.0
 11
160.8
 21
41.0
 31
0.0
  0
LINE
  5
15D
330
1F
100
AcDbEntity
  8
1
  6
CONTINUOUS
 62
     7
100
AcDbLine
 10
159.6
 20
41.5
 30
0.0
 11
147.5
 21
41.50000000000001
 31
0.0
  0
LINE
  5
15E
330
1F
100
AcDbEntity
  8
1
  6
CONTINUOUS
 62
     7
100
AcDbLine
 10
159.6
 20
41.5
 30
0.0
 11
159.6
 21
41.0
 31
0.0
  0
LINE
  5
15F
330
1F
100
AcDbEntity
  8
1
  6
CONTINUOUS
 62
     7
100
AcDbLine
 10
147.5
 20
41.50000000000001
 30
0.0
 11
147.5
 21
41.00000000000001
 31
0.0
  0
LINE
  5
160
330
1F
100
AcDbEntity
  8
1
  6
CONTINUOUS
 62
     7
100
AcDbLine
 10
147.5
 20
39.50000000000001
 30
0.0
 11
137.2
 21
39.50000000000001
 31
0.0
  0
LINE
  5
161
330
1F
100
AcDbEntity
  8
1
  6
CONTINUOUS
 62
     7
100
AcDbLine
 10
166.9
 20
38.5
 30
0.0
 11
166.4
 21
38.5
 31
0.0
  0
LINE
  5
162
330
1F
100
AcDbEntity
  8
1
  6
CONTINUOUS
 62
     7
100
AcDbLine
 10
166.9
 20
38.5
 30
0.0
 11
166.9
 21
37.09999999999999
 31
0.0
  0
LINE
  5
163
330
1F
100
AcDbEntity
  8
1
  6
CONTINUOUS
 62
     7
100
AcDbLine
 10
166.4
 20
38.5
 30
0.0
 11
166.4
 21
39.0
 31
0.0
  0
LINE
  5
164
330
1F
100
AcDbEntity
  8
1
  6
CONTINUOUS
 62
     2
100
AcDbLine
 10
147.5
 20
41.00000000000001
 30
0.0
 11
159.6
 21
41.0
 31
0.0
  0
LINE
  5
165
330
1F
100
AcDbEntity
  8
1
  6
CONTINUOUS
 62
     7
100
AcDbLine
 10
147.5
 20
41.00000000000001
 30
0.0
 11
147.5
 21
39.50000000000001
 31
0.0
  0
LINE
  5
166
330
1F
100
AcDbEntity
  8
1
  6
CONTINUOUS
 62
     7
100
AcDbLine
 10
159.6
 20
41.0
 30
0.0
 11
159.6
 21
39.50000000000001
 31
0.0
  0
LINE
  5
167
330
1F
100
AcDbEntity
  8
1
  6
CONTINUOUS
 62
     2
100
AcDbLine
 10
160.8
 20
41.0
 30
0.0
 11
166.9
 21
41.0
 31
0.0
  0
LINE
  5
168
330
1F
100
AcDbEntity
  8
1
  6
CONTINUOUS
 62
     7
100
AcDbLine
 10
160.8
 20
41.0
 30
0.0
 11
160.8
 21
39.50000000000001
 31
0.0
  0
LINE
  5
169
330
1F
100
AcDbEntity
  8
1
  6
CONTINUOUS
 62
     7
100
AcDbLine
 10
160.8
 20
41.0
 30
0.0
 11
160.8
 21
39.50000000000001
 31
0.0
  0
LINE
  5
16A
330
1F
100
AcDbEntity
  8
1
  6
CONTINUOUS
 62
     7
100
AcDbLine
 10
166.9
 20
41.0
 30
0.0
 11
166.9
 21
39.0
 31
0.0
  0
LINE
  5
16B
330
1F
100
AcDbEntity
  8
1
  6
CONTINUOUS
 62
     7
100
AcDbLine
 10
166.4
 20
39.0
 30
0.0
 11
166.9
 21
39.0
 31
0.0
  0
LINE
  5
16C
330
1F
100
AcDbEntity
  8
1
  6
CONTINUOUS
 62
     7
100
AcDbLine
 10
166.4
 20
39.0
 30
0.0
 11
166.4
 21
39.50000000000001
 31
0.0
  0
LINE
  5
16D
330
1F
100
AcDbEntity
  8
1
  6
CONTINUOUS
 62
     7
100
AcDbLine
 10
166.9
 20
39.0
 30
0.0
 11
166.9
 21
38.5
 31
0.0
  0
LINE
  5
16E
330
1F
100
AcDbEntity
  8
1
  6
CONTINUOUS
 62
     7
100
AcDbLine
 10
167.5
 20
-55.25
 30
0.0
 11
167.5
 21
-55.09999999999997
 31
0.0
  0
LINE
  5
16F
330
1F
100
AcDbEntity
  8
1
  6
CONTINUOUS
 62
     7
100
AcDbLine
 10
166.9
 20
-61.5
 30
0.0
 11
167.5
 21
-61.5
 31
0.0
  0
LINE
  5
170
330
1F
100
AcDbEntity
  8
1
  6
CONTINUOUS
 62
     7
100
AcDbLine
 10
166.9
 20
-59.49999999999999
 30
0.0
 11
166.9
 21
-61.5
 31
0.0
  0
LINE
  5
171
330
1F
100
AcDbEntity
  8
1
  6
CONTINUOUS
 62
     7
100
AcDbLine
 10
166.4
 20
-55.09999999999997
 30
0.0
 11
166.9
 21
-55.09999999999998
 31
0.0
  0
LINE
  5
172
330
1F
100
AcDbEntity
  8
1
  6
CONTINUOUS
 62
     7
100
AcDbLine
 10
166.4
 20
-56.49999999999999
 30
0.0
 11
166.4
 21
-55.09999999999997
 31
0.0
  0
LINE
  5
173
330
1F
100
AcDbEntity
  8
1
  6
CONTINUOUS
 62
     7
100
AcDbLine
 10
162.0
 20
-57.5
 30
0.0
 11
166.4
 21
-57.5
 31
0.0
  0
LINE
  5
174
330
1F
100
AcDbEntity
  8
1
  6
CONTINUOUS
 62
     7
100
AcDbLine
 10
134.8
 20
-60.89999999999998
 30
0.0
 11
134.8
 21
-57.5
 31
0.0
  0
LINE
  5
175
330
1F
100
AcDbEntity
  8
1
  6
CONTINUOUS
 62
     7
100
AcDbLine
 10
75.5
 20
-57.5
 30
0.0
 11
136.0
 21
-57.5
 31
0.0
  0
LINE
  5
176
330
1F
100
AcDbEntity
  8
1
  6
CONTINUOUS
 62
     7
100
AcDbLine
 10
159.6
 20
-62.09999999999998
 30
0.0
 11
136.0
 21
-62.09999999999998
 31
0.0
  0
LINE
  5
177
330
1F
100
AcDbEntity
  8
1
  6
CONTINUOUS
 62
     7
100
AcDbLine
 10
160.8
 20
-59.49999999999999
 30
0.0
 11
160.8
 21
-60.89999999999998
 31
0.0
  0
LINE
  5
178
330
1F
100
AcDbEntity
  8
1
  6
CONTINUOUS
 62
     7
100
AcDbLine
 10
160.8
 20
-57.5
 30
0.0
 11
162.0
 21
-57.5
 31
0.0
  0
LINE
  5
179
330
1F
100
AcDbEntity
  8
1
  6
CONTINUOUS
 62
     7
100
AcDbLine
 10
136.0
 20
-60.89999999999998
 30
0.0
 11
136.0
 21
-57.5
 31
0.0
  0
LINE
  5
17A
330
1F
100
AcDbEntity
  8
1
  6
CONTINUOUS
 62
     7
100
AcDbLine
 10
136.0
 20
-57.5
 30
0.0
 11
137.2
 21
-57.5
 31
0.0
  0
LINE
  5
17B
330
1F
100
AcDbEntity
  8
1
  6
CONTINUOUS
 62
     7
100
AcDbLine
 10
159.6
 20
-60.89999999999998
 30
0.0
 11
136.0
 21
-60.89999999999998
 31
0.0
  0
LINE
  5
17C
330
1F
100
AcDbEntity
  8
1
  6
CONTINUOUS
 62
     7
100
AcDbLine
 10
160.8
 20
-59.49999999999999
 30
0.0
 11
160.8
 21
-60.89999999999998
 31
0.0
  0
LINE
  5
17D
330
1F
100
AcDbEntity
  8
1
  6
CONTINUOUS
 62
     7
100
AcDbLine
 10
159.6
 20
-57.5
 30
0.0
 11
160.8
 21
-57.5
 31
0.0
  0
LINE
  5
17E
330
1F
100
AcDbEntity
  8
1
  6
CONTINUOUS
 62
     7
100
AcDbLine
 10
159.6
 20
-59.49999999999999
 30
0.0
 11
159.6
 21
-60.89999999999998
 31
0.0
  0
LINE
  5
17F
330
1F
100
AcDbEntity
  8
1
  6
CONTINUOUS
 62
     7
100
AcDbLine
 10
147.5
 20
-57.5
 30
0.0
 11
159.6
 21
-57.5
 31
0.0
  0
LINE
  5
180
330
1F
100
AcDbEntity
  8
1
  6
CONTINUOUS
 62
     7
100
AcDbLine
 10
168.5
 20
-55.25
 30
0.0
 11
167.5
 21
-55.25
 31
0.0
  0
LINE
  5
181
330
1F
100
AcDbEntity
  8
1
  6
CONTINUOUS
 62
     7
100
AcDbLine
 10
167.5
 20
-60.74999999999999
 30
0.0
 11
167.5
 21
-55.25
 31
0.0
  0
LINE
  5
182
330
1F
100
AcDbEntity
  8
1
  6
CONTINUOUS
 62
     7
100
AcDbLine
 10
169.5
 20
-59.75
 30
0.0
 11
169.5
 21
-56.25
 31
0.0
  0
LINE
  5
183
330
1F
100
AcDbEntity
  8
1
  6
CONTINUOUS
 62
     7
100
AcDbLine
 10
167.5
 20
-60.74999999999999
 30
0.0
 11
168.5
 21
-60.75
 31
0.0
  0
LINE
  5
184
330
1F
100
AcDbEntity
  8
1
  6
CONTINUOUS
 62
     7
100
AcDbLine
 10
167.5
 20
-61.5
 30
0.0
 11
167.5
 21
-60.74999999999999
 31
0.0
  0
LINE
  5
185
330
1F
100
AcDbEntity
  8
1
  6
CONTINUOUS
 62
     7
100
AcDbLine
 10
160.8
 20
-59.49999999999999
 30
0.0
 11
166.9
 21
-59.49999999999999
 31
0.0
  0
LINE
  5
186
330
1F
100
AcDbEntity
  8
1
  6
CONTINUOUS
 62
     7
100
AcDbLine
 10
166.9
 20
-58.99999999999999
 30
0.0
 11
166.9
 21
-59.49999999999999
 31
0.0
  0
LINE
  5
187
330
1F
100
AcDbEntity
  8
1
  6
CONTINUOUS
 62
     7
100
AcDbLine
 10
160.8
 20
-58.99999999999999
 30
0.0
 11
160.8
 21
-59.49999999999999
 31
0.0
  0
LINE
  5
188
330
1F
100
AcDbEntity
  8
1
  6
CONTINUOUS
 62
     7
100
AcDbLine
 10
160.8
 20
-58.99999999999999
 30
0.0
 11
160.8
 21
-59.49999999999999
 31
0.0
  0
LINE
  5
189
330
1F
100
AcDbEntity
  8
1
  6
CONTINUOUS
 62
     7
100
AcDbLine
 10
147.5
 20
-59.5
 30
0.0
 11
159.6
 21
-59.49999999999999
 31
0.0
  0
LINE
  5
18A
330
1F
100
AcDbEntity
  8
1
  6
CONTINUOUS
 62
     7
100
AcDbLine
 10
159.6
 20
-58.99999999999999
 30
0.0
 11
159.6
 21
-59.49999999999999
 31
0.0
  0
LINE
  5
18B
330
1F
100
AcDbEntity
  8
1
  6
CONTINUOUS
 62
     7
100
AcDbLine
 10
147.5
 20
-59.0
 30
0.0
 11
147.5
 21
-59.5
 31
0.0
  0
LINE
  5
18C
330
1F
100
AcDbEntity
  8
1
  6
CONTINUOUS
 62
     7
100
AcDbLine
 10
137.2
 20
-57.5
 30
0.0
 11
147.5
 21
-57.5
 31
0.0
  0
LINE
  5
18D
330
1F
100
AcDbEntity
  8
1
  6
CONTINUOUS
 62
     7
100
AcDbLine
 10
166.4
 20
-56.49999999999999
 30
0.0
 11
166.9
 21
-56.49999999999999
 31
0.0
  0
LINE
  5
18E
330
1F
100
AcDbEntity
  8
1
  6
CONTINUOUS
 62
     7
100
AcDbLine
 10
166.9
 20
-55.09999999999998
 30
0.0
 11
166.9
 21
-56.49999999999999
 31
0.0
  0
LINE
  5
18F
330
1F
100
AcDbEntity
  8
1
  6
CONTINUOUS
 62
     7
100
AcDbLine
 10
166.4
 20
-56.99999999999999
 30
0.0
 11
166.4
 21
-56.49999999999999
 31
0.0
  0
LINE
  5
190
330
1F
100
AcDbEntity
  8
1
  6
CONTINUOUS
 62
     2
100
AcDbLine
 10
159.6
 20
-58.99999999999999
 30
0.0
 11
147.5
 21
-59.0
 31
0.0
  0
LINE
  5
191
330
1F
100
AcDbEntity
  8
1
  6
CONTINUOUS
 62
     7
100
AcDbLine
 10
147.5
 20
-57.5
 30
0.0
 11
147.5
 21
-59.0
 31
0.0
  0
LINE
  5
192
330
1F
100
AcDbEntity
  8
1
  6
CONTINUOUS
 62
     7
100
AcDbLine
 10
159.6
 20
-57.5
 30
0.0
 11
159.6
 21
-58.99999999999999
 31
0.0
  0
LINE
  5
193
330
1F
100
AcDbEntity
  8
1
  6
CONTINUOUS
 62
     2
100
AcDbLine
 10
166.9
 20
-58.99999999999999
 30
0.0
 11
160.8
 21
-58.99999999999999
 31
0.0
  0
LINE
  5
194
330
1F
100
AcDbEntity
  8
1
  6
CONTINUOUS
 62
     7
100
AcDbLine
 10
160.8
 20
-57.5
 30
0.0
 11
160.8
 21
-58.99999999999999
 31
0.0
  0
LINE
  5
195
330
1F
100
AcDbEntity
  8
1
  6
CONTINUOUS
 62
     7
100
AcDbLine
 10
160.8
 20
-57.5
 30
0.0
 11
160.8
 21
-58.99999999999999
 31
0.0
  0
LINE
  5
196
330
1F
100
AcDbEntity
  8
1
  6
CONTINUOUS
 62
     7
100
AcDbLine
 10
166.9
 20
-56.99999999999999
 30
0.0
 11
166.9
 21
-58.99999999999999
 31
0.0
  0
LINE
  5
197
330
1F
100
AcDbEntity
  8
1
  6
CONTINUOUS
 62
     7
100
AcDbLine
 10
166.9
 20
-56.99999999999999
 30
0.0
 11
166.4
 21
-56.99999999999999
 31
0.0
  0
LINE
  5
198
330
1F
100
AcDbEntity
  8
1
  6
CONTINUOUS
 62
     7
100
AcDbLine
 10
166.4
 20
-57.5
 30
0.0
 11
166.4
 21
-56.99999999999999
 31
0.0
  0
LINE
  5
199
330
1F
100
AcDbEntity
  8
1
  6
CONTINUOUS
 62
     7
100
AcDbLine
 10
166.9
 20
-56.49999999999999
 30
0.0
 11
166.9
 21
-56.99999999999999
 31
0.0
  0
LINE
  5
19A
330
1F
100
AcDbEntity
  8
1
  6
CONTINUOUS
 62
     7
100
AcDbLine
 10
166.4
 20
-55.09999999999997
 30
0.0
 11
166.4
 21
-54.5
 31
0.0
  0
LINE
  5
19B
330
1F
100
AcDbEntity
  8
1
  6
CONTINUOUS
 62
     7
100
AcDbLine
 10
75.5
 20
-54.5
 30
0.0
 11
75.5
 21
-57.5
 31
0.0
  0
LINE
  5
19C
330
1F
100
AcDbEntity
  8
1
  6
CONTINUOUS
 62
     7
100
AcDbLine
 10
-6.74999999999989
 20
-1.54995000000006
 30
0.0
 11
-6.74999999999989
 21
-2.54995000000006
 31
0.0
  0
LINE
  5
19D
330
1F
100
AcDbEntity
  8
1
  6
CONTINUOUS
 62
     7
100
AcDbLine
 10
-5.24999999999989
 20
-1.54995000000006
 30
0.0
 11
-6.74999999999989
 21
-1.54995000000006
 31
0.0
  0
LINE
  5
19E
330
1F
100
AcDbEntity
  8
1
  6
CONTINUOUS
 62
     7
100
AcDbLine
 10
-5.24999999999989
 20
-2.54995000000006
 30
0.0
 11
-5.24999999999989
 21
-1.54995000000006
 31
0.0
  0
LINE
  5
19F
330
1F
100
AcDbEntity
  8
1
  6
CONTINUOUS
 62
     7
100
AcDbLine
 10
-6.74999999999989
 20
-2.54995000000006
 30
0.0
 11
-5.24999999999989
 21
-2.54995000000006
 31
0.0
  0
LINE
  5
1A0
330
1F
100
AcDbEntity
  8
1
  6
CONTINUOUS
 62
     7
100
AcDbLine
 10
17.25
 20
-1.54995000000006
 30
0.0
 11
17.25
 21
-2.54995000000006
 31
0.0
  0
LINE
  5
1A1
330
1F
100
AcDbEntity
  8
1
  6
CONTINUOUS
 62
     7
100
AcDbLine
 10
18.75
 20
-1.54995000000006
 30
0.0
 11
17.25
 21
-1.54995000000006
 31
0.0
  0
LINE
  5
1A2
330
1F
100
AcDbEntity
  8
1
  6
CONTINUOUS
 62
     7
100
AcDbLine
 10
18.75
 20
-2.54995000000006
 30
0.0
 11
18.75
 21
-1.54995000000006
 31
0.0
  0
LINE
  5
1A3
330
1F
100
AcDbEntity
  8
1
  6
CONTINUOUS
 62
     7
100
AcDbLine
 10
17.25
 20
-2.54995000000006
 30
0.0
 11
18.75
 21
-2.54995000000006
 31
0.0
  0
LINE
  5
1A4
330
1F
100
AcDbEntity
  8
1
  6
CONTINUOUS
 62
     7
100
AcDbLine
 10
-6.99999999999989
 20
-1.04995000000006
 30
0.0
 11
-6.19999999999987
 21
-1.04995000000006
 31
0.0
  0
LINE
  5
1A5
330
1F
100
AcDbEntity
  8
1
  6
CONTINUOUS
 62
     7
100
AcDbLine
 10
-6.19999999999987
 20
-1.04995000000006
 30
0.0
 11
-6.19999999999987
 21
1.45004999999994
 31
0.0
  0
LINE
  5
1A6
330
1F
100
AcDbEntity
  8
1
  6
CONTINUOUS
 62
     7
100
AcDbLine
 10
-6.19999999999987
 20
1.45004999999994
 30
0.0
 11
-6.99999999999989
 21
1.45004999999994
 31
0.0
  0
LINE
  5
1A7
330
1F
100
AcDbEntity
  8
1
  6
CONTINUOUS
 62
     7
100
AcDbLine
 10
-6.99999999999989
 20
1.45004999999994
 30
0.0
 11
-6.99999999999989
 21
-1.04995000000006
 31
0.0
  0
LINE
  5
1A8
330
1F
100
AcDbEntity
  8
1
  6
CONTINUOUS
 62
     7
100
AcDbLine
 10
-5.7999999999999
 20
-1.04995000000006
 30
0.0
 11
-4.99999999999989
 21
-1.04995000000006
 31
0.0
  0
LINE
  5
1A9
330
1F
100
AcDbEntity
  8
1
  6
CONTINUOUS
 62
     7
100
AcDbLine
 10
-4.99999999999989
 20
-1.04995000000006
 30
0.0
 11
-4.99999999999989
 21
1.45004999999994
 31
0.0
  0
LINE
  5
1AA
330
1F
100
AcDbEntity
  8
1
  6
CONTINUOUS
 62
     7
100
AcDbLine
 10
-4.99999999999989
 20
1.45004999999994
 30
0.0
 11
-5.7999999999999
 21
1.45004999999994
 31
0.0
  0
LINE
  5
1AB
330
1F
100
AcDbEntity
  8
1
  6
CONTINUOUS
 62
     7
100
AcDbLine
 10
-5.7999999999999
 20
1.45004999999994
 30
0.0
 11
-5.7999999999999
 21
-1.04995000000006
 31
0.0
  0
LINE
  5
1AC
330
1F
100
AcDbEntity
  8
1
  6
CONTINUOUS
 62
     7
100
AcDbLine
 10
-4.59999999999988
 20
-1.04995000000006
 30
0.0
 11
-3.7999999999999
 21
-1.04995000000006
 31
0.0
  0
LINE
  5
1AD
330
1F
100
AcDbEntity
  8
1
  6
CONTINUOUS
 62
     7
100
AcDbLine
 10
-3.7999999999999
 20
-1.04995000000006
 30
0.0
 11
-3.7999999999999
 21
1.45004999999994
 31
0.0
  0
LINE
  5
1AE
330
1F
100
AcDbEntity
  8
1
  6
CONTINUOUS
 62
     7
100
AcDbLine
 10
-3.7999999999999
 20
1.45004999999994
 30
0.0
 11
-4.59999999999988
 21
1.45004999999994
 31
0.0
  0
LINE
  5
1AF
330
1F
100
AcDbEntity
  8
1
  6
CONTINUOUS
 62
     7
100
AcDbLine
 10
-4.59999999999988
 20
1.45004999999994
 30
0.0
 11
-4.59999999999988
 21
-1.04995000000006
 31
0.0
  0
LINE
  5
1B0
330
1F
100
AcDbEntity
  8
1
  6
CONTINUOUS
 62
     7
100
AcDbLine
 10
-3.39999999999989
 20
-1.04995000000006
 30
0.0
 11
-2.59999999999988
 21
-1.04995000000006
 31
0.0
  0
LINE
  5
1B1
330
1F
100
AcDbEntity
  8
1
  6
CONTINUOUS
 62
     7
100
AcDbLine
 10
-2.59999999999988
 20
-1.04995000000006
 30
0.0
 11
-2.59999999999988
 21
1.45004999999994
 31
0.0
  0
LINE
  5
1B2
330
1F
100
AcDbEntity
  8
1
  6
CONTINUOUS
 62
     7
100
AcDbLine
 10
-2.59999999999988
 20
1.45004999999994
 30
0.0
 11
-3.39999999999989
 21
1.45004999999994
 31
0.0
  0
LINE
  5
1B3
330
1F
100
AcDbEntity
  8
1
  6
CONTINUOUS
 62
     7
100
AcDbLine
 10
-3.39999999999989
 20
1.45004999999994
 30
0.0
 11
-3.39999999999989
 21
-1.04995000000006
 31
0.0
  0
LINE
  5
1B4
330
1F
100
AcDbEntity
  8
1
  6
CONTINUOUS
 62
     7
100
AcDbLine
 10
-2.19999999999987
 20
-1.04995000000006
 30
0.0
 11
-1.39999999999989
 21
-1.04995000000006
 31
0.0
  0
LINE
  5
1B5
330
1F
100
AcDbEntity
  8
1
  6
CONTINUOUS
 62
     7
100
AcDbLine
 10
-1.39999999999989
 20
-1.04995000000006
 30
0.0
 11
-1.39999999999989
 21
1.45004999999994
 31
0.0
  0
LINE
  5
1B6
330
1F
100
AcDbEntity
  8
1
  6
CONTINUOUS
 62
     7
100
AcDbLine
 10
-1.39999999999989
 20
1.45004999999994
 30
0.0
 11
-2.19999999999987
 21
1.45004999999994
 31
0.0
  0
LINE
  5
1B7
330
1F
100
AcDbEntity
  8
1
  6
CONTINUOUS
 62
     7
100
AcDbLine
 10
-2.19999999999987
 20
1.45004999999994
 30
0.0
 11
-2.19999999999987
 21
-1.04995000000006
 31
0.0
  0
LINE
  5
1B8
330
1F
100
AcDbEntity
  8
1
  6
CONTINUOUS
 62
     7
100
AcDbLine
 10
-0.99999999999989
 20
-1.04995000000006
 30
0.0
 11
-0.19999999999987
 21
-1.04995000000006
 31
0.0
  0
LINE
  5
1B9
330
1F
100
AcDbEntity
  8
1
  6
CONTINUOUS
 62
     7
100
AcDbLine
 10
-0.19999999999987
 20
-1.04995000000006
 30
0.0
 11
-0.19999999999987
 21
1.45004999999994
 31
0.0
  0
LINE
  5
1BA
330
1F
100
AcDbEntity
  8
1
  6
CONTINUOUS
 62
     7
100
AcDbLine
 10
-0.19999999999987
 20
1.45004999999994
 30
0.0
 11
-0.99999999999989
 21
1.45004999999994
 31
0.0
  0
LINE
  5
1BB
330
1F
100
AcDbEntity
  8
1
  6
CONTINUOUS
 62
     7
100
AcDbLine
 10
-0.99999999999989
 20
1.45004999999994
 30
0.0
 11
-0.99999999999989
 21
-1.04995000000006
 31
0.0
  0
LINE
  5
1BC
330
1F
100
AcDbEntity
  8
1
  6
CONTINUOUS
 62
     7
100
AcDbLine
 10
0.2000000000001
 20
-1.04995000000006
 30
0.0
 11
1.00000000000011
 21
-1.04995000000006
 31
0.0
  0
LINE
  5
1BD
330
1F
100
AcDbEntity
  8
1
  6
CONTINUOUS
 62
     7
100
AcDbLine
 10
1.00000000000011
 20
-1.04995000000006
 30
0.0
 11
1.00000000000011
 21
1.45004999999994
 31
0.0
  0
LINE
  5
1BE
330
1F
100
AcDbEntity
  8
1
  6
CONTINUOUS
 62
     7
100
AcDbLine
 10
1.00000000000011
 20
1.45004999999994
 30
0.0
 11
0.2000000000001
 21
1.45004999999994
 31
0.0
  0
LINE
  5
1BF
330
1F
100
AcDbEntity
  8
1
  6
CONTINUOUS
 62
     7
100
AcDbLine
 10
0.2000000000001
 20
1.45004999999994
 30
0.0
 11
0.2000000000001
 21
-1.04995000000006
 31
0.0
  0
LINE
  5
1C0
330
1F
100
AcDbEntity
  8
1
  6
CONTINUOUS
 62
     7
100
AcDbLine
 10
1.40000000000001
 20
-1.04995000000006
 30
0.0
 11
2.2000000000001
 21
-1.04995000000006
 31
0.0
  0
LINE
  5
1C1
330
1F
100
AcDbEntity
  8
1
  6
CONTINUOUS
 62
     7
100
AcDbLine
 10
2.2000000000001
 20
-1.04995000000006
 30
0.0
 11
2.2000000000001
 21
1.45004999999994
 31
0.0
  0
LINE
  5
1C2
330
1F
100
AcDbEntity
  8
1
  6
CONTINUOUS
 62
     7
100
AcDbLine
 10
2.2000000000001
 20
1.45004999999994
 30
0.0
 11
1.40000000000001
 21
1.45004999999994
 31
0.0
  0
LINE
  5
1C3
330
1F
100
AcDbEntity
  8
1
  6
CONTINUOUS
 62
     7
100
AcDbLine
 10
1.40000000000001
 20
1.45004999999994
 30
0.0
 11
1.40000000000001
 21
-1.04995000000006
 31
0.0
  0
LINE
  5
1C4
330
1F
100
AcDbEntity
  8
1
  6
CONTINUOUS
 62
     7
100
AcDbLine
 10
2.60000000000002
 20
-1.04995000000006
 30
0.0
 11
3.40000000000001
 21
-1.04995000000006
 31
0.0
  0
LINE
  5
1C5
330
1F
100
AcDbEntity
  8
1
  6
CONTINUOUS
 62
     7
100
AcDbLine
 10
3.40000000000001
 20
-1.04995000000006
 30
0.0
 11
3.40000000000001
 21
1.45004999999994
 31
0.0
  0
LINE
  5
1C6
330
1F
100
AcDbEntity
  8
1
  6
CONTINUOUS
 62
     7
100
AcDbLine
 10
3.40000000000001
 20
1.45004999999994
 30
0.0
 11
2.60000000000002
 21
1.45004999999994
 31
0.0
  0
LINE
  5
1C7
330
1F
100
AcDbEntity
  8
1
  6
CONTINUOUS
 62
     7
100
AcDbLine
 10
2.60000000000002
 20
1.45004999999994
 30
0.0
 11
2.60000000000002
 21
-1.04995000000006
 31
0.0
  0
LINE
  5
1C8
330
1F
100
AcDbEntity
  8
1
  6
CONTINUOUS
 62
     7
100
AcDbLine
 10
3.80000000000001
 20
-1.04995000000006
 30
0.0
 11
4.60000000000002
 21
-1.04995000000006
 31
0.0
  0
LINE
  5
1C9
330
1F
100
AcDbEntity
  8
1
  6
CONTINUOUS
 62
     7
100
AcDbLine
 10
4.60000000000002
 20
-1.04995000000006
 30
0.0
 11
4.60000000000002
 21
1.45004999999994
 31
0.0
  0
LINE
  5
1CA
330
1F
100
AcDbEntity
  8
1
  6
CONTINUOUS
 62
     7
100
AcDbLine
 10
4.60000000000002
 20
1.45004999999994
 30
0.0
 11
3.80000000000001
 21
1.45004999999994
 31
0.0
  0
LINE
  5
1CB
330
1F
100
AcDbEntity
  8
1
  6
CONTINUOUS
 62
     7
100
AcDbLine
 10
3.80000000000001
 20
1.45004999999994
 30
0.0
 11
3.80000000000001
 21
-1.04995000000006
 31
0.0
  0
LINE
  5
1CC
330
1F
100
AcDbEntity
  8
1
  6
CONTINUOUS
 62
     7
100
AcDbLine
 10
5.0
 20
-1.04995000000006
 30
0.0
 11
5.80000000000001
 21
-1.04995000000006
 31
0.0
  0
LINE
  5
1CD
330
1F
100
AcDbEntity
  8
1
  6
CONTINUOUS
 62
     7
100
AcDbLine
 10
5.80000000000001
 20
-1.04995000000006
 30
0.0
 11
5.80000000000001
 21
1.45004999999994
 31
0.0
  0
LINE
  5
1CE
330
1F
100
AcDbEntity
  8
1
  6
CONTINUOUS
 62
     7
100
AcDbLine
 10
5.80000000000001
 20
1.45004999999994
 30
0.0
 11
5.0
 21
1.45004999999994
 31
0.0
  0
LINE
  5
1CF
330
1F
100
AcDbEntity
  8
1
  6
CONTINUOUS
 62
     7
100
AcDbLine
 10
5.0
 20
1.45004999999994
 30
0.0
 11
5.0
 21
-1.04995000000006
 31
0.0
  0
LINE
  5
1D0
330
1F
100
AcDbEntity
  8
1
  6
CONTINUOUS
 62
     7
100
AcDbLine
 10
18.20000000000002
 20
-1.04995000000006
 30
0.0
 11
19.0
 21
-1.04995000000006
 31
0.0
  0
LINE
  5
1D1
330
1F
100
AcDbEntity
  8
1
  6
CONTINUOUS
 62
     7
100
AcDbLine
 10
19.0
 20
-1.04995000000006
 30
0.0
 11
19.0
 21
1.45004999999994
 31
0.0
  0
LINE
  5
1D2
330
1F
100
AcDbEntity
  8
1
  6
CONTINUOUS
 62
     7
100
AcDbLine
 10
19.0
 20
1.45004999999994
 30
0.0
 11
18.20000000000002
 21
1.45004999999994
 31
0.0
  0
LINE
  5
1D3
330
1F
100
AcDbEntity
  8
1
  6
CONTINUOUS
 62
     7
100
AcDbLine
 10
18.20000000000002
 20
1.45004999999994
 30
0.0
 11
18.20000000000002
 21
-1.04995000000006
 31
0.0
  0
LINE
  5
1D4
330
1F
100
AcDbEntity
  8
1
  6
CONTINUOUS
 62
     7
100
AcDbLine
 10
17.0
 20
-1.04995000000006
 30
0.0
 11
17.80000000000001
 21
-1.04995000000006
 31
0.0
  0
LINE
  5
1D5
330
1F
100
AcDbEntity
  8
1
  6
CONTINUOUS
 62
     7
100
AcDbLine
 10
17.80000000000001
 20
-1.04995000000006
 30
0.0
 11
17.80000000000001
 21
1.45004999999994
 31
0.0
  0
LINE
  5
1D6
330
1F
100
AcDbEntity
  8
1
  6
CONTINUOUS
 62
     7
100
AcDbLine
 10
17.80000000000001
 20
1.45004999999994
 30
0.0
 11
17.0
 21
1.45004999999994
 31
0.0
  0
LINE
  5
1D7
330
1F
100
AcDbEntity
  8
1
  6
CONTINUOUS
 62
     7
100
AcDbLine
 10
17.0
 20
1.45004999999994
 30
0.0
 11
17.0
 21
-1.04995000000006
 31
0.0
  0
LINE
  5
1D8
330
1F
100
AcDbEntity
  8
1
  6
CONTINUOUS
 62
     7
100
AcDbLine
 10
15.80000000000001
 20
-1.04995000000006
 30
0.0
 11
16.60000000000002
 21
-1.04995000000006
 31
0.0
  0
LINE
  5
1D9
330
1F
100
AcDbEntity
  8
1
  6
CONTINUOUS
 62
     7
100
AcDbLine
 10
16.60000000000002
 20
-1.04995000000006
 30
0.0
 11
16.60000000000002
 21
1.45004999999994
 31
0.0
  0
LINE
  5
1DA
330
1F
100
AcDbEntity
  8
1
  6
CONTINUOUS
 62
     7
100
AcDbLine
 10
16.60000000000002
 20
1.45004999999994
 30
0.0
 11
15.80000000000001
 21
1.45004999999994
 31
0.0
  0
LINE
  5
1DB
330
1F
100
AcDbEntity
  8
1
  6
CONTINUOUS
 62
     7
100
AcDbLine
 10
15.80000000000001
 20
1.45004999999994
 30
0.0
 11
15.80000000000001
 21
-1.04995000000006
 31
0.0
  0
LINE
  5
1DC
330
1F
100
AcDbEntity
  8
1
  6
CONTINUOUS
 62
     7
100
AcDbLine
 10
14.60000000000002
 20
-1.04995000000006
 30
0.0
 11
15.40000000000001
 21
-1.04995000000006
 31
0.0
  0
LINE
  5
1DD
330
1F
100
AcDbEntity
  8
1
  6
CONTINUOUS
 62
     7
100
AcDbLine
 10
15.40000000000001
 20
-1.04995000000006
 30
0.0
 11
15.40000000000001
 21
1.45004999999994
 31
0.0
  0
LINE
  5
1DE
330
1F
100
AcDbEntity
  8
1
  6
CONTINUOUS
 62
     7
100
AcDbLine
 10
15.40000000000001
 20
1.45004999999994
 30
0.0
 11
14.60000000000002
 21
1.45004999999994
 31
0.0
  0
LINE
  5
1DF
330
1F
100
AcDbEntity
  8
1
  6
CONTINUOUS
 62
     7
100
AcDbLine
 10
14.60000000000002
 20
1.45004999999994
 30
0.0
 11
14.60000000000002
 21
-1.04995000000006
 31
0.0
  0
LINE
  5
1E0
330
1F
100
AcDbEntity
  8
1
  6
CONTINUOUS
 62
     7
100
AcDbLine
 10
13.40000000000001
 20
-1.04995000000006
 30
0.0
 11
14.20000000000002
 21
-1.04995000000006
 31
0.0
  0
LINE
  5
1E1
330
1F
100
AcDbEntity
  8
1
  6
CONTINUOUS
 62
     7
100
AcDbLine
 10
14.20000000000002
 20
-1.04995000000006
 30
0.0
 11
14.20000000000002
 21
1.45004999999994
 31
0.0
  0
LINE
  5
1E2
330
1F
100
AcDbEntity
  8
1
  6
CONTINUOUS
 62
     7
100
AcDbLine
 10
14.20000000000002
 20
1.45004999999994
 30
0.0
 11
13.40000000000001
 21
1.45004999999994
 31
0.0
  0
LINE
  5
1E3
330
1F
100
AcDbEntity
  8
1
  6
CONTINUOUS
 62
     7
100
AcDbLine
 10
13.40000000000001
 20
1.45004999999994
 30
0.0
 11
13.40000000000001
 21
-1.04995000000006
 31
0.0
  0
LINE
  5
1E4
330
1F
100
AcDbEntity
  8
1
  6
CONTINUOUS
 62
     7
100
AcDbLine
 10
12.20000000000002
 20
-1.04995000000006
 30
0.0
 11
13.0
 21
-1.04995000000006
 31
0.0
  0
LINE
  5
1E5
330
1F
100
AcDbEntity
  8
1
  6
CONTINUOUS
 62
     7
100
AcDbLine
 10
13.0
 20
-1.04995000000006
 30
0.0
 11
13.0
 21
1.45004999999994
 31
0.0
  0
LINE
  5
1E6
330
1F
100
AcDbEntity
  8
1
  6
CONTINUOUS
 62
     7
100
AcDbLine
 10
13.0
 20
1.45004999999994
 30
0.0
 11
12.20000000000002
 21
1.45004999999994
 31
0.0
  0
LINE
  5
1E7
330
1F
100
AcDbEntity
  8
1
  6
CONTINUOUS
 62
     7
100
AcDbLine
 10
12.20000000000002
 20
1.45004999999994
 30
0.0
 11
12.20000000000002
 21
-1.04995000000006
 31
0.0
  0
LINE
  5
1E8
330
1F
100
AcDbEntity
  8
1
  6
CONTINUOUS
 62
     7
100
AcDbLine
 10
11.0
 20
-1.04995000000006
 30
0.0
 11
11.80000000000001
 21
-1.04995000000006
 31
0.0
  0
LINE
  5
1E9
330
1F
100
AcDbEntity
  8
1
  6
CONTINUOUS
 62
     7
100
AcDbLine
 10
11.80000000000001
 20
-1.04995000000006
 30
0.0
 11
11.80000000000001
 21
1.45004999999994
 31
0.0
  0
LINE
  5
1EA
330
1F
100
AcDbEntity
  8
1
  6
CONTINUOUS
 62
     7
100
AcDbLine
 10
11.80000000000001
 20
1.45004999999994
 30
0.0
 11
11.0
 21
1.45004999999994
 31
0.0
  0
LINE
  5
1EB
330
1F
100
AcDbEntity
  8
1
  6
CONTINUOUS
 62
     7
100
AcDbLine
 10
11.0
 20
1.45004999999994
 30
0.0
 11
11.0
 21
-1.04995000000006
 31
0.0
  0
LINE
  5
1EC
330
1F
100
AcDbEntity
  8
1
  6
CONTINUOUS
 62
     7
100
AcDbLine
 10
9.80000000000001
 20
-1.04995000000006
 30
0.0
 11
10.60000000000002
 21
-1.04995000000006
 31
0.0
  0
LINE
  5
1ED
330
1F
100
AcDbEntity
  8
1
  6
CONTINUOUS
 62
     7
100
AcDbLine
 10
10.60000000000002
 20
-1.04995000000006
 30
0.0
 11
10.60000000000002
 21
1.45004999999994
 31
0.0
  0
LINE
  5
1EE
330
1F
100
AcDbEntity
  8
1
  6
CONTINUOUS
 62
     7
100
AcDbLine
 10
10.60000000000002
 20
1.45004999999994
 30
0.0
 11
9.80000000000001
 21
1.45004999999994
 31
0.0
  0
LINE
  5
1EF
330
1F
100
AcDbEntity
  8
1
  6
CONTINUOUS
 62
     7
100
AcDbLine
 10
9.80000000000001
 20
1.45004999999994
 30
0.0
 11
9.80000000000001
 21
-1.04995000000006
 31
0.0
  0
LINE
  5
1F0
330
1F
100
AcDbEntity
  8
1
  6
CONTINUOUS
 62
     7
100
AcDbLine
 10
8.60000000000002
 20
-1.04995000000006
 30
0.0
 11
9.40000000000001
 21
-1.04995000000006
 31
0.0
  0
LINE
  5
1F1
330
1F
100
AcDbEntity
  8
1
  6
CONTINUOUS
 62
     7
100
AcDbLine
 10
9.40000000000001
 20
-1.04995000000006
 30
0.0
 11
9.40000000000001
 21
1.45004999999994
 31
0.0
  0
LINE
  5
1F2
330
1F
100
AcDbEntity
  8
1
  6
CONTINUOUS
 62
     7
100
AcDbLine
 10
9.40000000000001
 20
1.45004999999994
 30
0.0
 11
8.60000000000002
 21
1.45004999999994
 31
0.0
  0
LINE
  5
1F3
330
1F
100
AcDbEntity
  8
1
  6
CONTINUOUS
 62
     7
100
AcDbLine
 10
8.60000000000002
 20
1.45004999999994
 30
0.0
 11
8.60000000000002
 21
-1.04995000000006
 31
0.0
  0
LINE
  5
1F4
330
1F
100
AcDbEntity
  8
1
  6
CONTINUOUS
 62
     7
100
AcDbLine
 10
7.40000000000001
 20
-1.04995000000006
 30
0.0
 11
8.20000000000002
 21
-1.04995000000006
 31
0.0
  0
LINE
  5
1F5
330
1F
100
AcDbEntity
  8
1
  6
CONTINUOUS
 62
     7
100
AcDbLine
 10
8.20000000000002
 20
-1.04995000000006
 30
0.0
 11
8.20000000000002
 21
1.45004999999994
 31
0.0
  0
LINE
  5
1F6
330
1F
100
AcDbEntity
  8
1
  6
CONTINUOUS
 62
     7
100
AcDbLine
 10
8.20000000000002
 20
1.45004999999994
 30
0.0
 11
7.40000000000001
 21
1.45004999999994
 31
0.0
  0
LINE
  5
1F7
330
1F
100
AcDbEntity
  8
1
  6
CONTINUOUS
 62
     7
100
AcDbLine
 10
7.40000000000001
 20
1.45004999999994
 30
0.0
 11
7.40000000000001
 21
-1.04995000000006
 31
0.0
  0
LINE
  5
1F8
330
1F
100
AcDbEntity
  8
1
  6
CONTINUOUS
 62
     7
100
AcDbLine
 10
-9.61812979357219
 20
14.95004999999995
 30
0.0
 11
-9.1358901099232
 21
14.42377773368095
 31
0.0
  0
LINE
  5
1F9
330
1F
100
AcDbEntity
  8
1
  6
CONTINUOUS
 62
     7
100
AcDbLine
 10
-8.51853238475118
 20
13.75004999999995
 30
0.0
 11
-5.5063089046125
 21
13.75004999999995
 31
0.0
  0
LINE
  5
1FA
330
1F
100
AcDbEntity
  8
1
  6
CONTINUOUS
 62
     7
100
AcDbLine
 10
-8.60326129667138
 20
26.55004999999994
 30
0.0
 11
-8.0222039297108
 21
27.08249097923837
 31
0.0
  0
LINE
  5
1FB
330
1F
100
AcDbEntity
  8
1
  6
CONTINUOUS
 62
     7
100
AcDbLine
 10
-7.29369109538828
 20
27.75004999999995
 30
0.0
 11
-4.28146761524948
 21
27.75004999999995
 31
0.0
  0
LINE
  5
1FC
330
1F
100
AcDbEntity
  8
1
  6
CONTINUOUS
 62
     7
100
AcDbLine
 10
-4.28146761524948
 20
27.75004999999995
 30
0.0
 11
-3.7992279316006
 21
27.22377773368096
 31
0.0
  0
LINE
  5
1FD
330
1F
100
AcDbEntity
  8
1
  6
CONTINUOUS
 62
     7
100
AcDbLine
 10
-3.18187020642858
 20
26.55004999999994
 30
0.0
 11
-3.62391057499428
 21
21.49750546736196
 31
0.0
  0
LINE
  5
1FE
330
1F
100
AcDbEntity
  8
1
  6
CONTINUOUS
 62
     7
100
AcDbLine
 10
-4.19673870332929
 20
14.95004999999995
 30
0.0
 11
-3.7536189498656
 21
20.01493195847681
 31
0.0
  0
LINE
  5
1FF
330
1F
100
AcDbEntity
  8
1
  6
CONTINUOUS
 62
     7
100
AcDbLine
 10
-7.8229707676943
 20
20.15004999999995
 30
0.0
 11
-8.36711688815319
 21
20.74388128708051
 31
0.0
  0
LINE
  5
200
330
1F
100
AcDbEntity
  8
1
  6
CONTINUOUS
 62
     7
100
AcDbLine
 10
-8.36711688815319
 20
20.74388128708051
 30
0.0
 11
-7.705599818662
 21
21.35004999999994
 31
0.0
  0
LINE
  5
201
330
1F
100
AcDbEntity
  8
1
  6
CONTINUOUS
 62
     7
100
AcDbLine
 10
-7.705599818662
 20
21.35004999999994
 30
0.0
 11
-4.97702923230639
 21
21.35004999999994
 31
0.0
  0
LINE
  5
202
330
1F
100
AcDbEntity
  8
1
  6
CONTINUOUS
 62
     7
100
AcDbLine
 10
-9.17608942500638
 20
20.00259453263793
 30
0.0
 11
-8.51457235551518
 21
20.60876324555737
 31
0.0
  0
LINE
  5
203
330
1F
100
AcDbEntity
  8
1
  6
CONTINUOUS
 62
     7
100
AcDbLine
 10
-9.17608942500638
 20
20.00259453263793
 30
0.0
 11
-9.61812979357219
 21
14.95004999999995
 31
0.0
  0
LINE
  5
204
330
1F
100
AcDbEntity
  8
1
  6
CONTINUOUS
 62
     7
100
AcDbLine
 10
-8.51457235551518
 20
20.60876324555737
 30
0.0
 11
-7.97042623505638
 21
20.01493195847681
 31
0.0
  0
LINE
  5
205
330
1F
100
AcDbEntity
  8
1
  6
CONTINUOUS
 62
     7
100
AcDbLine
 10
-7.97042623505638
 20
20.01493195847681
 30
0.0
 11
-8.39524709969749
 21
15.15920725632435
 31
0.0
  0
LINE
  5
206
330
1F
100
AcDbEntity
  8
1
  6
CONTINUOUS
 62
     7
100
AcDbLine
 10
-9.0463810501351
 20
21.48516804152308
 30
0.0
 11
-8.50223492967629
 21
20.89133675444252
 31
0.0
  0
LINE
  5
207
330
1F
100
AcDbEntity
  8
1
  6
CONTINUOUS
 62
     7
100
AcDbLine
 10
-9.0463810501351
 20
21.48516804152308
 30
0.0
 11
-8.60326129667138
 21
26.55004999999994
 31
0.0
  0
LINE
  5
208
330
1F
100
AcDbEntity
  8
1
  6
CONTINUOUS
 62
     7
100
AcDbLine
 10
-8.50223492967629
 20
20.89133675444252
 30
0.0
 11
-7.84071786018509
 21
21.49750546736196
 31
0.0
  0
LINE
  5
209
330
1F
100
AcDbEntity
  8
1
  6
CONTINUOUS
 62
     7
100
AcDbLine
 10
-4.8295737649444
 20
21.48516804152308
 30
0.0
 11
-4.28542764448548
 21
20.89133675444252
 31
0.0
  0
LINE
  5
20A
330
1F
100
AcDbEntity
  8
1
  6
CONTINUOUS
 62
     7
100
AcDbLine
 10
-4.8295737649444
 20
21.48516804152308
 30
0.0
 11
-4.39935469324968
 21
26.40259453263792
 31
0.0
  0
LINE
  5
20B
330
1F
100
AcDbEntity
  8
1
  6
CONTINUOUS
 62
     7
100
AcDbLine
 10
-4.28542764448548
 20
20.89133675444252
 30
0.0
 11
-3.62391057499428
 21
21.49750546736196
 31
0.0
  0
LINE
  5
20C
330
1F
100
AcDbEntity
  8
1
  6
CONTINUOUS
 62
     7
100
AcDbLine
 10
-4.9592821398156
 20
20.00259453263793
 30
0.0
 11
-4.2977650703244
 21
20.60876324555737
 31
0.0
  0
LINE
  5
20D
330
1F
100
AcDbEntity
  8
1
  6
CONTINUOUS
 62
     7
100
AcDbLine
 10
-4.2977650703244
 20
20.60876324555737
 30
0.0
 11
-3.7536189498656
 21
20.01493195847681
 31
0.0
  0
LINE
  5
20E
330
1F
100
AcDbEntity
  8
1
  6
CONTINUOUS
 62
     7
100
AcDbLine
 10
-5.0944001813387
 20
20.15004999999995
 30
0.0
 11
-4.43288311184759
 21
20.75621871291938
 31
0.0
  0
LINE
  5
20F
330
1F
100
AcDbEntity
  8
1
  6
CONTINUOUS
 62
     7
100
AcDbLine
 10
-5.0944001813387
 20
20.15004999999995
 30
0.0
 11
-7.8229707676943
 21
20.15004999999995
 31
0.0
  0
LINE
  5
210
330
1F
100
AcDbEntity
  8
1
  6
CONTINUOUS
 62
     7
100
AcDbLine
 10
-4.43288311184759
 20
20.75621871291938
 30
0.0
 11
-4.97702923230639
 21
21.35004999999994
 31
0.0
  0
LINE
  5
211
330
1F
100
AcDbEntity
  8
1
  6
CONTINUOUS
 62
     7
100
AcDbLine
 10
-8.0222039297108
 20
27.08249097923837
 30
0.0
 11
-7.41049878849049
 21
26.41493195847681
 31
0.0
  0
LINE
  5
212
330
1F
100
AcDbEntity
  8
1
  6
CONTINUOUS
 62
     7
100
AcDbLine
 10
-7.41049878849049
 20
26.41493195847681
 30
0.0
 11
-7.84071786018509
 21
21.49750546736196
 31
0.0
  0
LINE
  5
213
330
1F
100
AcDbEntity
  8
1
  6
CONTINUOUS
 62
     7
100
AcDbLine
 10
-7.26304332112849
 20
26.55004999999994
 30
0.0
 11
-7.87474846234878
 21
27.2176090207615
 31
0.0
  0
LINE
  5
214
330
1F
100
AcDbEntity
  8
1
  6
CONTINUOUS
 62
     7
100
AcDbLine
 10
-7.87474846234878
 20
27.2176090207615
 30
0.0
 11
-7.29369109538828
 21
27.75004999999995
 31
0.0
  0
LINE
  5
215
330
1F
100
AcDbEntity
  8
1
  6
CONTINUOUS
 62
     7
100
AcDbLine
 10
-4.53447273477289
 20
26.55004999999994
 30
0.0
 11
-3.7992279316006
 21
27.22377773368096
 31
0.0
  0
LINE
  5
216
330
1F
100
AcDbEntity
  8
1
  6
CONTINUOUS
 62
     7
100
AcDbLine
 10
-4.53447273477289
 20
26.55004999999994
 30
0.0
 11
-7.26304332112849
 21
26.55004999999994
 31
0.0
  0
LINE
  5
217
330
1F
100
AcDbEntity
  8
1
  6
CONTINUOUS
 62
     7
100
AcDbLine
 10
-4.39935469324968
 20
26.40259453263792
 30
0.0
 11
-3.6641098900775
 21
27.07632226631894
 31
0.0
  0
LINE
  5
218
330
1F
100
AcDbEntity
  8
1
  6
CONTINUOUS
 62
     7
100
AcDbLine
 10
-3.6641098900775
 20
27.07632226631894
 30
0.0
 11
-3.18187020642858
 21
26.55004999999994
 31
0.0
  0
LINE
  5
219
330
1F
100
AcDbEntity
  8
1
  6
CONTINUOUS
 62
     7
100
AcDbLine
 10
-8.39524709969749
 20
15.15920725632435
 30
0.0
 11
-9.1358901099232
 21
14.42377773368095
 31
0.0
  0
LINE
  5
21A
330
1F
100
AcDbEntity
  8
1
  6
CONTINUOUS
 62
     7
100
AcDbLine
 10
-9.0007720684001
 20
14.27632226631893
 30
0.0
 11
-8.26552726522789
 21
14.95004999999995
 31
0.0
  0
LINE
  5
21B
330
1F
100
AcDbEntity
  8
1
  6
CONTINUOUS
 62
     7
100
AcDbLine
 10
-9.0007720684001
 20
14.27632226631893
 30
0.0
 11
-8.51853238475118
 21
13.75004999999995
 31
0.0
  0
LINE
  5
21C
330
1F
100
AcDbEntity
  8
1
  6
CONTINUOUS
 62
     7
100
AcDbLine
 10
-5.5063089046125
 20
13.75004999999995
 30
0.0
 11
-4.92525153765189
 21
14.28249097923838
 31
0.0
  0
LINE
  5
21D
330
1F
100
AcDbEntity
  8
1
  6
CONTINUOUS
 62
     7
100
AcDbLine
 10
-4.7777960702899
 20
14.4176090207615
 30
0.0
 11
-5.38950121151029
 21
15.08516804152308
 31
0.0
  0
LINE
  5
21E
330
1F
100
AcDbEntity
  8
1
  6
CONTINUOUS
 62
     7
100
AcDbLine
 10
-5.38950121151029
 20
15.08516804152308
 30
0.0
 11
-4.9592821398156
 21
20.00259453263793
 31
0.0
  0
LINE
  5
21F
330
1F
100
AcDbEntity
  8
1
  6
CONTINUOUS
 62
     7
100
AcDbLine
 10
-4.7777960702899
 20
14.4176090207615
 30
0.0
 11
-4.19673870332929
 21
14.95004999999995
 31
0.0
  0
LINE
  5
220
330
1F
100
AcDbEntity
  8
1
  6
CONTINUOUS
 62
     7
100
AcDbLine
 10
-5.53695667887229
 20
14.95004999999995
 30
0.0
 11
-4.92525153765189
 21
14.28249097923838
 31
0.0
  0
LINE
  5
221
330
1F
100
AcDbEntity
  8
1
  6
CONTINUOUS
 62
     7
100
AcDbLine
 10
-8.26552726522789
 20
14.95004999999995
 30
0.0
 11
-5.53695667887229
 21
14.95004999999995
 31
0.0
  0
LINE
  5
222
330
1F
100
AcDbEntity
  8
1
  6
CONTINUOUS
 62
     7
100
AcDbLine
 10
-6.3429023894077
 20
22.55004999999994
 30
0.0
 11
-7.21541125681588
 21
26.35004999999994
 31
0.0
  0
LINE
  5
223
330
1F
100
AcDbEntity
  8
1
  6
CONTINUOUS
 62
     7
100
AcDbLine
 10
-6.14213842189898
 20
22.55004999999994
 30
0.0
 11
-4.6047157116945
 21
26.35004999999994
 31
0.0
  0
LINE
  5
224
330
1F
100
AcDbEntity
  8
1
  6
CONTINUOUS
 62
     7
100
AcDbLine
 10
-7.21541125681588
 20
26.35004999999994
 30
0.0
 11
-7.441879344923
 21
23.76150790803006
 31
0.0
  0
LINE
  5
225
330
1F
100
AcDbEntity
  8
1
  6
CONTINUOUS
 62
     7
100
AcDbLine
 10
-7.441879344923
 20
23.76150790803006
 30
0.0
 11
-6.93411180948729
 21
21.55004999999994
 31
0.0
  0
LINE
  5
226
330
1F
100
AcDbEntity
  8
1
  6
CONTINUOUS
 62
     7
100
AcDbLine
 10
-6.93411180948729
 20
21.55004999999994
 30
0.0
 11
-6.4303910529336
 21
21.55004999999994
 31
0.0
  0
LINE
  5
227
330
1F
100
AcDbEntity
  8
1
  6
CONTINUOUS
 62
     7
100
AcDbLine
 10
-6.4303910529336
 20
21.55004999999994
 30
0.0
 11
-6.3429023894077
 21
22.55004999999994
 31
0.0
  0
LINE
  5
228
330
1F
100
AcDbEntity
  8
1
  6
CONTINUOUS
 62
     7
100
AcDbLine
 10
-6.14213842189898
 20
22.55004999999994
 30
0.0
 11
-6.22962708542488
 21
21.55004999999994
 31
0.0
  0
LINE
  5
229
330
1F
100
AcDbEntity
  8
1
  6
CONTINUOUS
 62
     7
100
AcDbLine
 10
-6.22962708542488
 20
21.55004999999994
 30
0.0
 11
-5.6837280184599
 21
21.55004999999994
 31
0.0
  0
LINE
  5
22A
330
1F
100
AcDbEntity
  8
1
  6
CONTINUOUS
 62
     7
100
AcDbLine
 10
-5.6837280184599
 20
21.55004999999994
 30
0.0
 11
-4.8428210357792
 21
23.62849369214545
 31
0.0
  0
LINE
  5
22B
330
1F
100
AcDbEntity
  8
1
  6
CONTINUOUS
 62
     7
100
AcDbLine
 10
-4.8428210357792
 20
23.62849369214545
 30
0.0
 11
-4.6047157116945
 21
26.35004999999994
 31
0.0
  0
LINE
  5
22C
330
1F
100
AcDbEntity
  8
1
  6
CONTINUOUS
 62
     7
100
AcDbLine
 10
-8.19528428830628
 20
15.15004999999995
 30
0.0
 11
-6.65786157810098
 21
18.95004999999995
 31
0.0
  0
LINE
  5
22D
330
1F
100
AcDbEntity
  8
1
  6
CONTINUOUS
 62
     7
100
AcDbLine
 10
-6.45709761059229
 20
18.95004999999995
 30
0.0
 11
-5.5845887431849
 21
15.15004999999995
 31
0.0
  0
LINE
  5
22E
330
1F
100
AcDbEntity
  8
1
  6
CONTINUOUS
 62
     7
100
AcDbLine
 10
-6.65786157810098
 20
18.95004999999995
 30
0.0
 11
-6.57037291457539
 21
19.95004999999995
 31
0.0
  0
LINE
  5
22F
330
1F
100
AcDbEntity
  8
1
  6
CONTINUOUS
 62
     7
100
AcDbLine
 10
-6.57037291457539
 20
19.95004999999995
 30
0.0
 11
-7.11627198154079
 21
19.95004999999995
 31
0.0
  0
LINE
  5
230
330
1F
100
AcDbEntity
  8
1
  6
CONTINUOUS
 62
     7
100
AcDbLine
 10
-7.11627198154079
 20
19.95004999999995
 30
0.0
 11
-7.9571789642215
 21
17.87160630785438
 31
0.0
  0
LINE
  5
231
330
1F
100
AcDbEntity
  8
1
  6
CONTINUOUS
 62
     7
100
AcDbLine
 10
-7.9571789642215
 20
17.87160630785438
 30
0.0
 11
-8.19528428830628
 21
15.15004999999995
 31
0.0
  0
LINE
  5
232
330
1F
100
AcDbEntity
  8
1
  6
CONTINUOUS
 62
     7
100
AcDbLine
 10
-6.45709761059229
 20
18.95004999999995
 30
0.0
 11
-6.36960894706638
 21
19.95004999999995
 31
0.0
  0
LINE
  5
233
330
1F
100
AcDbEntity
  8
1
  6
CONTINUOUS
 62
     7
100
AcDbLine
 10
-6.36960894706638
 20
19.95004999999995
 30
0.0
 11
-5.8658881905134
 21
19.95004999999995
 31
0.0
  0
LINE
  5
234
330
1F
100
AcDbEntity
  8
1
  6
CONTINUOUS
 62
     7
100
AcDbLine
 10
-5.8658881905134
 20
19.95004999999995
 30
0.0
 11
-5.35812065507778
 21
17.73859209196993
 31
0.0
  0
LINE
  5
235
330
1F
100
AcDbEntity
  8
1
  6
CONTINUOUS
 62
     7
100
AcDbLine
 10
-5.35812065507778
 20
17.73859209196993
 30
0.0
 11
-5.5845887431849
 21
15.15004999999995
 31
0.0
  0
LINE
  5
236
330
1F
100
AcDbEntity
  8
1
  6
CONTINUOUS
 62
     7
100
AcDbLine
 10
-3.21812979357207
 20
14.95004999999995
 30
0.0
 11
-2.73589010992308
 21
14.42377773368095
 31
0.0
  0
LINE
  5
237
330
1F
100
AcDbEntity
  8
1
  6
CONTINUOUS
 62
     7
100
AcDbLine
 10
-2.11853238475078
 20
13.75004999999995
 30
0.0
 11
0.89369109538762
 21
13.75004999999995
 31
0.0
  0
LINE
  5
238
330
1F
100
AcDbEntity
  8
1
  6
CONTINUOUS
 62
     7
100
AcDbLine
 10
-2.20326129667129
 20
26.55004999999994
 30
0.0
 11
-1.62220392971079
 21
27.08249097923837
 31
0.0
  0
LINE
  5
239
330
1F
100
AcDbEntity
  8
1
  6
CONTINUOUS
 62
     7
100
AcDbLine
 10
-0.89369109538819
 20
27.75004999999995
 30
0.0
 11
2.11853238475061
 21
27.75004999999995
 31
0.0
  0
LINE
  5
23A
330
1F
100
AcDbEntity
  8
1
  6
CONTINUOUS
 62
     7
100
AcDbLine
 10
2.11853238475061
 20
27.75004999999995
 30
0.0
 11
2.60077206839941
 21
27.22377773368096
 31
0.0
  0
LINE
  5
23B
330
1F
100
AcDbEntity
  8
1
  6
CONTINUOUS
 62
     7
100
AcDbLine
 10
3.21812979357151
 20
26.55004999999994
 30
0.0
 11
2.77608942500581
 21
21.49750546736196
 31
0.0
  0
LINE
  5
23C
330
1F
100
AcDbEntity
  8
1
  6
CONTINUOUS
 62
     7
100
AcDbLine
 10
2.2032612966708
 20
14.95004999999995
 30
0.0
 11
2.64638105013452
 21
20.01493195847681
 31
0.0
  0
LINE
  5
23D
330
1F
100
AcDbEntity
  8
1
  6
CONTINUOUS
 62
     7
100
AcDbLine
 10
-1.42297076769398
 20
20.15004999999995
 30
0.0
 11
-1.9671168881531
 21
20.74388128708051
 31
0.0
  0
LINE
  5
23E
330
1F
100
AcDbEntity
  8
1
  6
CONTINUOUS
 62
     7
100
AcDbLine
 10
-1.9671168881531
 20
20.74388128708051
 30
0.0
 11
-1.30559981866159
 21
21.35004999999994
 31
0.0
  0
LINE
  5
23F
330
1F
100
AcDbEntity
  8
1
  6
CONTINUOUS
 62
     7
100
AcDbLine
 10
-1.30559981866159
 20
21.35004999999994
 30
0.0
 11
1.4229707676937
 21
21.35004999999994
 31
0.0
  0
LINE
  5
240
330
1F
100
AcDbEntity
  8
1
  6
CONTINUOUS
 62
     7
100
AcDbLine
 10
-2.77608942500629
 20
20.00259453263793
 30
0.0
 11
-2.11457235551509
 21
20.60876324555737
 31
0.0
  0
LINE
  5
241
330
1F
100
AcDbEntity
  8
1
  6
CONTINUOUS
 62
     7
100
AcDbLine
 10
-2.77608942500629
 20
20.00259453263793
 30
0.0
 11
-3.21812979357207
 21
14.95004999999995
 31
0.0
  0
LINE
  5
242
330
1F
100
AcDbEntity
  8
1
  6
CONTINUOUS
 62
     7
100
AcDbLine
 10
-2.11457235551509
 20
20.60876324555737
 30
0.0
 11
-1.57042623505629
 21
20.01493195847681
 31
0.0
  0
LINE
  5
243
330
1F
100
AcDbEntity
  8
1
  6
CONTINUOUS
 62
     7
100
AcDbLine
 10
-1.57042623505629
 20
20.01493195847681
 30
0.0
 11
-1.99524709969708
 21
15.15920725632435
 31
0.0
  0
LINE
  5
244
330
1F
100
AcDbEntity
  8
1
  6
CONTINUOUS
 62
     7
100
AcDbLine
 10
-2.64638105013498
 20
21.48516804152308
 30
0.0
 11
-2.10223492967589
 21
20.89133675444252
 31
0.0
  0
LINE
  5
245
330
1F
100
AcDbEntity
  8
1
  6
CONTINUOUS
 62
     7
100
AcDbLine
 10
-2.64638105013498
 20
21.48516804152308
 30
0.0
 11
-2.20326129667129
 21
26.55004999999994
 31
0.0
  0
LINE
  5
246
330
1F
100
AcDbEntity
  8
1
  6
CONTINUOUS
 62
     7
100
AcDbLine
 10
-2.10223492967589
 20
20.89133675444252
 30
0.0
 11
-1.44071786018469
 21
21.49750546736196
 31
0.0
  0
LINE
  5
247
330
1F
100
AcDbEntity
  8
1
  6
CONTINUOUS
 62
     7
100
AcDbLine
 10
1.57042623505572
 20
21.48516804152308
 30
0.0
 11
2.11457235551461
 21
20.89133675444252
 31
0.0
  0
LINE
  5
248
330
1F
100
AcDbEntity
  8
1
  6
CONTINUOUS
 62
     7
100
AcDbLine
 10
1.57042623505572
 20
21.48516804152308
 30
0.0
 11
2.00064530675041
 21
26.40259453263792
 31
0.0
  0
LINE
  5
249
330
1F
100
AcDbEntity
  8
1
  6
CONTINUOUS
 62
     7
100
AcDbLine
 10
2.11457235551461
 20
20.89133675444252
 30
0.0
 11
2.77608942500581
 21
21.49750546736196
 31
0.0
  0
LINE
  5
24A
330
1F
100
AcDbEntity
  8
1
  6
CONTINUOUS
 62
     7
100
AcDbLine
 10
1.44071786018452
 20
20.00259453263793
 30
0.0
 11
2.10223492967572
 21
20.60876324555737
 31
0.0
  0
LINE
  5
24B
330
1F
100
AcDbEntity
  8
1
  6
CONTINUOUS
 62
     7
100
AcDbLine
 10
2.10223492967572
 20
20.60876324555737
 30
0.0
 11
2.64638105013452
 21
20.01493195847681
 31
0.0
  0
LINE
  5
24C
330
1F
100
AcDbEntity
  8
1
  6
CONTINUOUS
 62
     7
100
AcDbLine
 10
1.30559981866131
 20
20.15004999999995
 30
0.0
 11
1.9671168881525
 21
20.75621871291938
 31
0.0
  0
LINE
  5
24D
330
1F
100
AcDbEntity
  8
1
  6
CONTINUOUS
 62
     7
100
AcDbLine
 10
1.30559981866131
 20
20.15004999999995
 30
0.0
 11
-1.42297076769398
 21
20.15004999999995
 31
0.0
  0
LINE
  5
24E
330
1F
100
AcDbEntity
  8
1
  6
CONTINUOUS
 62
     7
100
AcDbLine
 10
1.9671168881525
 20
20.75621871291938
 30
0.0
 11
1.4229707676937
 21
21.35004999999994
 31
0.0
  0
LINE
  5
24F
330
1F
100
AcDbEntity
  8
1
  6
CONTINUOUS
 62
     7
100
AcDbLine
 10
-1.62220392971079
 20
27.08249097923837
 30
0.0
 11
-1.01049878849008
 21
26.41493195847681
 31
0.0
  0
LINE
  5
250
330
1F
100
AcDbEntity
  8
1
  6
CONTINUOUS
 62
     7
100
AcDbLine
 10
-1.01049878849008
 20
26.41493195847681
 30
0.0
 11
-1.44071786018469
 21
21.49750546736196
 31
0.0
  0
LINE
  5
251
330
1F
100
AcDbEntity
  8
1
  6
CONTINUOUS
 62
     7
100
AcDbLine
 10
-0.86304332112809
 20
26.55004999999994
 30
0.0
 11
-1.47474846234869
 21
27.2176090207615
 31
0.0
  0
LINE
  5
252
330
1F
100
AcDbEntity
  8
1
  6
CONTINUOUS
 62
     7
100
AcDbLine
 10
-1.47474846234869
 20
27.2176090207615
 30
0.0
 11
-0.89369109538819
 21
27.75004999999995
 31
0.0
  0
LINE
  5
253
330
1F
100
AcDbEntity
  8
1
  6
CONTINUOUS
 62
     7
100
AcDbLine
 10
1.8655272652272
 20
26.55004999999994
 30
0.0
 11
2.60077206839941
 21
27.22377773368096
 31
0.0
  0
LINE
  5
254
330
1F
100
AcDbEntity
  8
1
  6
CONTINUOUS
 62
     7
100
AcDbLine
 10
1.8655272652272
 20
26.55004999999994
 30
0.0
 11
-0.86304332112809
 21
26.55004999999994
 31
0.0
  0
LINE
  5
255
330
1F
100
AcDbEntity
  8
1
  6
CONTINUOUS
 62
     7
100
AcDbLine
 10
2.00064530675041
 20
26.40259453263792
 30
0.0
 11
2.73589010992251
 21
27.07632226631894
 31
0.0
  0
LINE
  5
256
330
1F
100
AcDbEntity
  8
1
  6
CONTINUOUS
 62
     7
100
AcDbLine
 10
2.73589010992251
 20
27.07632226631894
 30
0.0
 11
3.21812979357151
 21
26.55004999999994
 31
0.0
  0
LINE
  5
257
330
1F
100
AcDbEntity
  8
1
  6
CONTINUOUS
 62
     7
100
AcDbLine
 10
-1.99524709969708
 20
15.15920725632435
 30
0.0
 11
-2.73589010992308
 21
14.42377773368095
 31
0.0
  0
LINE
  5
258
330
1F
100
AcDbEntity
  8
1
  6
CONTINUOUS
 62
     7
100
AcDbLine
 10
-2.60077206839998
 20
14.27632226631893
 30
0.0
 11
-1.8655272652278
 21
14.95004999999995
 31
0.0
  0
LINE
  5
259
330
1F
100
AcDbEntity
  8
1
  6
CONTINUOUS
 62
     7
100
AcDbLine
 10
-2.60077206839998
 20
14.27632226631893
 30
0.0
 11
-2.11853238475078
 21
13.75004999999995
 31
0.0
  0
LINE
  5
25A
330
1F
100
AcDbEntity
  8
1
  6
CONTINUOUS
 62
     7
100
AcDbLine
 10
0.89369109538762
 20
13.75004999999995
 30
0.0
 11
1.4747484623482
 21
14.28249097923838
 31
0.0
  0
LINE
  5
25B
330
1F
100
AcDbEntity
  8
1
  6
CONTINUOUS
 62
     7
100
AcDbLine
 10
1.62220392971022
 20
14.4176090207615
 30
0.0
 11
1.0104987884898
 21
15.08516804152308
 31
0.0
  0
LINE
  5
25C
330
1F
100
AcDbEntity
  8
1
  6
CONTINUOUS
 62
     7
100
AcDbLine
 10
1.0104987884898
 20
15.08516804152308
 30
0.0
 11
1.44071786018452
 21
20.00259453263793
 31
0.0
  0
LINE
  5
25D
330
1F
100
AcDbEntity
  8
1
  6
CONTINUOUS
 62
     7
100
AcDbLine
 10
1.62220392971022
 20
14.4176090207615
 30
0.0
 11
2.2032612966708
 21
14.95004999999995
 31
0.0
  0
LINE
  5
25E
330
1F
100
AcDbEntity
  8
1
  6
CONTINUOUS
 62
     7
100
AcDbLine
 10
0.8630433211278
 20
14.95004999999995
 30
0.0
 11
1.4747484623482
 21
14.28249097923838
 31
0.0
  0
LINE
  5
25F
330
1F
100
AcDbEntity
  8
1
  6
CONTINUOUS
 62
     7
100
AcDbLine
 10
-1.8655272652278
 20
14.95004999999995
 30
0.0
 11
0.8630433211278
 21
14.95004999999995
 31
0.0
  0
LINE
  5
260
330
1F
100
AcDbEntity
  8
1
  6
CONTINUOUS
 62
     7
100
AcDbLine
 10
0.05709761059211
 20
22.55004999999994
 30
0.0
 11
-0.81541125681548
 21
26.35004999999994
 31
0.0
  0
LINE
  5
261
330
1F
100
AcDbEntity
  8
1
  6
CONTINUOUS
 62
     7
100
AcDbLine
 10
0.25786157810072
 20
22.55004999999994
 30
0.0
 11
1.79528428830562
 21
26.35004999999994
 31
0.0
  0
LINE
  5
262
330
1F
100
AcDbEntity
  8
1
  6
CONTINUOUS
 62
     7
100
AcDbLine
 10
-0.81541125681548
 20
26.35004999999994
 30
0.0
 11
-1.04187934492288
 21
23.76150790803006
 31
0.0
  0
LINE
  5
263
330
1F
100
AcDbEntity
  8
1
  6
CONTINUOUS
 62
     7
100
AcDbLine
 10
-1.04187934492288
 20
23.76150790803006
 30
0.0
 11
-0.5341118094872
 21
21.55004999999994
 31
0.0
  0
LINE
  5
264
330
1F
100
AcDbEntity
  8
1
  6
CONTINUOUS
 62
     7
100
AcDbLine
 10
-0.5341118094872
 20
21.55004999999994
 30
0.0
 11
-0.03039105293388
 21
21.55004999999994
 31
0.0
  0
LINE
  5
265
330
1F
100
AcDbEntity
  8
1
  6
CONTINUOUS
 62
     7
100
AcDbLine
 10
-0.03039105293388
 20
21.55004999999994
 30
0.0
 11
0.05709761059211
 21
22.55004999999994
 31
0.0
  0
LINE
  5
266
330
1F
100
AcDbEntity
  8
1
  6
CONTINUOUS
 62
     7
100
AcDbLine
 10
0.25786157810072
 20
22.55004999999994
 30
0.0
 11
0.17037291457481
 21
21.55004999999994
 31
0.0
  0
LINE
  5
267
330
1F
100
AcDbEntity
  8
1
  6
CONTINUOUS
 62
     7
100
AcDbLine
 10
0.17037291457481
 20
21.55004999999994
 30
0.0
 11
0.71627198154022
 21
21.55004999999994
 31
0.0
  0
LINE
  5
268
330
1F
100
AcDbEntity
  8
1
  6
CONTINUOUS
 62
     7
100
AcDbLine
 10
0.71627198154022
 20
21.55004999999994
 30
0.0
 11
1.55717896422092
 21
23.62849369214545
 31
0.0
  0
LINE
  5
269
330
1F
100
AcDbEntity
  8
1
  6
CONTINUOUS
 62
     7
100
AcDbLine
 10
1.55717896422092
 20
23.62849369214545
 30
0.0
 11
1.79528428830562
 21
26.35004999999994
 31
0.0
  0
LINE
  5
26A
330
1F
100
AcDbEntity
  8
1
  6
CONTINUOUS
 62
     7
100
AcDbLine
 10
-1.79528428830588
 20
15.15004999999995
 30
0.0
 11
-0.25786157810128
 21
18.95004999999995
 31
0.0
  0
LINE
  5
26B
330
1F
100
AcDbEntity
  8
1
  6
CONTINUOUS
 62
     7
100
AcDbLine
 10
-0.05709761059259
 20
18.95004999999995
 30
0.0
 11
0.81541125681522
 21
15.15004999999995
 31
0.0
  0
LINE
  5
26C
330
1F
100
AcDbEntity
  8
1
  6
CONTINUOUS
 62
     7
100
AcDbLine
 10
-0.25786157810128
 20
18.95004999999995
 30
0.0
 11
-0.1703729145753
 21
19.95004999999995
 31
0.0
  0
LINE
  5
26D
330
1F
100
AcDbEntity
  8
1
  6
CONTINUOUS
 62
     7
100
AcDbLine
 10
-0.1703729145753
 20
19.95004999999995
 30
0.0
 11
-0.7162719815407
 21
19.95004999999995
 31
0.0
  0
LINE
  5
26E
330
1F
100
AcDbEntity
  8
1
  6
CONTINUOUS
 62
     7
100
AcDbLine
 10
-0.7162719815407
 20
19.95004999999995
 30
0.0
 11
-1.55717896422149
 21
17.87160630785438
 31
0.0
  0
LINE
  5
26F
330
1F
100
AcDbEntity
  8
1
  6
CONTINUOUS
 62
     7
100
AcDbLine
 10
-1.55717896422149
 20
17.87160630785438
 30
0.0
 11
-1.79528428830588
 21
15.15004999999995
 31
0.0
  0
LINE
  5
270
330
1F
100
AcDbEntity
  8
1
  6
CONTINUOUS
 62
     7
100
AcDbLine
 10
-0.05709761059259
 20
18.95004999999995
 30
0.0
 11
0.03039105293331
 21
19.95004999999995
 31
0.0
  0
LINE
  5
271
330
1F
100
AcDbEntity
  8
1
  6
CONTINUOUS
 62
     7
100
AcDbLine
 10
0.03039105293331
 20
19.95004999999995
 30
0.0
 11
0.53411180948672
 21
19.95004999999995
 31
0.0
  0
LINE
  5
272
330
1F
100
AcDbEntity
  8
1
  6
CONTINUOUS
 62
     7
100
AcDbLine
 10
0.53411180948672
 20
19.95004999999995
 30
0.0
 11
1.04187934492231
 21
17.73859209196993
 31
0.0
  0
LINE
  5
273
330
1F
100
AcDbEntity
  8
1
  6
CONTINUOUS
 62
     7
100
AcDbLine
 10
1.04187934492231
 20
17.73859209196993
 30
0.0
 11
0.81541125681522
 21
15.15004999999995
 31
0.0
  0
LINE
  5
274
330
1F
100
AcDbEntity
  8
1
  6
CONTINUOUS
 62
     7
100
AcDbLine
 10
3.18187020642802
 20
14.95004999999995
 30
0.0
 11
3.66410989007702
 21
14.42377773368095
 31
0.0
  0
LINE
  5
275
330
1F
100
AcDbEntity
  8
1
  6
CONTINUOUS
 62
     7
100
AcDbLine
 10
4.281467615249
 20
13.75004999999995
 30
0.0
 11
7.29369109538772
 21
13.75004999999995
 31
0.0
  0
LINE
  5
276
330
1F
100
AcDbEntity
  8
1
  6
CONTINUOUS
 62
     7
100
AcDbLine
 10
4.1967387033288
 20
26.55004999999994
 30
0.0
 11
4.7777960702893
 21
27.08249097923837
 31
0.0
  0
LINE
  5
277
330
1F
100
AcDbEntity
  8
1
  6
CONTINUOUS
 62
     7
100
AcDbLine
 10
5.5063089046119
 20
27.75004999999995
 30
0.0
 11
8.5185323847507
 21
27.75004999999995
 31
0.0
  0
LINE
  5
278
330
1F
100
AcDbEntity
  8
1
  6
CONTINUOUS
 62
     7
100
AcDbLine
 10
8.5185323847507
 20
27.75004999999995
 30
0.0
 11
9.0007720683995
 21
27.22377773368096
 31
0.0
  0
LINE
  5
279
330
1F
100
AcDbEntity
  8
1
  6
CONTINUOUS
 62
     7
100
AcDbLine
 10
9.6181297935716
 20
26.55004999999994
 30
0.0
 11
9.1760894250059
 21
21.49750546736196
 31
0.0
  0
LINE
  5
27A
330
1F
100
AcDbEntity
  8
1
  6
CONTINUOUS
 62
     7
100
AcDbLine
 10
8.60326129667081
 20
14.95004999999995
 30
0.0
 11
9.04638105013461
 21
20.01493195847681
 31
0.0
  0
LINE
  5
27B
330
1F
100
AcDbEntity
  8
1
  6
CONTINUOUS
 62
     7
100
AcDbLine
 10
4.97702923230582
 20
20.15004999999995
 30
0.0
 11
4.43288311184702
 21
20.74388128708051
 31
0.0
  0
LINE
  5
27C
330
1F
100
AcDbEntity
  8
1
  6
CONTINUOUS
 62
     7
100
AcDbLine
 10
4.43288311184702
 20
20.74388128708051
 30
0.0
 11
5.09440018133822
 21
21.35004999999994
 31
0.0
  0
LINE
  5
27D
330
1F
100
AcDbEntity
  8
1
  6
CONTINUOUS
 62
     7
100
AcDbLine
 10
5.09440018133822
 20
21.35004999999994
 30
0.0
 11
7.82297076769382
 21
21.35004999999994
 31
0.0
  0
LINE
  5
27E
330
1F
100
AcDbEntity
  8
1
  6
CONTINUOUS
 62
     7
100
AcDbLine
 10
3.6239105749938
 20
20.00259453263793
 30
0.0
 11
4.285427644485
 21
20.60876324555737
 31
0.0
  0
LINE
  5
27F
330
1F
100
AcDbEntity
  8
1
  6
CONTINUOUS
 62
     7
100
AcDbLine
 10
3.6239105749938
 20
20.00259453263793
 30
0.0
 11
3.18187020642802
 21
14.95004999999995
 31
0.0
  0
LINE
  5
280
330
1F
100
AcDbEntity
  8
1
  6
CONTINUOUS
 62
     7
100
AcDbLine
 10
4.285427644485
 20
20.60876324555737
 30
0.0
 11
4.8295737649438
 21
20.01493195847681
 31
0.0
  0
LINE
  5
281
330
1F
100
AcDbEntity
  8
1
  6
CONTINUOUS
 62
     7
100
AcDbLine
 10
4.8295737649438
 20
20.01493195847681
 30
0.0
 11
4.40475290030273
 21
15.15920725632435
 31
0.0
  0
LINE
  5
282
330
1F
100
AcDbEntity
  8
1
  6
CONTINUOUS
 62
     7
100
AcDbLine
 10
3.75361894986511
 20
21.48516804152308
 30
0.0
 11
4.29776507032392
 21
20.89133675444252
 31
0.0
  0
LINE
  5
283
330
1F
100
AcDbEntity
  8
1
  6
CONTINUOUS
 62
     7
100
AcDbLine
 10
3.75361894986511
 20
21.48516804152308
 30
0.0
 11
4.1967387033288
 21
26.55004999999994
 31
0.0
  0
LINE
  5
284
330
1F
100
AcDbEntity
  8
1
  6
CONTINUOUS
 62
     7
100
AcDbLine
 10
4.29776507032392
 20
20.89133675444252
 30
0.0
 11
4.95928213981512
 21
21.49750546736196
 31
0.0
  0
LINE
  5
285
330
1F
100
AcDbEntity
  8
1
  6
CONTINUOUS
 62
     7
100
AcDbLine
 10
7.97042623505581
 20
21.48516804152308
 30
0.0
 11
8.51457235551482
 21
20.89133675444252
 31
0.0
  0
LINE
  5
286
330
1F
100
AcDbEntity
  8
1
  6
CONTINUOUS
 62
     7
100
AcDbLine
 10
7.97042623505581
 20
21.48516804152308
 30
0.0
 11
8.4006453067505
 21
26.40259453263792
 31
0.0
  0
LINE
  5
287
330
1F
100
AcDbEntity
  8
1
  6
CONTINUOUS
 62
     7
100
AcDbLine
 10
8.51457235551482
 20
20.89133675444252
 30
0.0
 11
9.1760894250059
 21
21.49750546736196
 31
0.0
  0
LINE
  5
288
330
1F
100
AcDbEntity
  8
1
  6
CONTINUOUS
 62
     7
100
AcDbLine
 10
7.84071786018461
 20
20.00259453263793
 30
0.0
 11
8.50223492967581
 21
20.60876324555737
 31
0.0
  0
LINE
  5
289
330
1F
100
AcDbEntity
  8
1
  6
CONTINUOUS
 62
     7
100
AcDbLine
 10
8.50223492967581
 20
20.60876324555737
 30
0.0
 11
9.04638105013461
 21
20.01493195847681
 31
0.0
  0
LINE
  5
28A
330
1F
100
AcDbEntity
  8
1
  6
CONTINUOUS
 62
     7
100
AcDbLine
 10
7.7055998186614
 20
20.15004999999995
 30
0.0
 11
8.36711688815262
 21
20.75621871291938
 31
0.0
  0
LINE
  5
28B
330
1F
100
AcDbEntity
  8
1
  6
CONTINUOUS
 62
     7
100
AcDbLine
 10
7.7055998186614
 20
20.15004999999995
 30
0.0
 11
4.97702923230582
 21
20.15004999999995
 31
0.0
  0
LINE
  5
28C
330
1F
100
AcDbEntity
  8
1
  6
CONTINUOUS
 62
     7
100
AcDbLine
 10
8.36711688815262
 20
20.75621871291938
 30
0.0
 11
7.82297076769382
 21
21.35004999999994
 31
0.0
  0
LINE
  5
28D
330
1F
100
AcDbEntity
  8
1
  6
CONTINUOUS
 62
     7
100
AcDbLine
 10
4.7777960702893
 20
27.08249097923837
 30
0.0
 11
5.38950121150973
 21
26.41493195847681
 31
0.0
  0
LINE
  5
28E
330
1F
100
AcDbEntity
  8
1
  6
CONTINUOUS
 62
     7
100
AcDbLine
 10
5.38950121150973
 20
26.41493195847681
 30
0.0
 11
4.95928213981512
 21
21.49750546736196
 31
0.0
  0
LINE
  5
28F
330
1F
100
AcDbEntity
  8
1
  6
CONTINUOUS
 62
     7
100
AcDbLine
 10
5.53695667887172
 20
26.55004999999994
 30
0.0
 11
4.92525153765141
 21
27.2176090207615
 31
0.0
  0
LINE
  5
290
330
1F
100
AcDbEntity
  8
1
  6
CONTINUOUS
 62
     7
100
AcDbLine
 10
4.92525153765141
 20
27.2176090207615
 30
0.0
 11
5.5063089046119
 21
27.75004999999995
 31
0.0
  0
LINE
  5
291
330
1F
100
AcDbEntity
  8
1
  6
CONTINUOUS
 62
     7
100
AcDbLine
 10
8.26552726522732
 20
26.55004999999994
 30
0.0
 11
9.0007720683995
 21
27.22377773368096
 31
0.0
  0
LINE
  5
292
330
1F
100
AcDbEntity
  8
1
  6
CONTINUOUS
 62
     7
100
AcDbLine
 10
8.26552726522732
 20
26.55004999999994
 30
0.0
 11
5.53695667887172
 21
26.55004999999994
 31
0.0
  0
LINE
  5
293
330
1F
100
AcDbEntity
  8
1
  6
CONTINUOUS
 62
     7
100
AcDbLine
 10
8.4006453067505
 20
26.40259453263792
 30
0.0
 11
9.1358901099226
 21
27.07632226631894
 31
0.0
  0
LINE
  5
294
330
1F
100
AcDbEntity
  8
1
  6
CONTINUOUS
 62
     7
100
AcDbLine
 10
9.1358901099226
 20
27.07632226631894
 30
0.0
 11
9.6181297935716
 21
26.55004999999994
 31
0.0
  0
LINE
  5
295
330
1F
100
AcDbEntity
  8
1
  6
CONTINUOUS
 62
     7
100
AcDbLine
 10
4.40475290030273
 20
15.15920725632435
 30
0.0
 11
3.66410989007702
 21
14.42377773368095
 31
0.0
  0
LINE
  5
296
330
1F
100
AcDbEntity
  8
1
  6
CONTINUOUS
 62
     7
100
AcDbLine
 10
3.79922793160011
 20
14.27632226631893
 30
0.0
 11
4.53447273477232
 21
14.95004999999995
 31
0.0
  0
LINE
  5
297
330
1F
100
AcDbEntity
  8
1
  6
CONTINUOUS
 62
     7
100
AcDbLine
 10
3.79922793160011
 20
14.27632226631893
 30
0.0
 11
4.281467615249
 21
13.75004999999995
 31
0.0
  0
LINE
  5
298
330
1F
100
AcDbEntity
  8
1
  6
CONTINUOUS
 62
     7
100
AcDbLine
 10
7.29369109538772
 20
13.75004999999995
 30
0.0
 11
7.87474846234832
 21
14.28249097923838
 31
0.0
  0
LINE
  5
299
330
1F
100
AcDbEntity
  8
1
  6
CONTINUOUS
 62
     7
100
AcDbLine
 10
8.02220392971032
 20
14.4176090207615
 30
0.0
 11
7.41049878848992
 21
15.08516804152308
 31
0.0
  0
LINE
  5
29A
330
1F
100
AcDbEntity
  8
1
  6
CONTINUOUS
 62
     7
100
AcDbLine
 10
7.41049878848992
 20
15.08516804152308
 30
0.0
 11
7.84071786018461
 21
20.00259453263793
 31
0.0
  0
LINE
  5
29B
330
1F
100
AcDbEntity
  8
1
  6
CONTINUOUS
 62
     7
100
AcDbLine
 10
8.02220392971032
 20
14.4176090207615
 30
0.0
 11
8.60326129667081
 21
14.95004999999995
 31
0.0
  0
LINE
  5
29C
330
1F
100
AcDbEntity
  8
1
  6
CONTINUOUS
 62
     7
100
AcDbLine
 10
7.26304332112792
 20
14.95004999999995
 30
0.0
 11
7.87474846234832
 21
14.28249097923838
 31
0.0
  0
LINE
  5
29D
330
1F
100
AcDbEntity
  8
1
  6
CONTINUOUS
 62
     7
100
AcDbLine
 10
4.53447273477232
 20
14.95004999999995
 30
0.0
 11
7.26304332112792
 21
14.95004999999995
 31
0.0
  0
LINE
  5
29E
330
1F
100
AcDbEntity
  8
1
  6
CONTINUOUS
 62
     7
100
AcDbLine
 10
6.4570976105922
 20
22.55004999999994
 30
0.0
 11
5.5845887431843
 21
26.35004999999994
 31
0.0
  0
LINE
  5
29F
330
1F
100
AcDbEntity
  8
1
  6
CONTINUOUS
 62
     7
100
AcDbLine
 10
6.65786157810081
 20
22.55004999999994
 30
0.0
 11
8.19528428830571
 21
26.35004999999994
 31
0.0
  0
LINE
  5
2A0
330
1F
100
AcDbEntity
  8
1
  6
CONTINUOUS
 62
     7
100
AcDbLine
 10
5.5845887431843
 20
26.35004999999994
 30
0.0
 11
5.35812065507722
 21
23.76150790803006
 31
0.0
  0
LINE
  5
2A1
330
1F
100
AcDbEntity
  8
1
  6
CONTINUOUS
 62
     7
100
AcDbLine
 10
5.35812065507722
 20
23.76150790803006
 30
0.0
 11
5.86588819051292
 21
21.55004999999994
 31
0.0
  0
LINE
  5
2A2
330
1F
100
AcDbEntity
  8
1
  6
CONTINUOUS
 62
     7
100
AcDbLine
 10
5.86588819051292
 20
21.55004999999994
 30
0.0
 11
6.36960894706621
 21
21.55004999999994
 31
0.0
  0
LINE
  5
2A3
330
1F
100
AcDbEntity
  8
1
  6
CONTINUOUS
 62
     7
100
AcDbLine
 10
6.36960894706621
 20
21.55004999999994
 30
0.0
 11
6.4570976105922
 21
22.55004999999994
 31
0.0
  0
LINE
  5
2A4
330
1F
100
AcDbEntity
  8
1
  6
CONTINUOUS
 62
     7
100
AcDbLine
 10
6.65786157810081
 20
22.55004999999994
 30
0.0
 11
6.5703729145749
 21
21.55004999999994
 31
0.0
  0
LINE
  5
2A5
330
1F
100
AcDbEntity
  8
1
  6
CONTINUOUS
 62
     7
100
AcDbLine
 10
6.5703729145749
 20
21.55004999999994
 30
0.0
 11
7.11627198154031
 21
21.55004999999994
 31
0.0
  0
LINE
  5
2A6
330
1F
100
AcDbEntity
  8
1
  6
CONTINUOUS
 62
     7
100
AcDbLine
 10
7.11627198154031
 20
21.55004999999994
 30
0.0
 11
7.95717896422101
 21
23.62849369214545
 31
0.0
  0
LINE
  5
2A7
330
1F
100
AcDbEntity
  8
1
  6
CONTINUOUS
 62
     7
100
AcDbLine
 10
7.95717896422101
 20
23.62849369214545
 30
0.0
 11
8.19528428830571
 21
26.35004999999994
 31
0.0
  0
LINE
  5
2A8
330
1F
100
AcDbEntity
  8
1
  6
CONTINUOUS
 62
     7
100
AcDbLine
 10
4.6047157116939
 20
15.15004999999995
 30
0.0
 11
6.14213842189881
 21
18.95004999999995
 31
0.0
  0
LINE
  5
2A9
330
1F
100
AcDbEntity
  8
1
  6
CONTINUOUS
 62
     7
100
AcDbLine
 10
6.3429023894075
 20
18.95004999999995
 30
0.0
 11
7.21541125681532
 21
15.15004999999995
 31
0.0
  0
LINE
  5
2AA
330
1F
100
AcDbEntity
  8
1
  6
CONTINUOUS
 62
     7
100
AcDbLine
 10
6.14213842189881
 20
18.95004999999995
 30
0.0
 11
6.22962708542482
 21
19.95004999999995
 31
0.0
  0
LINE
  5
2AB
330
1F
100
AcDbEntity
  8
1
  6
CONTINUOUS
 62
     7
100
AcDbLine
 10
6.22962708542482
 20
19.95004999999995
 30
0.0
 11
5.68372801845942
 21
19.95004999999995
 31
0.0
  0
LINE
  5
2AC
330
1F
100
AcDbEntity
  8
1
  6
CONTINUOUS
 62
     7
100
AcDbLine
 10
5.68372801845942
 20
19.95004999999995
 30
0.0
 11
4.8428210357786
 21
17.87160630785438
 31
0.0
  0
LINE
  5
2AD
330
1F
100
AcDbEntity
  8
1
  6
CONTINUOUS
 62
     7
100
AcDbLine
 10
4.8428210357786
 20
17.87160630785438
 30
0.0
 11
4.6047157116939
 21
15.15004999999995
 31
0.0
  0
LINE
  5
2AE
330
1F
100
AcDbEntity
  8
1
  6
CONTINUOUS
 62
     7
100
AcDbLine
 10
6.3429023894075
 20
18.95004999999995
 30
0.0
 11
6.4303910529334
 21
19.95004999999995
 31
0.0
  0
LINE
  5
2AF
330
1F
100
AcDbEntity
  8
1
  6
CONTINUOUS
 62
     7
100
AcDbLine
 10
6.4303910529334
 20
19.95004999999995
 30
0.0
 11
6.93411180948681
 21
19.95004999999995
 31
0.0
  0
LINE
  5
2B0
330
1F
100
AcDbEntity
  8
1
  6
CONTINUOUS
 62
     7
100
AcDbLine
 10
6.93411180948681
 20
19.95004999999995
 30
0.0
 11
7.4418793449224
 21
17.73859209196993
 31
0.0
  0
LINE
  5
2B1
330
1F
100
AcDbEntity
  8
1
  6
CONTINUOUS
 62
     7
100
AcDbLine
 10
7.4418793449224
 20
17.73859209196993
 30
0.0
 11
7.21541125681532
 21
15.15004999999995
 31
0.0
  0
LINE
  5
2B2
330
1F
100
AcDbEntity
  8
1
  6
CONTINUOUS
 62
     7
100
AcDbLine
 10
9.58187020642811
 20
14.95004999999995
 30
0.0
 11
10.06410989007711
 21
14.42377773368095
 31
0.0
  0
LINE
  5
2B3
330
1F
100
AcDbEntity
  8
1
  6
CONTINUOUS
 62
     7
100
AcDbLine
 10
10.68146761524912
 20
13.75004999999995
 30
0.0
 11
13.69369109538781
 21
13.75004999999995
 31
0.0
  0
LINE
  5
2B4
330
1F
100
AcDbEntity
  8
1
  6
CONTINUOUS
 62
     7
100
AcDbLine
 10
10.59673870332892
 20
26.55004999999994
 30
0.0
 11
11.17779607028942
 21
27.08249097923837
 31
0.0
  0
LINE
  5
2B5
330
1F
100
AcDbEntity
  8
1
  6
CONTINUOUS
 62
     7
100
AcDbLine
 10
11.90630890461202
 20
27.75004999999995
 30
0.0
 11
14.91853238475071
 21
27.75004999999995
 31
0.0
  0
LINE
  5
2B6
330
1F
100
AcDbEntity
  8
1
  6
CONTINUOUS
 62
     7
100
AcDbLine
 10
14.91853238475071
 20
27.75004999999995
 30
0.0
 11
15.40077206839962
 21
27.22377773368096
 31
0.0
  0
LINE
  5
2B7
330
1F
100
AcDbEntity
  8
1
  6
CONTINUOUS
 62
     7
100
AcDbLine
 10
16.01812979357172
 20
26.55004999999994
 30
0.0
 11
15.5760894250059
 21
21.49750546736196
 31
0.0
  0
LINE
  5
2B8
330
1F
100
AcDbEntity
  8
1
  6
CONTINUOUS
 62
     7
100
AcDbLine
 10
15.0032612966709
 20
14.95004999999995
 30
0.0
 11
15.4463810501347
 21
20.01493195847681
 31
0.0
  0
LINE
  5
2B9
330
1F
100
AcDbEntity
  8
1
  6
CONTINUOUS
 62
     7
100
AcDbLine
 10
11.37702923230592
 20
20.15004999999995
 30
0.0
 11
10.83288311184711
 21
20.74388128708051
 31
0.0
  0
LINE
  5
2BA
330
1F
100
AcDbEntity
  8
1
  6
CONTINUOUS
 62
     7
100
AcDbLine
 10
10.83288311184711
 20
20.74388128708051
 30
0.0
 11
11.49440018133831
 21
21.35004999999994
 31
0.0
  0
LINE
  5
2BB
330
1F
100
AcDbEntity
  8
1
  6
CONTINUOUS
 62
     7
100
AcDbLine
 10
11.49440018133831
 20
21.35004999999994
 30
0.0
 11
14.22297076769391
 21
21.35004999999994
 31
0.0
  0
LINE
  5
2BC
330
1F
100
AcDbEntity
  8
1
  6
CONTINUOUS
 62
     7
100
AcDbLine
 10
10.02391057499392
 20
20.00259453263793
 30
0.0
 11
10.68542764448512
 21
20.60876324555737
 31
0.0
  0
LINE
  5
2BD
330
1F
100
AcDbEntity
  8
1
  6
CONTINUOUS
 62
     7
100
AcDbLine
 10
10.02391057499392
 20
20.00259453263793
 30
0.0
 11
9.58187020642811
 21
14.95004999999995
 31
0.0
  0
LINE
  5
2BE
330
1F
100
AcDbEntity
  8
1
  6
CONTINUOUS
 62
     7
100
AcDbLine
 10
10.68542764448512
 20
20.60876324555737
 30
0.0
 11
11.22957376494392
 21
20.01493195847681
 31
0.0
  0
LINE
  5
2BF
330
1F
100
AcDbEntity
  8
1
  6
CONTINUOUS
 62
     7
100
AcDbLine
 10
11.22957376494392
 20
20.01493195847681
 30
0.0
 11
10.80475290030282
 21
15.15920725632435
 31
0.0
  0
LINE
  5
2C0
330
1F
100
AcDbEntity
  8
1
  6
CONTINUOUS
 62
     7
100
AcDbLine
 10
10.15361894986521
 20
21.48516804152308
 30
0.0
 11
10.69776507032401
 21
20.89133675444252
 31
0.0
  0
LINE
  5
2C1
330
1F
100
AcDbEntity
  8
1
  6
CONTINUOUS
 62
     7
100
AcDbLine
 10
10.15361894986521
 20
21.48516804152308
 30
0.0
 11
10.59673870332892
 21
26.55004999999994
 31
0.0
  0
LINE
  5
2C2
330
1F
100
AcDbEntity
  8
1
  6
CONTINUOUS
 62
     7
100
AcDbLine
 10
10.69776507032401
 20
20.89133675444252
 30
0.0
 11
11.35928213981521
 21
21.49750546736196
 31
0.0
  0
LINE
  5
2C3
330
1F
100
AcDbEntity
  8
1
  6
CONTINUOUS
 62
     7
100
AcDbLine
 10
14.3704262350559
 20
21.48516804152308
 30
0.0
 11
14.91457235551471
 21
20.89133675444252
 31
0.0
  0
LINE
  5
2C4
330
1F
100
AcDbEntity
  8
1
  6
CONTINUOUS
 62
     7
100
AcDbLine
 10
14.3704262350559
 20
21.48516804152308
 30
0.0
 11
14.80064530675062
 21
26.40259453263792
 31
0.0
  0
LINE
  5
2C5
330
1F
100
AcDbEntity
  8
1
  6
CONTINUOUS
 62
     7
100
AcDbLine
 10
14.91457235551471
 20
20.89133675444252
 30
0.0
 11
15.5760894250059
 21
21.49750546736196
 31
0.0
  0
LINE
  5
2C6
330
1F
100
AcDbEntity
  8
1
  6
CONTINUOUS
 62
     7
100
AcDbLine
 10
14.2407178601847
 20
20.00259453263793
 30
0.0
 11
14.9022349296759
 21
20.60876324555737
 31
0.0
  0
LINE
  5
2C7
330
1F
100
AcDbEntity
  8
1
  6
CONTINUOUS
 62
     7
100
AcDbLine
 10
14.9022349296759
 20
20.60876324555737
 30
0.0
 11
15.4463810501347
 21
20.01493195847681
 31
0.0
  0
LINE
  5
2C8
330
1F
100
AcDbEntity
  8
1
  6
CONTINUOUS
 62
     7
100
AcDbLine
 10
14.10559981866152
 20
20.15004999999995
 30
0.0
 11
14.76711688815271
 21
20.75621871291938
 31
0.0
  0
LINE
  5
2C9
330
1F
100
AcDbEntity
  8
1
  6
CONTINUOUS
 62
     7
100
AcDbLine
 10
14.10559981866152
 20
20.15004999999995
 30
0.0
 11
11.37702923230592
 21
20.15004999999995
 31
0.0
  0
LINE
  5
2CA
330
1F
100
AcDbEntity
  8
1
  6
CONTINUOUS
 62
     7
100
AcDbLine
 10
14.76711688815271
 20
20.75621871291938
 30
0.0
 11
14.22297076769391
 21
21.35004999999994
 31
0.0
  0
LINE
  5
2CB
330
1F
100
AcDbEntity
  8
1
  6
CONTINUOUS
 62
     7
100
AcDbLine
 10
11.17779607028942
 20
27.08249097923837
 30
0.0
 11
11.78950121150982
 21
26.41493195847681
 31
0.0
  0
LINE
  5
2CC
330
1F
100
AcDbEntity
  8
1
  6
CONTINUOUS
 62
     7
100
AcDbLine
 10
11.78950121150982
 20
26.41493195847681
 30
0.0
 11
11.35928213981521
 21
21.49750546736196
 31
0.0
  0
LINE
  5
2CD
330
1F
100
AcDbEntity
  8
1
  6
CONTINUOUS
 62
     7
100
AcDbLine
 10
11.93695667887181
 20
26.55004999999994
 30
0.0
 11
11.32525153765153
 21
27.2176090207615
 31
0.0
  0
LINE
  5
2CE
330
1F
100
AcDbEntity
  8
1
  6
CONTINUOUS
 62
     7
100
AcDbLine
 10
11.32525153765153
 20
27.2176090207615
 30
0.0
 11
11.90630890461202
 21
27.75004999999995
 31
0.0
  0
LINE
  5
2CF
330
1F
100
AcDbEntity
  8
1
  6
CONTINUOUS
 62
     7
100
AcDbLine
 10
14.66552726522741
 20
26.55004999999994
 30
0.0
 11
15.40077206839962
 21
27.22377773368096
 31
0.0
  0
LINE
  5
2D0
330
1F
100
AcDbEntity
  8
1
  6
CONTINUOUS
 62
     7
100
AcDbLine
 10
14.66552726522741
 20
26.55004999999994
 30
0.0
 11
11.93695667887181
 21
26.55004999999994
 31
0.0
  0
LINE
  5
2D1
330
1F
100
AcDbEntity
  8
1
  6
CONTINUOUS
 62
     7
100
AcDbLine
 10
14.80064530675062
 20
26.40259453263792
 30
0.0
 11
15.53589010992272
 21
27.07632226631894
 31
0.0
  0
LINE
  5
2D2
330
1F
100
AcDbEntity
  8
1
  6
CONTINUOUS
 62
     7
100
AcDbLine
 10
15.53589010992272
 20
27.07632226631894
 30
0.0
 11
16.01812979357172
 21
26.55004999999994
 31
0.0
  0
LINE
  5
2D3
330
1F
100
AcDbEntity
  8
1
  6
CONTINUOUS
 62
     7
100
AcDbLine
 10
10.80475290030282
 20
15.15920725632435
 30
0.0
 11
10.06410989007711
 21
14.42377773368095
 31
0.0
  0
LINE
  5
2D4
330
1F
100
AcDbEntity
  8
1
  6
CONTINUOUS
 62
     7
100
AcDbLine
 10
10.19922793160021
 20
14.27632226631893
 30
0.0
 11
10.93447273477241
 21
14.95004999999995
 31
0.0
  0
LINE
  5
2D5
330
1F
100
AcDbEntity
  8
1
  6
CONTINUOUS
 62
     7
100
AcDbLine
 10
10.19922793160021
 20
14.27632226631893
 30
0.0
 11
10.68146761524912
 21
13.75004999999995
 31
0.0
  0
LINE
  5
2D6
330
1F
100
AcDbEntity
  8
1
  6
CONTINUOUS
 62
     7
100
AcDbLine
 10
13.69369109538781
 20
13.75004999999995
 30
0.0
 11
14.27474846234841
 21
14.28249097923838
 31
0.0
  0
LINE
  5
2D7
330
1F
100
AcDbEntity
  8
1
  6
CONTINUOUS
 62
     7
100
AcDbLine
 10
14.42220392971041
 20
14.4176090207615
 30
0.0
 11
13.81049878849001
 21
15.08516804152308
 31
0.0
  0
LINE
  5
2D8
330
1F
100
AcDbEntity
  8
1
  6
CONTINUOUS
 62
     7
100
AcDbLine
 10
13.81049878849001
 20
15.08516804152308
 30
0.0
 11
14.2407178601847
 21
20.00259453263793
 31
0.0
  0
LINE
  5
2D9
330
1F
100
AcDbEntity
  8
1
  6
CONTINUOUS
 62
     7
100
AcDbLine
 10
14.42220392971041
 20
14.4176090207615
 30
0.0
 11
15.0032612966709
 21
14.95004999999995
 31
0.0
  0
LINE
  5
2DA
330
1F
100
AcDbEntity
  8
1
  6
CONTINUOUS
 62
     7
100
AcDbLine
 10
13.66304332112802
 20
14.95004999999995
 30
0.0
 11
14.27474846234841
 21
14.28249097923838
 31
0.0
  0
LINE
  5
2DB
330
1F
100
AcDbEntity
  8
1
  6
CONTINUOUS
 62
     7
100
AcDbLine
 10
10.93447273477241
 20
14.95004999999995
 30
0.0
 11
13.66304332112802
 21
14.95004999999995
 31
0.0
  0
LINE
  5
2DC
330
1F
100
AcDbEntity
  8
1
  6
CONTINUOUS
 62
     7
100
AcDbLine
 10
12.85709761059221
 20
22.55004999999994
 30
0.0
 11
11.9845887431843
 21
26.35004999999994
 31
0.0
  0
LINE
  5
2DD
330
1F
100
AcDbEntity
  8
1
  6
CONTINUOUS
 62
     7
100
AcDbLine
 10
13.0578615781009
 20
22.55004999999994
 30
0.0
 11
14.59528428830581
 21
26.35004999999994
 31
0.0
  0
LINE
  5
2DE
330
1F
100
AcDbEntity
  8
1
  6
CONTINUOUS
 62
     7
100
AcDbLine
 10
11.9845887431843
 20
26.35004999999994
 30
0.0
 11
11.75812065507731
 21
23.76150790803006
 31
0.0
  0
LINE
  5
2DF
330
1F
100
AcDbEntity
  8
1
  6
CONTINUOUS
 62
     7
100
AcDbLine
 10
11.75812065507731
 20
23.76150790803006
 30
0.0
 11
12.26588819051301
 21
21.55004999999994
 31
0.0
  0
LINE
  5
2E0
330
1F
100
AcDbEntity
  8
1
  6
CONTINUOUS
 62
     7
100
AcDbLine
 10
12.26588819051301
 20
21.55004999999994
 30
0.0
 11
12.7696089470663
 21
21.55004999999994
 31
0.0
  0
LINE
  5
2E1
330
1F
100
AcDbEntity
  8
1
  6
CONTINUOUS
 62
     7
100
AcDbLine
 10
12.7696089470663
 20
21.55004999999994
 30
0.0
 11
12.85709761059221
 21
22.55004999999994
 31
0.0
  0
LINE
  5
2E2
330
1F
100
AcDbEntity
  8
1
  6
CONTINUOUS
 62
     7
100
AcDbLine
 10
13.0578615781009
 20
22.55004999999994
 30
0.0
 11
12.97037291457502
 21
21.55004999999994
 31
0.0
  0
LINE
  5
2E3
330
1F
100
AcDbEntity
  8
1
  6
CONTINUOUS
 62
     7
100
AcDbLine
 10
12.97037291457502
 20
21.55004999999994
 30
0.0
 11
13.5162719815404
 21
21.55004999999994
 31
0.0
  0
LINE
  5
2E4
330
1F
100
AcDbEntity
  8
1
  6
CONTINUOUS
 62
     7
100
AcDbLine
 10
13.5162719815404
 20
21.55004999999994
 30
0.0
 11
14.35717896422111
 21
23.62849369214545
 31
0.0
  0
LINE
  5
2E5
330
1F
100
AcDbEntity
  8
1
  6
CONTINUOUS
 62
     7
100
AcDbLine
 10
14.35717896422111
 20
23.62849369214545
 30
0.0
 11
14.59528428830581
 21
26.35004999999994
 31
0.0
  0
LINE
  5
2E6
330
1F
100
AcDbEntity
  8
1
  6
CONTINUOUS
 62
     7
100
AcDbLine
 10
11.00471571169402
 20
15.15004999999995
 30
0.0
 11
12.5421384218989
 21
18.95004999999995
 31
0.0
  0
LINE
  5
2E7
330
1F
100
AcDbEntity
  8
1
  6
CONTINUOUS
 62
     7
100
AcDbLine
 10
12.74290238940762
 20
18.95004999999995
 30
0.0
 11
13.61541125681541
 21
15.15004999999995
 31
0.0
  0
LINE
  5
2E8
330
1F
100
AcDbEntity
  8
1
  6
CONTINUOUS
 62
     7
100
AcDbLine
 10
12.5421384218989
 20
18.95004999999995
 30
0.0
 11
12.6296270854248
 21
19.95004999999995
 31
0.0
  0
LINE
  5
2E9
330
1F
100
AcDbEntity
  8
1
  6
CONTINUOUS
 62
     7
100
AcDbLine
 10
12.6296270854248
 20
19.95004999999995
 30
0.0
 11
12.08372801845951
 21
19.95004999999995
 31
0.0
  0
LINE
  5
2EA
330
1F
100
AcDbEntity
  8
1
  6
CONTINUOUS
 62
     7
100
AcDbLine
 10
12.08372801845951
 20
19.95004999999995
 30
0.0
 11
11.24282103577872
 21
17.87160630785438
 31
0.0
  0
LINE
  5
2EB
330
1F
100
AcDbEntity
  8
1
  6
CONTINUOUS
 62
     7
100
AcDbLine
 10
11.24282103577872
 20
17.87160630785438
 30
0.0
 11
11.00471571169402
 21
15.15004999999995
 31
0.0
  0
LINE
  5
2EC
330
1F
100
AcDbEntity
  8
1
  6
CONTINUOUS
 62
     7
100
AcDbLine
 10
12.74290238940762
 20
18.95004999999995
 30
0.0
 11
12.83039105293352
 21
19.95004999999995
 31
0.0
  0
LINE
  5
2ED
330
1F
100
AcDbEntity
  8
1
  6
CONTINUOUS
 62
     7
100
AcDbLine
 10
12.83039105293352
 20
19.95004999999995
 30
0.0
 11
13.3341118094869
 21
19.95004999999995
 31
0.0
  0
LINE
  5
2EE
330
1F
100
AcDbEntity
  8
1
  6
CONTINUOUS
 62
     7
100
AcDbLine
 10
13.3341118094869
 20
19.95004999999995
 30
0.0
 11
13.84187934492252
 21
17.73859209196993
 31
0.0
  0
LINE
  5
2EF
330
1F
100
AcDbEntity
  8
1
  6
CONTINUOUS
 62
     7
100
AcDbLine
 10
13.84187934492252
 20
17.73859209196993
 30
0.0
 11
13.61541125681541
 21
15.15004999999995
 31
0.0
  0
LINE
  5
2F0
330
1F
100
AcDbEntity
  8
1
  6
CONTINUOUS
 62
     7
100
AcDbLine
 10
20.24187934492261
 20
17.73859209196993
 30
0.0
 11
20.01541125681553
 21
15.15004999999995
 31
0.0
  0
LINE
  5
2F1
330
1F
100
AcDbEntity
  8
1
  6
CONTINUOUS
 62
     7
100
AcDbLine
 10
19.73411180948691
 20
19.95004999999995
 30
0.0
 11
20.24187934492261
 21
17.73859209196993
 31
0.0
  0
LINE
  5
2F2
330
1F
100
AcDbEntity
  8
1
  6
CONTINUOUS
 62
     7
100
AcDbLine
 10
19.23039105293361
 20
19.95004999999995
 30
0.0
 11
19.73411180948691
 21
19.95004999999995
 31
0.0
  0
LINE
  5
2F3
330
1F
100
AcDbEntity
  8
1
  6
CONTINUOUS
 62
     7
100
AcDbLine
 10
19.14290238940771
 20
18.95004999999995
 30
0.0
 11
19.23039105293361
 21
19.95004999999995
 31
0.0
  0
LINE
  5
2F4
330
1F
100
AcDbEntity
  8
1
  6
CONTINUOUS
 62
     7
100
AcDbLine
 10
17.64282103577881
 20
17.87160630785438
 30
0.0
 11
17.40471571169411
 21
15.15004999999995
 31
0.0
  0
LINE
  5
2F5
330
1F
100
AcDbEntity
  8
1
  6
CONTINUOUS
 62
     7
100
AcDbLine
 10
18.4837280184596
 20
19.95004999999995
 30
0.0
 11
17.64282103577881
 21
17.87160630785438
 31
0.0
  0
LINE
  5
2F6
330
1F
100
AcDbEntity
  8
1
  6
CONTINUOUS
 62
     7
100
AcDbLine
 10
19.02962708542492
 20
19.95004999999995
 30
0.0
 11
18.4837280184596
 21
19.95004999999995
 31
0.0
  0
LINE
  5
2F7
330
1F
100
AcDbEntity
  8
1
  6
CONTINUOUS
 62
     7
100
AcDbLine
 10
18.94213842189902
 20
18.95004999999995
 30
0.0
 11
19.02962708542492
 21
19.95004999999995
 31
0.0
  0
LINE
  5
2F8
330
1F
100
AcDbEntity
  8
1
  6
CONTINUOUS
 62
     7
100
AcDbLine
 10
19.14290238940771
 20
18.95004999999995
 30
0.0
 11
20.01541125681553
 21
15.15004999999995
 31
0.0
  0
LINE
  5
2F9
330
1F
100
AcDbEntity
  8
1
  6
CONTINUOUS
 62
     7
100
AcDbLine
 10
17.40471571169411
 20
15.15004999999995
 30
0.0
 11
18.94213842189902
 21
18.95004999999995
 31
0.0
  0
LINE
  5
2FA
330
1F
100
AcDbEntity
  8
1
  6
CONTINUOUS
 62
     7
100
AcDbLine
 10
20.75717896422123
 20
23.62849369214545
 30
0.0
 11
20.99528428830593
 21
26.35004999999994
 31
0.0
  0
LINE
  5
2FB
330
1F
100
AcDbEntity
  8
1
  6
CONTINUOUS
 62
     7
100
AcDbLine
 10
19.91627198154041
 20
21.55004999999994
 30
0.0
 11
20.75717896422123
 21
23.62849369214545
 31
0.0
  0
LINE
  5
2FC
330
1F
100
AcDbEntity
  8
1
  6
CONTINUOUS
 62
     7
100
AcDbLine
 10
19.370372914575
 20
21.55004999999994
 30
0.0
 11
19.91627198154041
 21
21.55004999999994
 31
0.0
  0
LINE
  5
2FD
330
1F
100
AcDbEntity
  8
1
  6
CONTINUOUS
 62
     7
100
AcDbLine
 10
19.45786157810102
 20
22.55004999999994
 30
0.0
 11
19.370372914575
 21
21.55004999999994
 31
0.0
  0
LINE
  5
2FE
330
1F
100
AcDbEntity
  8
1
  6
CONTINUOUS
 62
     7
100
AcDbLine
 10
19.16960894706642
 20
21.55004999999994
 30
0.0
 11
19.25709761059233
 21
22.55004999999994
 31
0.0
  0
LINE
  5
2FF
330
1F
100
AcDbEntity
  8
1
  6
CONTINUOUS
 62
     7
100
AcDbLine
 10
18.6658881905131
 20
21.55004999999994
 30
0.0
 11
19.16960894706642
 21
21.55004999999994
 31
0.0
  0
LINE
  5
300
330
1F
100
AcDbEntity
  8
1
  6
CONTINUOUS
 62
     7
100
AcDbLine
 10
18.15812065507743
 20
23.76150790803006
 30
0.0
 11
18.6658881905131
 21
21.55004999999994
 31
0.0
  0
LINE
  5
301
330
1F
100
AcDbEntity
  8
1
  6
CONTINUOUS
 62
     7
100
AcDbLine
 10
18.38458874318442
 20
26.35004999999994
 30
0.0
 11
18.15812065507743
 21
23.76150790803006
 31
0.0
  0
LINE
  5
302
330
1F
100
AcDbEntity
  8
1
  6
CONTINUOUS
 62
     7
100
AcDbLine
 10
19.45786157810102
 20
22.55004999999994
 30
0.0
 11
20.99528428830593
 21
26.35004999999994
 31
0.0
  0
LINE
  5
303
330
1F
100
AcDbEntity
  8
1
  6
CONTINUOUS
 62
     7
100
AcDbLine
 10
19.25709761059233
 20
22.55004999999994
 30
0.0
 11
18.38458874318442
 21
26.35004999999994
 31
0.0
  0
LINE
  5
304
330
1F
100
AcDbEntity
  8
1
  6
CONTINUOUS
 62
     7
100
AcDbLine
 10
17.3344727347725
 20
14.95004999999995
 30
0.0
 11
20.06304332112811
 21
14.95004999999995
 31
0.0
  0
LINE
  5
305
330
1F
100
AcDbEntity
  8
1
  6
CONTINUOUS
 62
     7
100
AcDbLine
 10
20.06304332112811
 20
14.95004999999995
 30
0.0
 11
20.6747484623485
 21
14.28249097923838
 31
0.0
  0
LINE
  5
306
330
1F
100
AcDbEntity
  8
1
  6
CONTINUOUS
 62
     7
100
AcDbLine
 10
20.82220392971053
 20
14.4176090207615
 30
0.0
 11
21.40326129667102
 21
14.95004999999995
 31
0.0
  0
LINE
  5
307
330
1F
100
AcDbEntity
  8
1
  6
CONTINUOUS
 62
     7
100
AcDbLine
 10
20.2104987884901
 20
15.08516804152308
 30
0.0
 11
20.64071786018471
 21
20.00259453263793
 31
0.0
  0
LINE
  5
308
330
1F
100
AcDbEntity
  8
1
  6
CONTINUOUS
 62
     7
100
AcDbLine
 10
20.82220392971053
 20
14.4176090207615
 30
0.0
 11
20.2104987884901
 21
15.08516804152308
 31
0.0
  0
LINE
  5
309
330
1F
100
AcDbEntity
  8
1
  6
CONTINUOUS
 62
     7
100
AcDbLine
 10
20.09369109538793
 20
13.75004999999995
 30
0.0
 11
20.6747484623485
 21
14.28249097923838
 31
0.0
  0
LINE
  5
30A
330
1F
100
AcDbEntity
  8
1
  6
CONTINUOUS
 62
     7
100
AcDbLine
 10
16.59922793160033
 20
14.27632226631893
 30
0.0
 11
17.08146761524921
 21
13.75004999999995
 31
0.0
  0
LINE
  5
30B
330
1F
100
AcDbEntity
  8
1
  6
CONTINUOUS
 62
     7
100
AcDbLine
 10
16.59922793160033
 20
14.27632226631893
 30
0.0
 11
17.3344727347725
 21
14.95004999999995
 31
0.0
  0
LINE
  5
30C
330
1F
100
AcDbEntity
  8
1
  6
CONTINUOUS
 62
     7
100
AcDbLine
 10
17.20475290030291
 20
15.15920725632435
 30
0.0
 11
16.46410989007723
 21
14.42377773368095
 31
0.0
  0
LINE
  5
30D
330
1F
100
AcDbEntity
  8
1
  6
CONTINUOUS
 62
     7
100
AcDbLine
 10
21.93589010992281
 20
26.92632226631893
 30
0.0
 11
22.41812979357181
 21
26.40004999999995
 31
0.0
  0
LINE
  5
30E
330
1F
100
AcDbEntity
  8
1
  6
CONTINUOUS
 62
     7
100
AcDbLine
 10
21.2006453067506
 20
26.25259453263791
 30
0.0
 11
21.93589010992281
 21
26.92632226631893
 31
0.0
  0
LINE
  5
30F
330
1F
100
AcDbEntity
  8
1
  6
CONTINUOUS
 62
     7
100
AcDbLine
 10
21.0655272652275
 20
26.55004999999994
 30
0.0
 11
18.3369566788719
 21
26.55004999999994
 31
0.0
  0
LINE
  5
310
330
1F
100
AcDbEntity
  8
1
  6
CONTINUOUS
 62
     7
100
AcDbLine
 10
21.0655272652275
 20
26.40004999999995
 30
0.0
 11
21.80077206839971
 21
27.07377773368097
 31
0.0
  0
LINE
  5
311
330
1F
100
AcDbEntity
  8
1
  6
CONTINUOUS
 62
     7
100
AcDbLine
 10
17.7252515376515
 20
27.2176090207615
 30
0.0
 11
18.30630890461211
 21
27.75004999999995
 31
0.0
  0
LINE
  5
312
330
1F
100
AcDbEntity
  8
1
  6
CONTINUOUS
 62
     7
100
AcDbLine
 10
18.3369566788719
 20
26.55004999999994
 30
0.0
 11
17.7252515376515
 21
27.2176090207615
 31
0.0
  0
LINE
  5
313
330
1F
100
AcDbEntity
  8
1
  6
CONTINUOUS
 62
     7
100
AcDbLine
 10
18.18950121150991
 20
26.41493195847681
 30
0.0
 11
17.7592821398153
 21
21.49750546736196
 31
0.0
  0
LINE
  5
314
330
1F
100
AcDbEntity
  8
1
  6
CONTINUOUS
 62
     7
100
AcDbLine
 10
17.57779607028951
 20
27.08249097923837
 30
0.0
 11
18.18950121150991
 21
26.41493195847681
 31
0.0
  0
LINE
  5
315
330
1F
100
AcDbEntity
  8
1
  6
CONTINUOUS
 62
     7
100
AcDbLine
 10
21.16711688815281
 20
20.75621871291938
 30
0.0
 11
20.622970767694
 21
21.35004999999994
 31
0.0
  0
LINE
  5
316
330
1F
100
AcDbEntity
  8
1
  6
CONTINUOUS
 62
     7
100
AcDbLine
 10
20.50559981866161
 20
20.15004999999995
 30
0.0
 11
17.77702923230601
 21
20.15004999999995
 31
0.0
  0
LINE
  5
317
330
1F
100
AcDbEntity
  8
1
  6
CONTINUOUS
 62
     7
100
AcDbLine
 10
20.50559981866161
 20
20.15004999999995
 30
0.0
 11
21.16711688815281
 21
20.75621871291938
 31
0.0
  0
LINE
  5
318
330
1F
100
AcDbEntity
  8
1
  6
CONTINUOUS
 62
     7
100
AcDbLine
 10
21.30223492967591
 20
20.45876324555736
 30
0.0
 11
21.84638105013482
 21
19.8649319584768
 31
0.0
  0
LINE
  5
319
330
1F
100
AcDbEntity
  8
1
  6
CONTINUOUS
 62
     7
100
AcDbLine
 10
20.64071786018471
 20
20.00259453263793
 30
0.0
 11
21.30223492967591
 21
20.60876324555737
 31
0.0
  0
LINE
  5
31A
330
1F
100
AcDbEntity
  8
1
  6
CONTINUOUS
 62
     7
100
AcDbLine
 10
21.3145723555148
 20
20.74133675444251
 30
0.0
 11
21.97608942500602
 21
21.34750546736197
 31
0.0
  0
LINE
  5
31B
330
1F
100
AcDbEntity
  8
1
  6
CONTINUOUS
 62
     7
100
AcDbLine
 10
20.77042623505602
 20
21.48516804152308
 30
0.0
 11
21.2006453067506
 21
26.40259453263792
 31
0.0
  0
LINE
  5
31C
330
1F
100
AcDbEntity
  8
1
  6
CONTINUOUS
 62
     7
100
AcDbLine
 10
20.77042623505602
 20
21.48516804152308
 30
0.0
 11
21.3145723555148
 21
20.89133675444252
 31
0.0
  0
LINE
  5
31D
330
1F
100
AcDbEntity
  8
1
  6
CONTINUOUS
 62
     7
100
AcDbLine
 10
17.0977650703241
 20
20.89133675444252
 30
0.0
 11
17.7592821398153
 21
21.49750546736196
 31
0.0
  0
LINE
  5
31E
330
1F
100
AcDbEntity
  8
1
  6
CONTINUOUS
 62
     7
100
AcDbLine
 10
16.55361894986532
 20
21.48516804152308
 30
0.0
 11
16.99673870332902
 21
26.55004999999994
 31
0.0
  0
LINE
  5
31F
330
1F
100
AcDbEntity
  8
1
  6
CONTINUOUS
 62
     7
100
AcDbLine
 10
16.55361894986532
 20
21.48516804152308
 30
0.0
 11
17.0977650703241
 21
20.89133675444252
 31
0.0
  0
LINE
  5
320
330
1F
100
AcDbEntity
  8
1
  6
CONTINUOUS
 62
     7
100
AcDbLine
 10
17.62957376494401
 20
20.01493195847681
 30
0.0
 11
17.20475290030291
 21
15.15920725632435
 31
0.0
  0
LINE
  5
321
330
1F
100
AcDbEntity
  8
1
  6
CONTINUOUS
 62
     7
100
AcDbLine
 10
17.08542764448521
 20
20.60876324555737
 30
0.0
 11
17.62957376494401
 21
20.01493195847681
 31
0.0
  0
LINE
  5
322
330
1F
100
AcDbEntity
  8
1
  6
CONTINUOUS
 62
     7
100
AcDbLine
 10
16.42391057499401
 20
20.00259453263793
 30
0.0
 11
15.9818702064282
 21
14.95004999999995
 31
0.0
  0
LINE
  5
323
330
1F
100
AcDbEntity
  8
1
  6
CONTINUOUS
 62
     7
100
AcDbLine
 10
16.42391057499401
 20
20.00259453263793
 30
0.0
 11
17.08542764448521
 21
20.60876324555737
 31
0.0
  0
LINE
  5
324
330
1F
100
AcDbEntity
  8
1
  6
CONTINUOUS
 62
     7
100
AcDbLine
 10
17.8944001813384
 20
21.35004999999994
 30
0.0
 11
20.622970767694
 21
21.35004999999994
 31
0.0
  0
LINE
  5
325
330
1F
100
AcDbEntity
  8
1
  6
CONTINUOUS
 62
     7
100
AcDbLine
 10
17.2328831118472
 20
20.74388128708051
 30
0.0
 11
17.8944001813384
 21
21.35004999999994
 31
0.0
  0
LINE
  5
326
330
1F
100
AcDbEntity
  8
1
  6
CONTINUOUS
 62
     7
100
AcDbLine
 10
17.77702923230601
 20
20.15004999999995
 30
0.0
 11
17.2328831118472
 21
20.74388128708051
 31
0.0
  0
LINE
  5
327
330
1F
100
AcDbEntity
  8
1
  6
CONTINUOUS
 62
     7
100
AcDbLine
 10
21.40326129667102
 20
14.80004999999994
 30
0.0
 11
21.84638105013482
 21
19.8649319584768
 31
0.0
  0
LINE
  5
328
330
1F
100
AcDbEntity
  8
1
  6
CONTINUOUS
 62
     7
100
AcDbLine
 10
22.41812979357181
 20
26.40004999999995
 30
0.0
 11
21.97608942500602
 21
21.34750546736197
 31
0.0
  0
LINE
  5
329
330
1F
100
AcDbEntity
  8
1
  6
CONTINUOUS
 62
     7
100
AcDbLine
 10
21.31853238475082
 20
27.60004999999994
 30
0.0
 11
21.80077206839971
 21
27.07377773368097
 31
0.0
  0
LINE
  5
32A
330
1F
100
AcDbEntity
  8
1
  6
CONTINUOUS
 62
     7
100
AcDbLine
 10
18.30630890461211
 20
27.75004999999995
 30
0.0
 11
21.31853238475082
 21
27.75004999999995
 31
0.0
  0
LINE
  5
32B
330
1F
100
AcDbEntity
  8
1
  6
CONTINUOUS
 62
     7
100
AcDbLine
 10
16.99673870332902
 20
26.55004999999994
 30
0.0
 11
17.57779607028951
 21
27.08249097923837
 31
0.0
  0
LINE
  5
32C
330
1F
100
AcDbEntity
  8
1
  6
CONTINUOUS
 62
     7
100
AcDbLine
 10
17.08146761524921
 20
13.75004999999995
 30
0.0
 11
20.09369109538793
 21
13.75004999999995
 31
0.0
  0
LINE
  5
32D
330
1F
100
AcDbEntity
  8
1
  6
CONTINUOUS
 62
     7
100
AcDbLine
 10
15.9818702064282
 20
14.95004999999995
 30
0.0
 11
16.46410989007723
 21
14.42377773368095
 31
0.0
  0
LINE
  5
32E
330
1F
100
AcDbEntity
  8
1
  6
CONTINUOUS
 62
     7
100
AcDbLine
 10
21.1872864391467
 20
3.01760902076151
 30
0.0
 11
21.65921295600032
 21
3.45004999999995
 31
0.0
  0
LINE
  5
32F
330
1F
100
AcDbEntity
  8
1
  6
CONTINUOUS
 62
     7
100
AcDbLine
 10
21.1872864391467
 20
3.01760902076151
 30
0.0
 11
20.667214415328
 21
3.58516804152308
 31
0.0
  0
LINE
  5
330
330
1F
100
AcDbEntity
  8
1
  6
CONTINUOUS
 62
     7
100
AcDbLine
 10
20.51975894796601
 20
3.45004999999995
 30
0.0
 11
18.19271629662782
 21
3.45004999999995
 31
0.0
  0
LINE
  5
331
330
1F
100
AcDbEntity
  8
1
  6
CONTINUOUS
 62
     7
100
AcDbLine
 10
20.51975894796601
 20
3.45004999999995
 30
0.0
 11
21.03983097178471
 21
2.88249097923838
 31
0.0
  0
LINE
  5
332
330
1F
100
AcDbEntity
  8
1
  6
CONTINUOUS
 62
     7
100
AcDbLine
 10
17.56660234356252
 20
2.87632226631892
 30
0.0
 11
17.95720890980971
 21
2.45004999999995
 31
0.0
  0
LINE
  5
333
330
1F
100
AcDbEntity
  8
1
  6
CONTINUOUS
 62
     7
100
AcDbLine
 10
18.19271629662782
 20
3.45004999999995
 30
0.0
 11
17.56660234356252
 21
2.87632226631892
 31
0.0
  0
LINE
  5
334
330
1F
100
AcDbEntity
  8
1
  6
CONTINUOUS
 62
     7
100
AcDbLine
 10
18.05759825510472
 20
3.59750546736197
 30
0.0
 11
18.33908659880521
 21
6.81493195847681
 31
0.0
  0
LINE
  5
335
330
1F
100
AcDbEntity
  8
1
  6
CONTINUOUS
 62
     7
100
AcDbLine
 10
18.05759825510472
 20
3.59750546736197
 30
0.0
 11
17.43148430203942
 21
3.02377773368094
 31
0.0
  0
LINE
  5
336
330
1F
100
AcDbEntity
  8
1
  6
CONTINUOUS
 62
     7
100
AcDbLine
 10
21.96851569796061
 20
11.87632226631894
 30
0.0
 11
22.35912226420771
 21
11.45004999999995
 31
0.0
  0
LINE
  5
337
330
1F
100
AcDbEntity
  8
1
  6
CONTINUOUS
 62
     7
100
AcDbLine
 10
21.34240174489531
 20
11.30259453263793
 30
0.0
 11
21.06091340119471
 21
8.08516804152309
 31
0.0
  0
LINE
  5
338
330
1F
100
AcDbEntity
  8
1
  6
CONTINUOUS
 62
     7
100
AcDbLine
 10
21.34240174489531
 20
11.30259453263793
 30
0.0
 11
21.96851569796061
 21
11.87632226631894
 31
0.0
  0
LINE
  5
339
330
1F
100
AcDbEntity
  8
1
  6
CONTINUOUS
 62
     7
100
AcDbLine
 10
21.2072837033721
 20
11.45004999999995
 30
0.0
 11
21.8333976564374
 21
12.02377773368096
 31
0.0
  0
LINE
  5
33A
330
1F
100
AcDbEntity
  8
1
  6
CONTINUOUS
 62
     7
100
AcDbLine
 10
18.36016902821532
 20
12.01760902076151
 30
0.0
 11
18.83209554506891
 21
12.45004999999995
 31
0.0
  0
LINE
  5
33B
330
1F
100
AcDbEntity
  8
1
  6
CONTINUOUS
 62
     7
100
AcDbLine
 10
18.88024105203391
 20
11.45004999999995
 30
0.0
 11
21.2072837033721
 21
11.45004999999995
 31
0.0
  0
LINE
  5
33C
330
1F
100
AcDbEntity
  8
1
  6
CONTINUOUS
 62
     7
100
AcDbLine
 10
18.88024105203391
 20
11.45004999999995
 30
0.0
 11
18.36016902821532
 21
12.01760902076151
 31
0.0
  0
LINE
  5
33D
330
1F
100
AcDbEntity
  8
1
  6
CONTINUOUS
 62
     7
100
AcDbLine
 10
18.2127135608533
 20
11.88249097923838
 30
0.0
 11
18.73278558467192
 21
11.31493195847682
 31
0.0
  0
LINE
  5
33E
330
1F
100
AcDbEntity
  8
1
  6
CONTINUOUS
 62
     7
100
AcDbLine
 10
22.06581262363611
 20
8.09750546736197
 30
0.0
 11
22.35912226420771
 21
11.45004999999995
 31
0.0
  0
LINE
  5
33F
330
1F
100
AcDbEntity
  8
1
  6
CONTINUOUS
 62
     7
100
AcDbLine
 10
21.51342640425182
 20
7.59133675444251
 30
0.0
 11
22.06581262363611
 21
8.09750546736197
 31
0.0
  0
LINE
  5
340
330
1F
100
AcDbEntity
  8
1
  6
CONTINUOUS
 62
     7
100
AcDbLine
 10
21.06091340119471
 20
8.08516804152309
 30
0.0
 11
21.51342640425182
 21
7.59133675444251
 31
0.0
  0
LINE
  5
341
330
1F
100
AcDbEntity
  8
1
  6
CONTINUOUS
 62
     7
100
AcDbLine
 10
21.50108897841292
 20
7.30876324555736
 30
0.0
 11
21.95360198147
 21
6.81493195847681
 31
0.0
  0
LINE
  5
342
330
1F
100
AcDbEntity
  8
1
  6
CONTINUOUS
 62
     7
100
AcDbLine
 10
20.94870275902861
 20
6.80259453263791
 30
0.0
 11
20.667214415328
 21
3.58516804152308
 31
0.0
  0
LINE
  5
343
330
1F
100
AcDbEntity
  8
1
  6
CONTINUOUS
 62
     7
100
AcDbLine
 10
20.94870275902861
 20
6.80259453263791
 30
0.0
 11
21.50108897841292
 21
7.30876324555736
 31
0.0
  0
LINE
  5
344
330
1F
100
AcDbEntity
  8
1
  6
CONTINUOUS
 62
     7
100
AcDbLine
 10
20.81358471750551
 20
6.95004999999995
 30
0.0
 11
18.4865420661672
 21
6.95004999999995
 31
0.0
  0
LINE
  5
345
330
1F
100
AcDbEntity
  8
1
  6
CONTINUOUS
 62
     7
100
AcDbLine
 10
21.36597093688982
 20
7.45621871291939
 30
0.0
 11
20.81358471750551
 21
6.95004999999995
 31
0.0
  0
LINE
  5
346
330
1F
100
AcDbEntity
  8
1
  6
CONTINUOUS
 62
     7
100
AcDbLine
 10
20.91345793383272
 20
7.95004999999995
 30
0.0
 11
21.36597093688982
 21
7.45621871291939
 31
0.0
  0
LINE
  5
347
330
1F
100
AcDbEntity
  8
1
  6
CONTINUOUS
 62
     7
100
AcDbLine
 10
18.5864152824945
 20
7.95004999999995
 30
0.0
 11
20.91345793383272
 21
7.95004999999995
 31
0.0
  0
LINE
  5
348
330
1F
100
AcDbEntity
  8
1
  6
CONTINUOUS
 62
     7
100
AcDbLine
 10
18.03402906311021
 20
7.44388128708049
 30
0.0
 11
18.5864152824945
 21
7.95004999999995
 31
0.0
  0
LINE
  5
349
330
1F
100
AcDbEntity
  8
1
  6
CONTINUOUS
 62
     7
100
AcDbLine
 10
18.4865420661672
 20
6.95004999999995
 30
0.0
 11
18.03402906311021
 21
7.44388128708049
 31
0.0
  0
LINE
  5
34A
330
1F
100
AcDbEntity
  8
1
  6
CONTINUOUS
 62
     7
100
AcDbLine
 10
17.88657359574822
 20
7.30876324555736
 30
0.0
 11
18.33908659880521
 21
6.81493195847681
 31
0.0
  0
LINE
  5
34B
330
1F
100
AcDbEntity
  8
1
  6
CONTINUOUS
 62
     7
100
AcDbLine
 10
17.3341873763639
 20
6.80259453263793
 30
0.0
 11
17.04087773579221
 21
3.45004999999995
 31
0.0
  0
LINE
  5
34C
330
1F
100
AcDbEntity
  8
1
  6
CONTINUOUS
 62
     7
100
AcDbLine
 10
17.3341873763639
 20
6.80259453263793
 30
0.0
 11
17.88657359574822
 21
7.30876324555736
 31
0.0
  0
LINE
  5
34D
330
1F
100
AcDbEntity
  8
1
  6
CONTINUOUS
 62
     7
100
AcDbLine
 10
18.45129724097131
 20
8.09750546736197
 30
0.0
 11
18.73278558467192
 21
11.31493195847682
 31
0.0
  0
LINE
  5
34E
330
1F
100
AcDbEntity
  8
1
  6
CONTINUOUS
 62
     7
100
AcDbLine
 10
17.89891102158703
 20
7.59133675444251
 30
0.0
 11
18.45129724097131
 21
8.09750546736197
 31
0.0
  0
LINE
  5
34F
330
1F
100
AcDbEntity
  8
1
  6
CONTINUOUS
 62
     7
100
AcDbLine
 10
17.44639801853
 20
8.08516804152309
 30
0.0
 11
17.7407870439996
 21
11.45004999999995
 31
0.0
  0
LINE
  5
350
330
1F
100
AcDbEntity
  8
1
  6
CONTINUOUS
 62
     7
100
AcDbLine
 10
17.44639801853
 20
8.08516804152309
 30
0.0
 11
17.89891102158703
 21
7.59133675444251
 31
0.0
  0
LINE
  5
351
330
1F
100
AcDbEntity
  8
1
  6
CONTINUOUS
 62
     7
100
AcDbLine
 10
21.65921295600032
 20
3.45004999999995
 30
0.0
 11
21.95360198147
 21
6.81493195847681
 31
0.0
  0
LINE
  5
352
330
1F
100
AcDbEntity
  8
1
  6
CONTINUOUS
 62
     7
100
AcDbLine
 10
20.56790445493101
 20
2.45004999999995
 30
0.0
 11
21.03983097178471
 21
2.88249097923838
 31
0.0
  0
LINE
  5
353
330
1F
100
AcDbEntity
  8
1
  6
CONTINUOUS
 62
     7
100
AcDbLine
 10
17.95720890980971
 20
2.45004999999995
 30
0.0
 11
20.56790445493101
 21
2.45004999999995
 31
0.0
  0
LINE
  5
354
330
1F
100
AcDbEntity
  8
1
  6
CONTINUOUS
 62
     7
100
AcDbLine
 10
17.04087773579221
 20
3.45004999999995
 30
0.0
 11
17.43148430203942
 21
3.02377773368094
 31
0.0
  0
LINE
  5
355
330
1F
100
AcDbEntity
  8
1
  6
CONTINUOUS
 62
     7
100
AcDbLine
 10
21.4427910901903
 20
12.45004999999995
 30
0.0
 11
21.8333976564374
 21
12.02377773368096
 31
0.0
  0
LINE
  5
356
330
1F
100
AcDbEntity
  8
1
  6
CONTINUOUS
 62
     7
100
AcDbLine
 10
18.83209554506891
 20
12.45004999999995
 30
0.0
 11
21.4427910901903
 21
12.45004999999995
 31
0.0
  0
LINE
  5
357
330
1F
100
AcDbEntity
  8
1
  6
CONTINUOUS
 62
     7
100
AcDbLine
 10
17.7407870439996
 20
11.45004999999995
 30
0.0
 11
18.2127135608533
 21
11.88249097923838
 31
0.0
  0
LINE
  5
358
330
1F
100
AcDbEntity
  8
1
  6
CONTINUOUS
 62
     7
100
AcDbLine
 10
6.20000000000002
 20
1.45004999999994
 30
0.0
 11
6.20000000000002
 21
-1.04995000000006
 31
0.0
  0
LINE
  5
359
330
1F
100
AcDbEntity
  8
1
  6
CONTINUOUS
 62
     7
100
AcDbLine
 10
7.0
 20
1.45004999999994
 30
0.0
 11
6.20000000000002
 21
1.45004999999994
 31
0.0
  0
LINE
  5
35A
330
1F
100
AcDbEntity
  8
1
  6
CONTINUOUS
 62
     7
100
AcDbLine
 10
7.0
 20
-1.04995000000006
 30
0.0
 11
7.0
 21
1.45004999999994
 31
0.0
  0
LINE
  5
35B
330
1F
100
AcDbEntity
  8
1
  6
CONTINUOUS
 62
     7
100
AcDbLine
 10
6.20000000000002
 20
-1.04995000000006
 30
0.0
 11
7.0
 21
-1.04995000000006
 31
0.0
  0
LINE
  5
35C
330
1F
100
AcDbEntity
  8
1
  6
CONTINUOUS
 62
     7
100
AcDbLine
 10
5.25
 20
-2.54995000000006
 30
0.0
 11
6.75
 21
-2.54995000000006
 31
0.0
  0
LINE
  5
35D
330
1F
100
AcDbEntity
  8
1
  6
CONTINUOUS
 62
     7
100
AcDbLine
 10
6.75
 20
-2.54995000000006
 30
0.0
 11
6.75
 21
-1.54995000000006
 31
0.0
  0
LINE
  5
35E
330
1F
100
AcDbEntity
  8
1
  6
CONTINUOUS
 62
     7
100
AcDbLine
 10
6.75
 20
-1.54995000000006
 30
0.0
 11
5.25
 21
-1.54995000000006
 31
0.0
  0
LINE
  5
35F
330
1F
100
AcDbEntity
  8
1
  6
CONTINUOUS
 62
     7
100
AcDbLine
 10
5.25
 20
-1.54995000000006
 30
0.0
 11
5.25
 21
-2.54995000000006
 31
0.0
  0
LINE
  5
360
330
1F
100
AcDbEntity
  8
1
  6
CONTINUOUS
 62
     7
100
AcDbLine
 10
19.7308510115345
 20
8.95004999999995
 30
0.0
 11
18.92787311634652
 21
11.25004999999996
 31
0.0
  0
LINE
  5
361
330
1F
100
AcDbEntity
  8
1
  6
CONTINUOUS
 62
     7
100
AcDbLine
 10
19.93161497904322
 20
8.95004999999995
 30
0.0
 11
21.13704072645052
 21
11.25004999999996
 31
0.0
  0
LINE
  5
362
330
1F
100
AcDbEntity
  8
1
  6
CONTINUOUS
 62
     7
100
AcDbLine
 10
19.7308510115345
 20
8.95004999999995
 30
0.0
 11
19.6608600807138
 21
8.15004999999995
 31
0.0
  0
LINE
  5
363
330
1F
100
AcDbEntity
  8
1
  6
CONTINUOUS
 62
     7
100
AcDbLine
 10
19.6608600807138
 20
8.15004999999995
 30
0.0
 11
19.1627949556005
 21
8.15004999999995
 31
0.0
  0
LINE
  5
364
330
1F
100
AcDbEntity
  8
1
  6
CONTINUOUS
 62
     7
100
AcDbLine
 10
19.1627949556005
 20
8.15004999999995
 30
0.0
 11
18.75807892107432
 21
9.30929346733386
 31
0.0
  0
LINE
  5
365
330
1F
100
AcDbEntity
  8
1
  6
CONTINUOUS
 62
     7
100
AcDbLine
 10
18.75807892107432
 20
9.30929346733386
 30
0.0
 11
18.92787311634652
 21
11.25004999999996
 31
0.0
  0
LINE
  5
366
330
1F
100
AcDbEntity
  8
1
  6
CONTINUOUS
 62
     7
100
AcDbLine
 10
19.93161497904322
 20
8.95004999999995
 30
0.0
 11
19.86162404822252
 21
8.15004999999995
 31
0.0
  0
LINE
  5
367
330
1F
100
AcDbEntity
  8
1
  6
CONTINUOUS
 62
     7
100
AcDbLine
 10
19.86162404822252
 20
8.15004999999995
 30
0.0
 11
20.41554987597363
 21
8.15004999999995
 31
0.0
  0
LINE
  5
368
330
1F
100
AcDbEntity
  8
1
  6
CONTINUOUS
 62
     7
100
AcDbLine
 10
20.41554987597363
 20
8.15004999999995
 30
0.0
 11
20.95605305426801
 21
9.18135144079885
 31
0.0
  0
LINE
  5
369
330
1F
100
AcDbEntity
  8
1
  6
CONTINUOUS
 62
     7
100
AcDbLine
 10
20.95605305426801
 20
9.18135144079885
 30
0.0
 11
21.13704072645052
 21
11.25004999999996
 31
0.0
  0
LINE
  5
36A
330
1F
100
AcDbEntity
  8
1
  6
CONTINUOUS
 62
     7
100
AcDbLine
 10
19.7391399192862
 20
6.75004999999996
 30
0.0
 11
20.23720504439942
 21
6.75004999999996
 31
0.0
  0
LINE
  5
36B
330
1F
100
AcDbEntity
  8
1
  6
CONTINUOUS
 62
     7
100
AcDbLine
 10
19.66914898846542
 20
5.95004999999995
 30
0.0
 11
19.7391399192862
 21
6.75004999999996
 31
0.0
  0
LINE
  5
36C
330
1F
100
AcDbEntity
  8
1
  6
CONTINUOUS
 62
     7
100
AcDbLine
 10
19.53837595177751
 20
6.75004999999996
 30
0.0
 11
18.98445012402641
 21
6.75004999999996
 31
0.0
  0
LINE
  5
36D
330
1F
100
AcDbEntity
  8
1
  6
CONTINUOUS
 62
     7
100
AcDbLine
 10
19.4683850209567
 20
5.95004999999995
 30
0.0
 11
19.53837595177751
 21
6.75004999999996
 31
0.0
  0
LINE
  5
36E
330
1F
100
AcDbEntity
  8
1
  6
CONTINUOUS
 62
     7
100
AcDbLine
 10
20.64192107892561
 20
5.59080653266602
 30
0.0
 11
20.47212688365352
 21
3.65004999999995
 31
0.0
  0
LINE
  5
36F
330
1F
100
AcDbEntity
  8
1
  6
CONTINUOUS
 62
     7
100
AcDbLine
 10
19.66914898846542
 20
5.95004999999995
 30
0.0
 11
20.47212688365352
 21
3.65004999999995
 31
0.0
  0
LINE
  5
370
330
1F
100
AcDbEntity
  8
1
  6
CONTINUOUS
 62
     7
100
AcDbLine
 10
19.4683850209567
 20
5.95004999999995
 30
0.0
 11
18.2629592735494
 21
3.65004999999995
 31
0.0
  0
LINE
  5
371
330
1F
100
AcDbEntity
  8
1
  6
CONTINUOUS
 62
     7
100
AcDbLine
 10
18.44394694573191
 20
5.71874855920105
 30
0.0
 11
18.2629592735494
 21
3.65004999999995
 31
0.0
  0
LINE
  5
372
330
1F
100
AcDbEntity
  8
1
  6
CONTINUOUS
 62
     7
100
AcDbLine
 10
20.23720504439942
 20
6.75004999999996
 30
0.0
 11
20.64192107892561
 21
5.59080653266602
 31
0.0
  0
LINE
  5
373
330
1F
100
AcDbEntity
  8
1
  6
CONTINUOUS
 62
     7
100
AcDbLine
 10
18.98445012402641
 20
6.75004999999996
 30
0.0
 11
18.44394694573191
 21
5.71874855920105
 31
0.0
  0
LINE
  5
374
330
1F
100
AcDbEntity
  8
1
  6
CONTINUOUS
 62
     7
100
AcDbLine
 10
13.5844501240264
 20
6.75004999999996
 30
0.0
 11
13.0439469457319
 21
5.71874855920105
 31
0.0
  0
LINE
  5
375
330
1F
100
AcDbEntity
  8
1
  6
CONTINUOUS
 62
     7
100
AcDbLine
 10
14.83720504439941
 20
6.75004999999996
 30
0.0
 11
15.2419210789256
 21
5.59080653266602
 31
0.0
  0
LINE
  5
376
330
1F
100
AcDbEntity
  8
1
  6
CONTINUOUS
 62
     7
100
AcDbLine
 10
13.0439469457319
 20
5.71874855920105
 30
0.0
 11
12.86295927354942
 21
3.65004999999995
 31
0.0
  0
LINE
  5
377
330
1F
100
AcDbEntity
  8
1
  6
CONTINUOUS
 62
     7
100
AcDbLine
 10
14.06838502095673
 20
5.95004999999995
 30
0.0
 11
12.86295927354942
 21
3.65004999999995
 31
0.0
  0
LINE
  5
378
330
1F
100
AcDbEntity
  8
1
  6
CONTINUOUS
 62
     7
100
AcDbLine
 10
14.26914898846542
 20
5.95004999999995
 30
0.0
 11
15.07212688365351
 21
3.65004999999995
 31
0.0
  0
LINE
  5
379
330
1F
100
AcDbEntity
  8
1
  6
CONTINUOUS
 62
     7
100
AcDbLine
 10
15.2419210789256
 20
5.59080653266602
 30
0.0
 11
15.07212688365351
 21
3.65004999999995
 31
0.0
  0
LINE
  5
37A
330
1F
100
AcDbEntity
  8
1
  6
CONTINUOUS
 62
     7
100
AcDbLine
 10
14.06838502095673
 20
5.95004999999995
 30
0.0
 11
14.13837595177751
 21
6.75004999999996
 31
0.0
  0
LINE
  5
37B
330
1F
100
AcDbEntity
  8
1
  6
CONTINUOUS
 62
     7
100
AcDbLine
 10
14.13837595177751
 20
6.75004999999996
 30
0.0
 11
13.5844501240264
 21
6.75004999999996
 31
0.0
  0
LINE
  5
37C
330
1F
100
AcDbEntity
  8
1
  6
CONTINUOUS
 62
     7
100
AcDbLine
 10
14.26914898846542
 20
5.95004999999995
 30
0.0
 11
14.33913991928623
 21
6.75004999999996
 31
0.0
  0
LINE
  5
37D
330
1F
100
AcDbEntity
  8
1
  6
CONTINUOUS
 62
     7
100
AcDbLine
 10
14.33913991928623
 20
6.75004999999996
 30
0.0
 11
14.83720504439941
 21
6.75004999999996
 31
0.0
  0
LINE
  5
37E
330
1F
100
AcDbEntity
  8
1
  6
CONTINUOUS
 62
     7
100
AcDbLine
 10
15.55605305426801
 20
9.18135144079885
 30
0.0
 11
15.73704072645052
 21
11.25004999999996
 31
0.0
  0
LINE
  5
37F
330
1F
100
AcDbEntity
  8
1
  6
CONTINUOUS
 62
     7
100
AcDbLine
 10
15.01554987597351
 20
8.15004999999995
 30
0.0
 11
15.55605305426801
 21
9.18135144079885
 31
0.0
  0
LINE
  5
380
330
1F
100
AcDbEntity
  8
1
  6
CONTINUOUS
 62
     7
100
AcDbLine
 10
14.4616240482224
 20
8.15004999999995
 30
0.0
 11
15.01554987597351
 21
8.15004999999995
 31
0.0
  0
LINE
  5
381
330
1F
100
AcDbEntity
  8
1
  6
CONTINUOUS
 62
     7
100
AcDbLine
 10
14.53161497904321
 20
8.95004999999995
 30
0.0
 11
14.4616240482224
 21
8.15004999999995
 31
0.0
  0
LINE
  5
382
330
1F
100
AcDbEntity
  8
1
  6
CONTINUOUS
 62
     7
100
AcDbLine
 10
13.35807892107431
 20
9.30929346733386
 30
0.0
 11
13.52787311634651
 21
11.25004999999996
 31
0.0
  0
LINE
  5
383
330
1F
100
AcDbEntity
  8
1
  6
CONTINUOUS
 62
     7
100
AcDbLine
 10
13.7627949556005
 20
8.15004999999995
 30
0.0
 11
13.35807892107431
 21
9.30929346733386
 31
0.0
  0
LINE
  5
384
330
1F
100
AcDbEntity
  8
1
  6
CONTINUOUS
 62
     7
100
AcDbLine
 10
14.2608600807138
 20
8.15004999999995
 30
0.0
 11
13.7627949556005
 21
8.15004999999995
 31
0.0
  0
LINE
  5
385
330
1F
100
AcDbEntity
  8
1
  6
CONTINUOUS
 62
     7
100
AcDbLine
 10
14.33085101153452
 20
8.95004999999995
 30
0.0
 11
14.2608600807138
 21
8.15004999999995
 31
0.0
  0
LINE
  5
386
330
1F
100
AcDbEntity
  8
1
  6
CONTINUOUS
 62
     7
100
AcDbLine
 10
14.53161497904321
 20
8.95004999999995
 30
0.0
 11
15.73704072645052
 21
11.25004999999996
 31
0.0
  0
LINE
  5
387
330
1F
100
AcDbEntity
  8
1
  6
CONTINUOUS
 62
     7
100
AcDbLine
 10
14.33085101153452
 20
8.95004999999995
 30
0.0
 11
13.52787311634651
 21
11.25004999999996
 31
0.0
  0
LINE
  5
388
330
1F
100
AcDbEntity
  8
1
  6
CONTINUOUS
 62
     7
100
AcDbLine
 10
12.3407870439996
 20
11.45004999999995
 30
0.0
 11
12.81271356085333
 21
11.88249097923838
 31
0.0
  0
LINE
  5
389
330
1F
100
AcDbEntity
  8
1
  6
CONTINUOUS
 62
     7
100
AcDbLine
 10
13.4320955450689
 20
12.45004999999995
 30
0.0
 11
16.04279109019032
 21
12.45004999999995
 31
0.0
  0
LINE
  5
38A
330
1F
100
AcDbEntity
  8
1
  6
CONTINUOUS
 62
     7
100
AcDbLine
 10
16.04279109019032
 20
12.45004999999995
 30
0.0
 11
16.43339765643742
 21
12.02377773368096
 31
0.0
  0
LINE
  5
38B
330
1F
100
AcDbEntity
  8
1
  6
CONTINUOUS
 62
     7
100
AcDbLine
 10
11.6408777357922
 20
3.45004999999995
 30
0.0
 11
12.03148430203942
 21
3.02377773368094
 31
0.0
  0
LINE
  5
38C
330
1F
100
AcDbEntity
  8
1
  6
CONTINUOUS
 62
     7
100
AcDbLine
 10
12.5572089098097
 20
2.45004999999995
 30
0.0
 11
15.16790445493101
 21
2.45004999999995
 31
0.0
  0
LINE
  5
38D
330
1F
100
AcDbEntity
  8
1
  6
CONTINUOUS
 62
     7
100
AcDbLine
 10
15.16790445493101
 20
2.45004999999995
 30
0.0
 11
15.6398309717847
 21
2.88249097923838
 31
0.0
  0
LINE
  5
38E
330
1F
100
AcDbEntity
  8
1
  6
CONTINUOUS
 62
     7
100
AcDbLine
 10
16.25921295600031
 20
3.45004999999995
 30
0.0
 11
16.55360198147002
 21
6.81493195847681
 31
0.0
  0
LINE
  5
38F
330
1F
100
AcDbEntity
  8
1
  6
CONTINUOUS
 62
     7
100
AcDbLine
 10
12.04639801853
 20
8.08516804152309
 30
0.0
 11
12.49891102158702
 21
7.59133675444251
 31
0.0
  0
LINE
  5
390
330
1F
100
AcDbEntity
  8
1
  6
CONTINUOUS
 62
     7
100
AcDbLine
 10
12.04639801853
 20
8.08516804152309
 30
0.0
 11
12.3407870439996
 21
11.45004999999995
 31
0.0
  0
LINE
  5
391
330
1F
100
AcDbEntity
  8
1
  6
CONTINUOUS
 62
     7
100
AcDbLine
 10
12.49891102158702
 20
7.59133675444251
 30
0.0
 11
13.05129724097131
 21
8.09750546736197
 31
0.0
  0
LINE
  5
392
330
1F
100
AcDbEntity
  8
1
  6
CONTINUOUS
 62
     7
100
AcDbLine
 10
13.05129724097131
 20
8.09750546736197
 30
0.0
 11
13.33278558467191
 21
11.31493195847682
 31
0.0
  0
LINE
  5
393
330
1F
100
AcDbEntity
  8
1
  6
CONTINUOUS
 62
     7
100
AcDbLine
 10
11.93418737636392
 20
6.80259453263793
 30
0.0
 11
12.48657359574821
 21
7.30876324555736
 31
0.0
  0
LINE
  5
394
330
1F
100
AcDbEntity
  8
1
  6
CONTINUOUS
 62
     7
100
AcDbLine
 10
11.93418737636392
 20
6.80259453263793
 30
0.0
 11
11.6408777357922
 21
3.45004999999995
 31
0.0
  0
LINE
  5
395
330
1F
100
AcDbEntity
  8
1
  6
CONTINUOUS
 62
     7
100
AcDbLine
 10
12.48657359574821
 20
7.30876324555736
 30
0.0
 11
12.9390865988052
 21
6.81493195847681
 31
0.0
  0
LINE
  5
396
330
1F
100
AcDbEntity
  8
1
  6
CONTINUOUS
 62
     7
100
AcDbLine
 10
13.0865420661672
 20
6.95004999999995
 30
0.0
 11
12.63402906311021
 21
7.44388128708049
 31
0.0
  0
LINE
  5
397
330
1F
100
AcDbEntity
  8
1
  6
CONTINUOUS
 62
     7
100
AcDbLine
 10
12.63402906311021
 20
7.44388128708049
 30
0.0
 11
13.18641528249452
 21
7.95004999999995
 31
0.0
  0
LINE
  5
398
330
1F
100
AcDbEntity
  8
1
  6
CONTINUOUS
 62
     7
100
AcDbLine
 10
13.18641528249452
 20
7.95004999999995
 30
0.0
 11
15.51345793383271
 21
7.95004999999995
 31
0.0
  0
LINE
  5
399
330
1F
100
AcDbEntity
  8
1
  6
CONTINUOUS
 62
     7
100
AcDbLine
 10
15.51345793383271
 20
7.95004999999995
 30
0.0
 11
15.9659709368897
 21
7.45621871291939
 31
0.0
  0
LINE
  5
39A
330
1F
100
AcDbEntity
  8
1
  6
CONTINUOUS
 62
     7
100
AcDbLine
 10
15.9659709368897
 20
7.45621871291939
 30
0.0
 11
15.4135847175055
 21
6.95004999999995
 31
0.0
  0
LINE
  5
39B
330
1F
100
AcDbEntity
  8
1
  6
CONTINUOUS
 62
     7
100
AcDbLine
 10
15.4135847175055
 20
6.95004999999995
 30
0.0
 11
13.0865420661672
 21
6.95004999999995
 31
0.0
  0
LINE
  5
39C
330
1F
100
AcDbEntity
  8
1
  6
CONTINUOUS
 62
     7
100
AcDbLine
 10
15.5487027590286
 20
6.80259453263791
 30
0.0
 11
16.10108897841292
 21
7.30876324555736
 31
0.0
  0
LINE
  5
39D
330
1F
100
AcDbEntity
  8
1
  6
CONTINUOUS
 62
     7
100
AcDbLine
 10
15.5487027590286
 20
6.80259453263791
 30
0.0
 11
15.267214415328
 21
3.58516804152308
 31
0.0
  0
LINE
  5
39E
330
1F
100
AcDbEntity
  8
1
  6
CONTINUOUS
 62
     7
100
AcDbLine
 10
16.10108897841292
 20
7.30876324555736
 30
0.0
 11
16.55360198147002
 21
6.81493195847681
 31
0.0
  0
LINE
  5
39F
330
1F
100
AcDbEntity
  8
1
  6
CONTINUOUS
 62
     7
100
AcDbLine
 10
15.66091340119471
 20
8.08516804152309
 30
0.0
 11
16.11342640425181
 21
7.59133675444251
 31
0.0
  0
LINE
  5
3A0
330
1F
100
AcDbEntity
  8
1
  6
CONTINUOUS
 62
     7
100
AcDbLine
 10
16.11342640425181
 20
7.59133675444251
 30
0.0
 11
16.6658126236361
 21
8.09750546736197
 31
0.0
  0
LINE
  5
3A1
330
1F
100
AcDbEntity
  8
1
  6
CONTINUOUS
 62
     7
100
AcDbLine
 10
16.6658126236361
 20
8.09750546736197
 30
0.0
 11
16.95912226420771
 21
11.45004999999995
 31
0.0
  0
LINE
  5
3A2
330
1F
100
AcDbEntity
  8
1
  6
CONTINUOUS
 62
     7
100
AcDbLine
 10
12.81271356085333
 20
11.88249097923838
 30
0.0
 11
13.33278558467191
 21
11.31493195847682
 31
0.0
  0
LINE
  5
3A3
330
1F
100
AcDbEntity
  8
1
  6
CONTINUOUS
 62
     7
100
AcDbLine
 10
13.4802410520339
 20
11.45004999999995
 30
0.0
 11
12.96016902821532
 21
12.01760902076151
 31
0.0
  0
LINE
  5
3A4
330
1F
100
AcDbEntity
  8
1
  6
CONTINUOUS
 62
     7
100
AcDbLine
 10
13.4802410520339
 20
11.45004999999995
 30
0.0
 11
15.80728370337212
 21
11.45004999999995
 31
0.0
  0
LINE
  5
3A5
330
1F
100
AcDbEntity
  8
1
  6
CONTINUOUS
 62
     7
100
AcDbLine
 10
12.96016902821532
 20
12.01760902076151
 30
0.0
 11
13.4320955450689
 21
12.45004999999995
 31
0.0
  0
LINE
  5
3A6
330
1F
100
AcDbEntity
  8
1
  6
CONTINUOUS
 62
     7
100
AcDbLine
 10
15.80728370337212
 20
11.45004999999995
 30
0.0
 11
16.43339765643742
 21
12.02377773368096
 31
0.0
  0
LINE
  5
3A7
330
1F
100
AcDbEntity
  8
1
  6
CONTINUOUS
 62
     7
100
AcDbLine
 10
15.94240174489531
 20
11.30259453263793
 30
0.0
 11
16.56851569796061
 21
11.87632226631894
 31
0.0
  0
LINE
  5
3A8
330
1F
100
AcDbEntity
  8
1
  6
CONTINUOUS
 62
     7
100
AcDbLine
 10
15.94240174489531
 20
11.30259453263793
 30
0.0
 11
15.66091340119471
 21
8.08516804152309
 31
0.0
  0
LINE
  5
3A9
330
1F
100
AcDbEntity
  8
1
  6
CONTINUOUS
 62
     7
100
AcDbLine
 10
16.56851569796061
 20
11.87632226631894
 30
0.0
 11
16.95912226420771
 21
11.45004999999995
 31
0.0
  0
LINE
  5
3AA
330
1F
100
AcDbEntity
  8
1
  6
CONTINUOUS
 62
     7
100
AcDbLine
 10
12.65759825510472
 20
3.59750546736197
 30
0.0
 11
12.03148430203942
 21
3.02377773368094
 31
0.0
  0
LINE
  5
3AB
330
1F
100
AcDbEntity
  8
1
  6
CONTINUOUS
 62
     7
100
AcDbLine
 10
12.65759825510472
 20
3.59750546736197
 30
0.0
 11
12.9390865988052
 21
6.81493195847681
 31
0.0
  0
LINE
  5
3AC
330
1F
100
AcDbEntity
  8
1
  6
CONTINUOUS
 62
     7
100
AcDbLine
 10
12.79271629662782
 20
3.45004999999995
 30
0.0
 11
12.16660234356252
 21
2.87632226631892
 31
0.0
  0
LINE
  5
3AD
330
1F
100
AcDbEntity
  8
1
  6
CONTINUOUS
 62
     7
100
AcDbLine
 10
12.16660234356252
 20
2.87632226631892
 30
0.0
 11
12.5572089098097
 21
2.45004999999995
 31
0.0
  0
LINE
  5
3AE
330
1F
100
AcDbEntity
  8
1
  6
CONTINUOUS
 62
     7
100
AcDbLine
 10
15.11975894796601
 20
3.45004999999995
 30
0.0
 11
15.6398309717847
 21
2.88249097923838
 31
0.0
  0
LINE
  5
3AF
330
1F
100
AcDbEntity
  8
1
  6
CONTINUOUS
 62
     7
100
AcDbLine
 10
15.11975894796601
 20
3.45004999999995
 30
0.0
 11
12.79271629662782
 21
3.45004999999995
 31
0.0
  0
LINE
  5
3B0
330
1F
100
AcDbEntity
  8
1
  6
CONTINUOUS
 62
     7
100
AcDbLine
 10
15.7872864391467
 20
3.01760902076151
 30
0.0
 11
15.267214415328
 21
3.58516804152308
 31
0.0
  0
LINE
  5
3B1
330
1F
100
AcDbEntity
  8
1
  6
CONTINUOUS
 62
     7
100
AcDbLine
 10
15.7872864391467
 20
3.01760902076151
 30
0.0
 11
16.25921295600031
 21
3.45004999999995
 31
0.0
  0
LINE
  5
3B2
330
1F
100
AcDbEntity
  8
1
  6
CONTINUOUS
 62
     7
100
AcDbLine
 10
8.1844501240264
 20
6.75004999999996
 30
0.0
 11
7.6439469457319
 21
5.71874855920105
 31
0.0
  0
LINE
  5
3B3
330
1F
100
AcDbEntity
  8
1
  6
CONTINUOUS
 62
     7
100
AcDbLine
 10
9.43720504439941
 20
6.75004999999996
 30
0.0
 11
9.84192107892562
 21
5.59080653266602
 31
0.0
  0
LINE
  5
3B4
330
1F
100
AcDbEntity
  8
1
  6
CONTINUOUS
 62
     7
100
AcDbLine
 10
7.6439469457319
 20
5.71874855920105
 30
0.0
 11
7.46295927354942
 21
3.65004999999995
 31
0.0
  0
LINE
  5
3B5
330
1F
100
AcDbEntity
  8
1
  6
CONTINUOUS
 62
     7
100
AcDbLine
 10
8.66838502095672
 20
5.95004999999995
 30
0.0
 11
7.46295927354942
 21
3.65004999999995
 31
0.0
  0
LINE
  5
3B6
330
1F
100
AcDbEntity
  8
1
  6
CONTINUOUS
 62
     7
100
AcDbLine
 10
8.86914898846541
 20
5.95004999999995
 30
0.0
 11
9.6721268836535
 21
3.65004999999995
 31
0.0
  0
LINE
  5
3B7
330
1F
100
AcDbEntity
  8
1
  6
CONTINUOUS
 62
     7
100
AcDbLine
 10
9.84192107892562
 20
5.59080653266602
 30
0.0
 11
9.6721268836535
 21
3.65004999999995
 31
0.0
  0
LINE
  5
3B8
330
1F
100
AcDbEntity
  8
1
  6
CONTINUOUS
 62
     7
100
AcDbLine
 10
8.66838502095672
 20
5.95004999999995
 30
0.0
 11
8.7383759517775
 21
6.75004999999996
 31
0.0
  0
LINE
  5
3B9
330
1F
100
AcDbEntity
  8
1
  6
CONTINUOUS
 62
     7
100
AcDbLine
 10
8.7383759517775
 20
6.75004999999996
 30
0.0
 11
8.1844501240264
 21
6.75004999999996
 31
0.0
  0
LINE
  5
3BA
330
1F
100
AcDbEntity
  8
1
  6
CONTINUOUS
 62
     7
100
AcDbLine
 10
8.86914898846541
 20
5.95004999999995
 30
0.0
 11
8.93913991928611
 21
6.75004999999996
 31
0.0
  0
LINE
  5
3BB
330
1F
100
AcDbEntity
  8
1
  6
CONTINUOUS
 62
     7
100
AcDbLine
 10
8.93913991928611
 20
6.75004999999996
 30
0.0
 11
9.43720504439941
 21
6.75004999999996
 31
0.0
  0
LINE
  5
3BC
330
1F
100
AcDbEntity
  8
1
  6
CONTINUOUS
 62
     7
100
AcDbLine
 10
10.156053054268
 20
9.18135144079885
 30
0.0
 11
10.33704072645051
 21
11.25004999999996
 31
0.0
  0
LINE
  5
3BD
330
1F
100
AcDbEntity
  8
1
  6
CONTINUOUS
 62
     7
100
AcDbLine
 10
9.6155498759735
 20
8.15004999999995
 30
0.0
 11
10.156053054268
 21
9.18135144079885
 31
0.0
  0
LINE
  5
3BE
330
1F
100
AcDbEntity
  8
1
  6
CONTINUOUS
 62
     7
100
AcDbLine
 10
9.0616240482224
 20
8.15004999999995
 30
0.0
 11
9.6155498759735
 21
8.15004999999995
 31
0.0
  0
LINE
  5
3BF
330
1F
100
AcDbEntity
  8
1
  6
CONTINUOUS
 62
     7
100
AcDbLine
 10
9.13161497904321
 20
8.95004999999995
 30
0.0
 11
9.0616240482224
 21
8.15004999999995
 31
0.0
  0
LINE
  5
3C0
330
1F
100
AcDbEntity
  8
1
  6
CONTINUOUS
 62
     7
100
AcDbLine
 10
7.9580789210743
 20
9.30929346733386
 30
0.0
 11
8.12787311634651
 21
11.25004999999996
 31
0.0
  0
LINE
  5
3C1
330
1F
100
AcDbEntity
  8
1
  6
CONTINUOUS
 62
     7
100
AcDbLine
 10
8.36279495560052
 20
8.15004999999995
 30
0.0
 11
7.9580789210743
 21
9.30929346733386
 31
0.0
  0
LINE
  5
3C2
330
1F
100
AcDbEntity
  8
1
  6
CONTINUOUS
 62
     7
100
AcDbLine
 10
8.86086008071382
 20
8.15004999999995
 30
0.0
 11
8.36279495560052
 21
8.15004999999995
 31
0.0
  0
LINE
  5
3C3
330
1F
100
AcDbEntity
  8
1
  6
CONTINUOUS
 62
     7
100
AcDbLine
 10
8.93085101153451
 20
8.95004999999995
 30
0.0
 11
8.86086008071382
 21
8.15004999999995
 31
0.0
  0
LINE
  5
3C4
330
1F
100
AcDbEntity
  8
1
  6
CONTINUOUS
 62
     7
100
AcDbLine
 10
9.13161497904321
 20
8.95004999999995
 30
0.0
 11
10.33704072645051
 21
11.25004999999996
 31
0.0
  0
LINE
  5
3C5
330
1F
100
AcDbEntity
  8
1
  6
CONTINUOUS
 62
     7
100
AcDbLine
 10
8.93085101153451
 20
8.95004999999995
 30
0.0
 11
8.12787311634651
 21
11.25004999999996
 31
0.0
  0
LINE
  5
3C6
330
1F
100
AcDbEntity
  8
1
  6
CONTINUOUS
 62
     7
100
AcDbLine
 10
6.94078704399962
 20
11.45004999999995
 30
0.0
 11
7.41271356085321
 21
11.88249097923838
 31
0.0
  0
LINE
  5
3C7
330
1F
100
AcDbEntity
  8
1
  6
CONTINUOUS
 62
     7
100
AcDbLine
 10
8.0320955450689
 20
12.45004999999995
 30
0.0
 11
10.64279109019032
 21
12.45004999999995
 31
0.0
  0
LINE
  5
3C8
330
1F
100
AcDbEntity
  8
1
  6
CONTINUOUS
 62
     7
100
AcDbLine
 10
10.64279109019032
 20
12.45004999999995
 30
0.0
 11
11.03339765643742
 21
12.02377773368096
 31
0.0
  0
LINE
  5
3C9
330
1F
100
AcDbEntity
  8
1
  6
CONTINUOUS
 62
     7
100
AcDbLine
 10
6.24087773579222
 20
3.45004999999995
 30
0.0
 11
6.63148430203941
 21
3.02377773368094
 31
0.0
  0
LINE
  5
3CA
330
1F
100
AcDbEntity
  8
1
  6
CONTINUOUS
 62
     7
100
AcDbLine
 10
7.15720890980973
 20
2.45004999999995
 30
0.0
 11
9.767904454931
 21
2.45004999999995
 31
0.0
  0
LINE
  5
3CB
330
1F
100
AcDbEntity
  8
1
  6
CONTINUOUS
 62
     7
100
AcDbLine
 10
9.767904454931
 20
2.45004999999995
 30
0.0
 11
10.2398309717847
 21
2.88249097923838
 31
0.0
  0
LINE
  5
3CC
330
1F
100
AcDbEntity
  8
1
  6
CONTINUOUS
 62
     7
100
AcDbLine
 10
10.85921295600031
 20
3.45004999999995
 30
0.0
 11
11.15360198146991
 21
6.81493195847681
 31
0.0
  0
LINE
  5
3CD
330
1F
100
AcDbEntity
  8
1
  6
CONTINUOUS
 62
     7
100
AcDbLine
 10
6.64639801853002
 20
8.08516804152309
 30
0.0
 11
7.09891102158701
 21
7.59133675444251
 31
0.0
  0
LINE
  5
3CE
330
1F
100
AcDbEntity
  8
1
  6
CONTINUOUS
 62
     7
100
AcDbLine
 10
6.64639801853002
 20
8.08516804152309
 30
0.0
 11
6.94078704399962
 21
11.45004999999995
 31
0.0
  0
LINE
  5
3CF
330
1F
100
AcDbEntity
  8
1
  6
CONTINUOUS
 62
     7
100
AcDbLine
 10
7.09891102158701
 20
7.59133675444251
 30
0.0
 11
7.6512972409713
 21
8.09750546736197
 31
0.0
  0
LINE
  5
3D0
330
1F
100
AcDbEntity
  8
1
  6
CONTINUOUS
 62
     7
100
AcDbLine
 10
7.6512972409713
 20
8.09750546736197
 30
0.0
 11
7.9327855846719
 21
11.31493195847682
 31
0.0
  0
LINE
  5
3D1
330
1F
100
AcDbEntity
  8
1
  6
CONTINUOUS
 62
     7
100
AcDbLine
 10
6.53418737636392
 20
6.80259453263793
 30
0.0
 11
7.08657359574821
 21
7.30876324555736
 31
0.0
  0
LINE
  5
3D2
330
1F
100
AcDbEntity
  8
1
  6
CONTINUOUS
 62
     7
100
AcDbLine
 10
6.53418737636392
 20
6.80259453263793
 30
0.0
 11
6.24087773579222
 21
3.45004999999995
 31
0.0
  0
LINE
  5
3D3
330
1F
100
AcDbEntity
  8
1
  6
CONTINUOUS
 62
     7
100
AcDbLine
 10
7.08657359574821
 20
7.30876324555736
 30
0.0
 11
7.5390865988052
 21
6.81493195847681
 31
0.0
  0
LINE
  5
3D4
330
1F
100
AcDbEntity
  8
1
  6
CONTINUOUS
 62
     7
100
AcDbLine
 10
7.68654206616722
 20
6.95004999999995
 30
0.0
 11
7.2340290631102
 21
7.44388128708049
 31
0.0
  0
LINE
  5
3D5
330
1F
100
AcDbEntity
  8
1
  6
CONTINUOUS
 62
     7
100
AcDbLine
 10
7.2340290631102
 20
7.44388128708049
 30
0.0
 11
7.78641528249452
 21
7.95004999999995
 31
0.0
  0
LINE
  5
3D6
330
1F
100
AcDbEntity
  8
1
  6
CONTINUOUS
 62
     7
100
AcDbLine
 10
7.78641528249452
 20
7.95004999999995
 30
0.0
 11
10.11345793383271
 21
7.95004999999995
 31
0.0
  0
LINE
  5
3D7
330
1F
100
AcDbEntity
  8
1
  6
CONTINUOUS
 62
     7
100
AcDbLine
 10
10.11345793383271
 20
7.95004999999995
 30
0.0
 11
10.5659709368897
 21
7.45621871291939
 31
0.0
  0
LINE
  5
3D8
330
1F
100
AcDbEntity
  8
1
  6
CONTINUOUS
 62
     7
100
AcDbLine
 10
10.5659709368897
 20
7.45621871291939
 30
0.0
 11
10.01358471750552
 21
6.95004999999995
 31
0.0
  0
LINE
  5
3D9
330
1F
100
AcDbEntity
  8
1
  6
CONTINUOUS
 62
     7
100
AcDbLine
 10
10.01358471750552
 20
6.95004999999995
 30
0.0
 11
7.68654206616722
 21
6.95004999999995
 31
0.0
  0
LINE
  5
3DA
330
1F
100
AcDbEntity
  8
1
  6
CONTINUOUS
 62
     7
100
AcDbLine
 10
10.14870275902862
 20
6.80259453263791
 30
0.0
 11
10.70108897841291
 21
7.30876324555736
 31
0.0
  0
LINE
  5
3DB
330
1F
100
AcDbEntity
  8
1
  6
CONTINUOUS
 62
     7
100
AcDbLine
 10
10.14870275902862
 20
6.80259453263791
 30
0.0
 11
9.86721441532802
 21
3.58516804152308
 31
0.0
  0
LINE
  5
3DC
330
1F
100
AcDbEntity
  8
1
  6
CONTINUOUS
 62
     7
100
AcDbLine
 10
10.70108897841291
 20
7.30876324555736
 30
0.0
 11
11.15360198146991
 21
6.81493195847681
 31
0.0
  0
LINE
  5
3DD
330
1F
100
AcDbEntity
  8
1
  6
CONTINUOUS
 62
     7
100
AcDbLine
 10
10.2609134011947
 20
8.08516804152309
 30
0.0
 11
10.71342640425181
 21
7.59133675444251
 31
0.0
  0
LINE
  5
3DE
330
1F
100
AcDbEntity
  8
1
  6
CONTINUOUS
 62
     7
100
AcDbLine
 10
10.71342640425181
 20
7.59133675444251
 30
0.0
 11
11.26581262363601
 21
8.09750546736197
 31
0.0
  0
LINE
  5
3DF
330
1F
100
AcDbEntity
  8
1
  6
CONTINUOUS
 62
     7
100
AcDbLine
 10
11.26581262363601
 20
8.09750546736197
 30
0.0
 11
11.5591222642077
 21
11.45004999999995
 31
0.0
  0
LINE
  5
3E0
330
1F
100
AcDbEntity
  8
1
  6
CONTINUOUS
 62
     7
100
AcDbLine
 10
7.41271356085321
 20
11.88249097923838
 30
0.0
 11
7.9327855846719
 21
11.31493195847682
 31
0.0
  0
LINE
  5
3E1
330
1F
100
AcDbEntity
  8
1
  6
CONTINUOUS
 62
     7
100
AcDbLine
 10
8.0802410520339
 20
11.45004999999995
 30
0.0
 11
7.56016902821531
 21
12.01760902076151
 31
0.0
  0
LINE
  5
3E2
330
1F
100
AcDbEntity
  8
1
  6
CONTINUOUS
 62
     7
100
AcDbLine
 10
8.0802410520339
 20
11.45004999999995
 30
0.0
 11
10.40728370337212
 21
11.45004999999995
 31
0.0
  0
LINE
  5
3E3
330
1F
100
AcDbEntity
  8
1
  6
CONTINUOUS
 62
     7
100
AcDbLine
 10
7.56016902821531
 20
12.01760902076151
 30
0.0
 11
8.0320955450689
 21
12.45004999999995
 31
0.0
  0
LINE
  5
3E4
330
1F
100
AcDbEntity
  8
1
  6
CONTINUOUS
 62
     7
100
AcDbLine
 10
10.40728370337212
 20
11.45004999999995
 30
0.0
 11
11.03339765643742
 21
12.02377773368096
 31
0.0
  0
LINE
  5
3E5
330
1F
100
AcDbEntity
  8
1
  6
CONTINUOUS
 62
     7
100
AcDbLine
 10
10.5424017448953
 20
11.30259453263793
 30
0.0
 11
11.1685156979606
 21
11.87632226631894
 31
0.0
  0
LINE
  5
3E6
330
1F
100
AcDbEntity
  8
1
  6
CONTINUOUS
 62
     7
100
AcDbLine
 10
10.5424017448953
 20
11.30259453263793
 30
0.0
 11
10.2609134011947
 21
8.08516804152309
 31
0.0
  0
LINE
  5
3E7
330
1F
100
AcDbEntity
  8
1
  6
CONTINUOUS
 62
     7
100
AcDbLine
 10
11.1685156979606
 20
11.87632226631894
 30
0.0
 11
11.5591222642077
 21
11.45004999999995
 31
0.0
  0
LINE
  5
3E8
330
1F
100
AcDbEntity
  8
1
  6
CONTINUOUS
 62
     7
100
AcDbLine
 10
7.25759825510471
 20
3.59750546736197
 30
0.0
 11
6.63148430203941
 21
3.02377773368094
 31
0.0
  0
LINE
  5
3E9
330
1F
100
AcDbEntity
  8
1
  6
CONTINUOUS
 62
     7
100
AcDbLine
 10
7.25759825510471
 20
3.59750546736197
 30
0.0
 11
7.5390865988052
 21
6.81493195847681
 31
0.0
  0
LINE
  5
3EA
330
1F
100
AcDbEntity
  8
1
  6
CONTINUOUS
 62
     7
100
AcDbLine
 10
7.39271629662781
 20
3.45004999999995
 30
0.0
 11
6.76660234356251
 21
2.87632226631892
 31
0.0
  0
LINE
  5
3EB
330
1F
100
AcDbEntity
  8
1
  6
CONTINUOUS
 62
     7
100
AcDbLine
 10
6.76660234356251
 20
2.87632226631892
 30
0.0
 11
7.15720890980973
 21
2.45004999999995
 31
0.0
  0
LINE
  5
3EC
330
1F
100
AcDbEntity
  8
1
  6
CONTINUOUS
 62
     7
100
AcDbLine
 10
9.719758947966
 20
3.45004999999995
 30
0.0
 11
10.2398309717847
 21
2.88249097923838
 31
0.0
  0
LINE
  5
3ED
330
1F
100
AcDbEntity
  8
1
  6
CONTINUOUS
 62
     7
100
AcDbLine
 10
9.719758947966
 20
3.45004999999995
 30
0.0
 11
7.39271629662781
 21
3.45004999999995
 31
0.0
  0
LINE
  5
3EE
330
1F
100
AcDbEntity
  8
1
  6
CONTINUOUS
 62
     7
100
AcDbLine
 10
10.38728643914672
 20
3.01760902076151
 30
0.0
 11
9.86721441532802
 21
3.58516804152308
 31
0.0
  0
LINE
  5
3EF
330
1F
100
AcDbEntity
  8
1
  6
CONTINUOUS
 62
     7
100
AcDbLine
 10
10.38728643914672
 20
3.01760902076151
 30
0.0
 11
10.85921295600031
 21
3.45004999999995
 31
0.0
  0
LINE
  5
3F0
330
1F
100
AcDbEntity
  8
1
  6
CONTINUOUS
 62
     7
100
AcDbLine
 10
2.78445012402642
 20
6.75004999999996
 30
0.0
 11
2.24394694573201
 21
5.71874855920105
 31
0.0
  0
LINE
  5
3F1
330
1F
100
AcDbEntity
  8
1
  6
CONTINUOUS
 62
     7
100
AcDbLine
 10
4.0372050443994
 20
6.75004999999996
 30
0.0
 11
4.44192107892562
 21
5.59080653266602
 31
0.0
  0
LINE
  5
3F2
330
1F
100
AcDbEntity
  8
1
  6
CONTINUOUS
 62
     7
100
AcDbLine
 10
2.24394694573201
 20
5.71874855920105
 30
0.0
 11
2.06295927354941
 21
3.65004999999995
 31
0.0
  0
LINE
  5
3F3
330
1F
100
AcDbEntity
  8
1
  6
CONTINUOUS
 62
     7
100
AcDbLine
 10
3.2683850209568
 20
5.95004999999995
 30
0.0
 11
2.06295927354941
 21
3.65004999999995
 31
0.0
  0
LINE
  5
3F4
330
1F
100
AcDbEntity
  8
1
  6
CONTINUOUS
 62
     7
100
AcDbLine
 10
3.46914898846541
 20
5.95004999999995
 30
0.0
 11
4.2721268836535
 21
3.65004999999995
 31
0.0
  0
LINE
  5
3F5
330
1F
100
AcDbEntity
  8
1
  6
CONTINUOUS
 62
     7
100
AcDbLine
 10
4.44192107892562
 20
5.59080653266602
 30
0.0
 11
4.2721268836535
 21
3.65004999999995
 31
0.0
  0
LINE
  5
3F6
330
1F
100
AcDbEntity
  8
1
  6
CONTINUOUS
 62
     7
100
AcDbLine
 10
3.2683850209568
 20
5.95004999999995
 30
0.0
 11
3.33837595177752
 21
6.75004999999996
 31
0.0
  0
LINE
  5
3F7
330
1F
100
AcDbEntity
  8
1
  6
CONTINUOUS
 62
     7
100
AcDbLine
 10
3.33837595177752
 20
6.75004999999996
 30
0.0
 11
2.78445012402642
 21
6.75004999999996
 31
0.0
  0
LINE
  5
3F8
330
1F
100
AcDbEntity
  8
1
  6
CONTINUOUS
 62
     7
100
AcDbLine
 10
3.46914898846541
 20
5.95004999999995
 30
0.0
 11
3.53913991928621
 21
6.75004999999996
 31
0.0
  0
LINE
  5
3F9
330
1F
100
AcDbEntity
  8
1
  6
CONTINUOUS
 62
     7
100
AcDbLine
 10
3.53913991928621
 20
6.75004999999996
 30
0.0
 11
4.0372050443994
 21
6.75004999999996
 31
0.0
  0
LINE
  5
3FA
330
1F
100
AcDbEntity
  8
1
  6
CONTINUOUS
 62
     7
100
AcDbLine
 10
4.75605305426802
 20
9.18135144079885
 30
0.0
 11
4.9370407264505
 21
11.25004999999996
 31
0.0
  0
LINE
  5
3FB
330
1F
100
AcDbEntity
  8
1
  6
CONTINUOUS
 62
     7
100
AcDbLine
 10
4.21554987597361
 20
8.15004999999995
 30
0.0
 11
4.75605305426802
 21
9.18135144079885
 31
0.0
  0
LINE
  5
3FC
330
1F
100
AcDbEntity
  8
1
  6
CONTINUOUS
 62
     7
100
AcDbLine
 10
3.66162404822242
 20
8.15004999999995
 30
0.0
 11
4.21554987597361
 21
8.15004999999995
 31
0.0
  0
LINE
  5
3FD
330
1F
100
AcDbEntity
  8
1
  6
CONTINUOUS
 62
     7
100
AcDbLine
 10
3.7316149790432
 20
8.95004999999995
 30
0.0
 11
3.66162404822242
 21
8.15004999999995
 31
0.0
  0
LINE
  5
3FE
330
1F
100
AcDbEntity
  8
1
  6
CONTINUOUS
 62
     7
100
AcDbLine
 10
2.5580789210743
 20
9.30929346733386
 30
0.0
 11
2.7278731163465
 21
11.25004999999996
 31
0.0
  0
LINE
  5
3FF
330
1F
100
AcDbEntity
  8
1
  6
CONTINUOUS
 62
     7
100
AcDbLine
 10
2.96279495560051
 20
8.15004999999995
 30
0.0
 11
2.5580789210743
 21
9.30929346733386
 31
0.0
  0
LINE
  5
400
330
1F
100
AcDbEntity
  8
1
  6
CONTINUOUS
 62
     7
100
AcDbLine
 10
3.46086008071382
 20
8.15004999999995
 30
0.0
 11
2.96279495560051
 21
8.15004999999995
 31
0.0
  0
LINE
  5
401
330
1F
100
AcDbEntity
  8
1
  6
CONTINUOUS
 62
     7
100
AcDbLine
 10
3.53085101153451
 20
8.95004999999995
 30
0.0
 11
3.46086008071382
 21
8.15004999999995
 31
0.0
  0
LINE
  5
402
330
1F
100
AcDbEntity
  8
1
  6
CONTINUOUS
 62
     7
100
AcDbLine
 10
3.7316149790432
 20
8.95004999999995
 30
0.0
 11
4.9370407264505
 21
11.25004999999996
 31
0.0
  0
LINE
  5
403
330
1F
100
AcDbEntity
  8
1
  6
CONTINUOUS
 62
     7
100
AcDbLine
 10
3.53085101153451
 20
8.95004999999995
 30
0.0
 11
2.7278731163465
 21
11.25004999999996
 31
0.0
  0
LINE
  5
404
330
1F
100
AcDbEntity
  8
1
  6
CONTINUOUS
 62
     7
100
AcDbLine
 10
1.54078704399961
 20
11.45004999999995
 30
0.0
 11
2.01271356085331
 21
11.88249097923838
 31
0.0
  0
LINE
  5
405
330
1F
100
AcDbEntity
  8
1
  6
CONTINUOUS
 62
     7
100
AcDbLine
 10
2.63209554506892
 20
12.45004999999995
 30
0.0
 11
5.24279109019031
 21
12.45004999999995
 31
0.0
  0
LINE
  5
406
330
1F
100
AcDbEntity
  8
1
  6
CONTINUOUS
 62
     7
100
AcDbLine
 10
5.24279109019031
 20
12.45004999999995
 30
0.0
 11
5.63339765643752
 21
12.02377773368096
 31
0.0
  0
LINE
  5
407
330
1F
100
AcDbEntity
  8
1
  6
CONTINUOUS
 62
     7
100
AcDbLine
 10
0.84087773579222
 20
3.45004999999995
 30
0.0
 11
1.23148430203941
 21
3.02377773368094
 31
0.0
  0
LINE
  5
408
330
1F
100
AcDbEntity
  8
1
  6
CONTINUOUS
 62
     7
100
AcDbLine
 10
1.75720890980961
 20
2.45004999999995
 30
0.0
 11
4.36790445493102
 21
2.45004999999995
 31
0.0
  0
LINE
  5
409
330
1F
100
AcDbEntity
  8
1
  6
CONTINUOUS
 62
     7
100
AcDbLine
 10
4.36790445493102
 20
2.45004999999995
 30
0.0
 11
4.83983097178472
 21
2.88249097923838
 31
0.0
  0
LINE
  5
40A
330
1F
100
AcDbEntity
  8
1
  6
CONTINUOUS
 62
     7
100
AcDbLine
 10
5.4592129560003
 20
3.45004999999995
 30
0.0
 11
5.7536019814699
 21
6.81493195847681
 31
0.0
  0
LINE
  5
40B
330
1F
100
AcDbEntity
  8
1
  6
CONTINUOUS
 62
     7
100
AcDbLine
 10
1.24639801853002
 20
8.08516804152309
 30
0.0
 11
1.69891102158701
 21
7.59133675444251
 31
0.0
  0
LINE
  5
40C
330
1F
100
AcDbEntity
  8
1
  6
CONTINUOUS
 62
     7
100
AcDbLine
 10
1.24639801853002
 20
8.08516804152309
 30
0.0
 11
1.54078704399961
 21
11.45004999999995
 31
0.0
  0
LINE
  5
40D
330
1F
100
AcDbEntity
  8
1
  6
CONTINUOUS
 62
     7
100
AcDbLine
 10
1.69891102158701
 20
7.59133675444251
 30
0.0
 11
2.2512972409713
 21
8.09750546736197
 31
0.0
  0
LINE
  5
40E
330
1F
100
AcDbEntity
  8
1
  6
CONTINUOUS
 62
     7
100
AcDbLine
 10
2.2512972409713
 20
8.09750546736197
 30
0.0
 11
2.5327855846719
 21
11.31493195847682
 31
0.0
  0
LINE
  5
40F
330
1F
100
AcDbEntity
  8
1
  6
CONTINUOUS
 62
     7
100
AcDbLine
 10
1.13418737636391
 20
6.80259453263793
 30
0.0
 11
1.6865735957482
 21
7.30876324555736
 31
0.0
  0
LINE
  5
410
330
1F
100
AcDbEntity
  8
1
  6
CONTINUOUS
 62
     7
100
AcDbLine
 10
1.13418737636391
 20
6.80259453263793
 30
0.0
 11
0.84087773579222
 21
3.45004999999995
 31
0.0
  0
LINE
  5
411
330
1F
100
AcDbEntity
  8
1
  6
CONTINUOUS
 62
     7
100
AcDbLine
 10
1.6865735957482
 20
7.30876324555736
 30
0.0
 11
2.13908659880522
 21
6.81493195847681
 31
0.0
  0
LINE
  5
412
330
1F
100
AcDbEntity
  8
1
  6
CONTINUOUS
 62
     7
100
AcDbLine
 10
2.2865420661673
 20
6.95004999999995
 30
0.0
 11
1.83402906311022
 21
7.44388128708049
 31
0.0
  0
LINE
  5
413
330
1F
100
AcDbEntity
  8
1
  6
CONTINUOUS
 62
     7
100
AcDbLine
 10
1.83402906311022
 20
7.44388128708049
 30
0.0
 11
2.38641528249451
 21
7.95004999999995
 31
0.0
  0
LINE
  5
414
330
1F
100
AcDbEntity
  8
1
  6
CONTINUOUS
 62
     7
100
AcDbLine
 10
2.38641528249451
 20
7.95004999999995
 30
0.0
 11
4.7134579338327
 21
7.95004999999995
 31
0.0
  0
LINE
  5
415
330
1F
100
AcDbEntity
  8
1
  6
CONTINUOUS
 62
     7
100
AcDbLine
 10
4.7134579338327
 20
7.95004999999995
 30
0.0
 11
5.16597093688981
 21
7.45621871291939
 31
0.0
  0
LINE
  5
416
330
1F
100
AcDbEntity
  8
1
  6
CONTINUOUS
 62
     7
100
AcDbLine
 10
5.16597093688981
 20
7.45621871291939
 30
0.0
 11
4.61358471750552
 21
6.95004999999995
 31
0.0
  0
LINE
  5
417
330
1F
100
AcDbEntity
  8
1
  6
CONTINUOUS
 62
     7
100
AcDbLine
 10
4.61358471750552
 20
6.95004999999995
 30
0.0
 11
2.2865420661673
 21
6.95004999999995
 31
0.0
  0
LINE
  5
418
330
1F
100
AcDbEntity
  8
1
  6
CONTINUOUS
 62
     7
100
AcDbLine
 10
4.74870275902862
 20
6.80259453263791
 30
0.0
 11
5.30108897841291
 21
7.30876324555736
 31
0.0
  0
LINE
  5
419
330
1F
100
AcDbEntity
  8
1
  6
CONTINUOUS
 62
     7
100
AcDbLine
 10
4.74870275902862
 20
6.80259453263791
 30
0.0
 11
4.46721441532802
 21
3.58516804152308
 31
0.0
  0
LINE
  5
41A
330
1F
100
AcDbEntity
  8
1
  6
CONTINUOUS
 62
     7
100
AcDbLine
 10
5.30108897841291
 20
7.30876324555736
 30
0.0
 11
5.7536019814699
 21
6.81493195847681
 31
0.0
  0
LINE
  5
41B
330
1F
100
AcDbEntity
  8
1
  6
CONTINUOUS
 62
     7
100
AcDbLine
 10
4.86091340119472
 20
8.08516804152309
 30
0.0
 11
5.3134264042518
 21
7.59133675444251
 31
0.0
  0
LINE
  5
41C
330
1F
100
AcDbEntity
  8
1
  6
CONTINUOUS
 62
     7
100
AcDbLine
 10
5.3134264042518
 20
7.59133675444251
 30
0.0
 11
5.86581262363612
 21
8.09750546736197
 31
0.0
  0
LINE
  5
41D
330
1F
100
AcDbEntity
  8
1
  6
CONTINUOUS
 62
     7
100
AcDbLine
 10
5.86581262363612
 20
8.09750546736197
 30
0.0
 11
6.15912226420772
 21
11.45004999999995
 31
0.0
  0
LINE
  5
41E
330
1F
100
AcDbEntity
  8
1
  6
CONTINUOUS
 62
     7
100
AcDbLine
 10
2.01271356085331
 20
11.88249097923838
 30
0.0
 11
2.5327855846719
 21
11.31493195847682
 31
0.0
  0
LINE
  5
41F
330
1F
100
AcDbEntity
  8
1
  6
CONTINUOUS
 62
     7
100
AcDbLine
 10
2.68024105203392
 20
11.45004999999995
 30
0.0
 11
2.16016902821531
 21
12.01760902076151
 31
0.0
  0
LINE
  5
420
330
1F
100
AcDbEntity
  8
1
  6
CONTINUOUS
 62
     7
100
AcDbLine
 10
2.68024105203392
 20
11.45004999999995
 30
0.0
 11
5.00728370337211
 21
11.45004999999995
 31
0.0
  0
LINE
  5
421
330
1F
100
AcDbEntity
  8
1
  6
CONTINUOUS
 62
     7
100
AcDbLine
 10
2.16016902821531
 20
12.01760902076151
 30
0.0
 11
2.63209554506892
 21
12.45004999999995
 31
0.0
  0
LINE
  5
422
330
1F
100
AcDbEntity
  8
1
  6
CONTINUOUS
 62
     7
100
AcDbLine
 10
5.00728370337211
 20
11.45004999999995
 30
0.0
 11
5.63339765643752
 21
12.02377773368096
 31
0.0
  0
LINE
  5
423
330
1F
100
AcDbEntity
  8
1
  6
CONTINUOUS
 62
     7
100
AcDbLine
 10
5.14240174489532
 20
11.30259453263793
 30
0.0
 11
5.76851569796062
 21
11.87632226631894
 31
0.0
  0
LINE
  5
424
330
1F
100
AcDbEntity
  8
1
  6
CONTINUOUS
 62
     7
100
AcDbLine
 10
5.14240174489532
 20
11.30259453263793
 30
0.0
 11
4.86091340119472
 21
8.08516804152309
 31
0.0
  0
LINE
  5
425
330
1F
100
AcDbEntity
  8
1
  6
CONTINUOUS
 62
     7
100
AcDbLine
 10
5.76851569796062
 20
11.87632226631894
 30
0.0
 11
6.15912226420772
 21
11.45004999999995
 31
0.0
  0
LINE
  5
426
330
1F
100
AcDbEntity
  8
1
  6
CONTINUOUS
 62
     7
100
AcDbLine
 10
1.8575982551047
 20
3.59750546736197
 30
0.0
 11
1.23148430203941
 21
3.02377773368094
 31
0.0
  0
LINE
  5
427
330
1F
100
AcDbEntity
  8
1
  6
CONTINUOUS
 62
     7
100
AcDbLine
 10
1.8575982551047
 20
3.59750546736197
 30
0.0
 11
2.13908659880522
 21
6.81493195847681
 31
0.0
  0
LINE
  5
428
330
1F
100
AcDbEntity
  8
1
  6
CONTINUOUS
 62
     7
100
AcDbLine
 10
1.9927162966278
 20
3.45004999999995
 30
0.0
 11
1.3666023435625
 21
2.87632226631892
 31
0.0
  0
LINE
  5
429
330
1F
100
AcDbEntity
  8
1
  6
CONTINUOUS
 62
     7
100
AcDbLine
 10
1.3666023435625
 20
2.87632226631892
 30
0.0
 11
1.75720890980961
 21
2.45004999999995
 31
0.0
  0
LINE
  5
42A
330
1F
100
AcDbEntity
  8
1
  6
CONTINUOUS
 62
     7
100
AcDbLine
 10
4.31975894796602
 20
3.45004999999995
 30
0.0
 11
4.83983097178472
 21
2.88249097923838
 31
0.0
  0
LINE
  5
42B
330
1F
100
AcDbEntity
  8
1
  6
CONTINUOUS
 62
     7
100
AcDbLine
 10
4.31975894796602
 20
3.45004999999995
 30
0.0
 11
1.9927162966278
 21
3.45004999999995
 31
0.0
  0
LINE
  5
42C
330
1F
100
AcDbEntity
  8
1
  6
CONTINUOUS
 62
     7
100
AcDbLine
 10
4.98728643914671
 20
3.01760902076151
 30
0.0
 11
4.46721441532802
 21
3.58516804152308
 31
0.0
  0
LINE
  5
42D
330
1F
100
AcDbEntity
  8
1
  6
CONTINUOUS
 62
     7
100
AcDbLine
 10
4.98728643914671
 20
3.01760902076151
 30
0.0
 11
5.4592129560003
 21
3.45004999999995
 31
0.0
  0
LINE
  5
42E
330
1F
100
AcDbEntity
  8
1
  6
CONTINUOUS
 62
     7
100
AcDbLine
 10
-2.61554987597358
 20
6.75004999999996
 30
0.0
 11
-3.156053054268
 21
5.71874855920105
 31
0.0
  0
LINE
  5
42F
330
1F
100
AcDbEntity
  8
1
  6
CONTINUOUS
 62
     7
100
AcDbLine
 10
-1.36279495560058
 20
6.75004999999996
 30
0.0
 11
-0.95807892107428
 21
5.59080653266602
 31
0.0
  0
LINE
  5
430
330
1F
100
AcDbEntity
  8
1
  6
CONTINUOUS
 62
     7
100
AcDbLine
 10
-3.156053054268
 20
5.71874855920105
 30
0.0
 11
-3.3370407264506
 21
3.65004999999995
 31
0.0
  0
LINE
  5
431
330
1F
100
AcDbEntity
  8
1
  6
CONTINUOUS
 62
     7
100
AcDbLine
 10
-2.13161497904329
 20
5.95004999999995
 30
0.0
 11
-3.3370407264506
 21
3.65004999999995
 31
0.0
  0
LINE
  5
432
330
1F
100
AcDbEntity
  8
1
  6
CONTINUOUS
 62
     7
100
AcDbLine
 10
-1.9308510115346
 20
5.95004999999995
 30
0.0
 11
-1.12787311634648
 21
3.65004999999995
 31
0.0
  0
LINE
  5
433
330
1F
100
AcDbEntity
  8
1
  6
CONTINUOUS
 62
     7
100
AcDbLine
 10
-0.95807892107428
 20
5.59080653266602
 30
0.0
 11
-1.12787311634648
 21
3.65004999999995
 31
0.0
  0
LINE
  5
434
330
1F
100
AcDbEntity
  8
1
  6
CONTINUOUS
 62
     7
100
AcDbLine
 10
-2.13161497904329
 20
5.95004999999995
 30
0.0
 11
-2.06162404822248
 21
6.75004999999996
 31
0.0
  0
LINE
  5
435
330
1F
100
AcDbEntity
  8
1
  6
CONTINUOUS
 62
     7
100
AcDbLine
 10
-2.06162404822248
 20
6.75004999999996
 30
0.0
 11
-2.61554987597358
 21
6.75004999999996
 31
0.0
  0
LINE
  5
436
330
1F
100
AcDbEntity
  8
1
  6
CONTINUOUS
 62
     7
100
AcDbLine
 10
-1.9308510115346
 20
5.95004999999995
 30
0.0
 11
-1.86086008071379
 21
6.75004999999996
 31
0.0
  0
LINE
  5
437
330
1F
100
AcDbEntity
  8
1
  6
CONTINUOUS
 62
     7
100
AcDbLine
 10
-1.86086008071379
 20
6.75004999999996
 30
0.0
 11
-1.36279495560058
 21
6.75004999999996
 31
0.0
  0
LINE
  5
438
330
1F
100
AcDbEntity
  8
1
  6
CONTINUOUS
 62
     7
100
AcDbLine
 10
-0.64394694573198
 20
9.18135144079885
 30
0.0
 11
-0.4629592735495
 21
11.25004999999996
 31
0.0
  0
LINE
  5
439
330
1F
100
AcDbEntity
  8
1
  6
CONTINUOUS
 62
     7
100
AcDbLine
 10
-1.1844501240264
 20
8.15004999999995
 30
0.0
 11
-0.64394694573198
 21
9.18135144079885
 31
0.0
  0
LINE
  5
43A
330
1F
100
AcDbEntity
  8
1
  6
CONTINUOUS
 62
     7
100
AcDbLine
 10
-1.7383759517775
 20
8.15004999999995
 30
0.0
 11
-1.1844501240264
 21
8.15004999999995
 31
0.0
  0
LINE
  5
43B
330
1F
100
AcDbEntity
  8
1
  6
CONTINUOUS
 62
     7
100
AcDbLine
 10
-1.66838502095678
 20
8.95004999999995
 30
0.0
 11
-1.7383759517775
 21
8.15004999999995
 31
0.0
  0
LINE
  5
43C
330
1F
100
AcDbEntity
  8
1
  6
CONTINUOUS
 62
     7
100
AcDbLine
 10
-2.84192107892568
 20
9.30929346733386
 30
0.0
 11
-2.67212688365348
 21
11.25004999999996
 31
0.0
  0
LINE
  5
43D
330
1F
100
AcDbEntity
  8
1
  6
CONTINUOUS
 62
     7
100
AcDbLine
 10
-2.43720504439949
 20
8.15004999999995
 30
0.0
 11
-2.84192107892568
 21
9.30929346733386
 31
0.0
  0
LINE
  5
43E
330
1F
100
AcDbEntity
  8
1
  6
CONTINUOUS
 62
     7
100
AcDbLine
 10
-1.93913991928619
 20
8.15004999999995
 30
0.0
 11
-2.43720504439949
 21
8.15004999999995
 31
0.0
  0
LINE
  5
43F
330
1F
100
AcDbEntity
  8
1
  6
CONTINUOUS
 62
     7
100
AcDbLine
 10
-1.8691489884655
 20
8.95004999999995
 30
0.0
 11
-1.93913991928619
 21
8.15004999999995
 31
0.0
  0
LINE
  5
440
330
1F
100
AcDbEntity
  8
1
  6
CONTINUOUS
 62
     7
100
AcDbLine
 10
-1.66838502095678
 20
8.95004999999995
 30
0.0
 11
-0.4629592735495
 21
11.25004999999996
 31
0.0
  0
LINE
  5
441
330
1F
100
AcDbEntity
  8
1
  6
CONTINUOUS
 62
     7
100
AcDbLine
 10
-1.8691489884655
 20
8.95004999999995
 30
0.0
 11
-2.67212688365348
 21
11.25004999999996
 31
0.0
  0
LINE
  5
442
330
1F
100
AcDbEntity
  8
1
  6
CONTINUOUS
 62
     7
100
AcDbLine
 10
-3.85921295600039
 20
11.45004999999995
 30
0.0
 11
-3.38728643914669
 21
11.88249097923838
 31
0.0
  0
LINE
  5
443
330
1F
100
AcDbEntity
  8
1
  6
CONTINUOUS
 62
     7
100
AcDbLine
 10
-2.76790445493108
 20
12.45004999999995
 30
0.0
 11
-0.1572089098097
 21
12.45004999999995
 31
0.0
  0
LINE
  5
444
330
1F
100
AcDbEntity
  8
1
  6
CONTINUOUS
 62
     7
100
AcDbLine
 10
-0.1572089098097
 20
12.45004999999995
 30
0.0
 11
0.2333976564374
 21
12.02377773368096
 31
0.0
  0
LINE
  5
445
330
1F
100
AcDbEntity
  8
1
  6
CONTINUOUS
 62
     7
100
AcDbLine
 10
-4.55912226420779
 20
3.45004999999995
 30
0.0
 11
-4.1685156979606
 21
3.02377773368094
 31
0.0
  0
LINE
  5
446
330
1F
100
AcDbEntity
  8
1
  6
CONTINUOUS
 62
     7
100
AcDbLine
 10
-3.64279109019029
 20
2.45004999999995
 30
0.0
 11
-1.03209554506898
 21
2.45004999999995
 31
0.0
  0
LINE
  5
447
330
1F
100
AcDbEntity
  8
1
  6
CONTINUOUS
 62
     7
100
AcDbLine
 10
-1.03209554506898
 20
2.45004999999995
 30
0.0
 11
-0.56016902821528
 21
2.88249097923838
 31
0.0
  0
LINE
  5
448
330
1F
100
AcDbEntity
  8
1
  6
CONTINUOUS
 62
     7
100
AcDbLine
 10
0.05921295600032
 20
3.45004999999995
 30
0.0
 11
0.35360198147001
 21
6.81493195847681
 31
0.0
  0
LINE
  5
449
330
1F
100
AcDbEntity
  8
1
  6
CONTINUOUS
 62
     7
100
AcDbLine
 10
-4.15360198146999
 20
8.08516804152309
 30
0.0
 11
-3.701088978413
 21
7.59133675444251
 31
0.0
  0
LINE
  5
44A
330
1F
100
AcDbEntity
  8
1
  6
CONTINUOUS
 62
     7
100
AcDbLine
 10
-4.15360198146999
 20
8.08516804152309
 30
0.0
 11
-3.85921295600039
 21
11.45004999999995
 31
0.0
  0
LINE
  5
44B
330
1F
100
AcDbEntity
  8
1
  6
CONTINUOUS
 62
     7
100
AcDbLine
 10
-3.701088978413
 20
7.59133675444251
 30
0.0
 11
-3.14870275902868
 21
8.09750546736197
 31
0.0
  0
LINE
  5
44C
330
1F
100
AcDbEntity
  8
1
  6
CONTINUOUS
 62
     7
100
AcDbLine
 10
-3.14870275902868
 20
8.09750546736197
 30
0.0
 11
-2.86721441532808
 21
11.31493195847682
 31
0.0
  0
LINE
  5
44D
330
1F
100
AcDbEntity
  8
1
  6
CONTINUOUS
 62
     7
100
AcDbLine
 10
-4.26581262363609
 20
6.80259453263793
 30
0.0
 11
-3.71342640425178
 21
7.30876324555736
 31
0.0
  0
LINE
  5
44E
330
1F
100
AcDbEntity
  8
1
  6
CONTINUOUS
 62
     7
100
AcDbLine
 10
-4.26581262363609
 20
6.80259453263793
 30
0.0
 11
-4.55912226420779
 21
3.45004999999995
 31
0.0
  0
LINE
  5
44F
330
1F
100
AcDbEntity
  8
1
  6
CONTINUOUS
 62
     7
100
AcDbLine
 10
-3.71342640425178
 20
7.30876324555736
 30
0.0
 11
-3.26091340119478
 21
6.81493195847681
 31
0.0
  0
LINE
  5
450
330
1F
100
AcDbEntity
  8
1
  6
CONTINUOUS
 62
     7
100
AcDbLine
 10
-3.11345793383279
 20
6.95004999999995
 30
0.0
 11
-3.56597093688978
 21
7.44388128708049
 31
0.0
  0
LINE
  5
451
330
1F
100
AcDbEntity
  8
1
  6
CONTINUOUS
 62
     7
100
AcDbLine
 10
-3.56597093688978
 20
7.44388128708049
 30
0.0
 11
-3.01358471750549
 21
7.95004999999995
 31
0.0
  0
LINE
  5
452
330
1F
100
AcDbEntity
  8
1
  6
CONTINUOUS
 62
     7
100
AcDbLine
 10
-3.01358471750549
 20
7.95004999999995
 30
0.0
 11
-0.68654206616728
 21
7.95004999999995
 31
0.0
  0
LINE
  5
453
330
1F
100
AcDbEntity
  8
1
  6
CONTINUOUS
 62
     7
100
AcDbLine
 10
-0.68654206616728
 20
7.95004999999995
 30
0.0
 11
-0.2340290631102
 21
7.45621871291939
 31
0.0
  0
LINE
  5
454
330
1F
100
AcDbEntity
  8
1
  6
CONTINUOUS
 62
     7
100
AcDbLine
 10
-0.2340290631102
 20
7.45621871291939
 30
0.0
 11
-0.78641528249449
 21
6.95004999999995
 31
0.0
  0
LINE
  5
455
330
1F
100
AcDbEntity
  8
1
  6
CONTINUOUS
 62
     7
100
AcDbLine
 10
-0.78641528249449
 20
6.95004999999995
 30
0.0
 11
-3.11345793383279
 21
6.95004999999995
 31
0.0
  0
LINE
  5
456
330
1F
100
AcDbEntity
  8
1
  6
CONTINUOUS
 62
     7
100
AcDbLine
 10
-0.65129724097139
 20
6.80259453263791
 30
0.0
 11
-0.0989110215871
 21
7.30876324555736
 31
0.0
  0
LINE
  5
457
330
1F
100
AcDbEntity
  8
1
  6
CONTINUOUS
 62
     7
100
AcDbLine
 10
-0.65129724097139
 20
6.80259453263791
 30
0.0
 11
-0.93278558467188
 21
3.58516804152308
 31
0.0
  0
LINE
  5
458
330
1F
100
AcDbEntity
  8
1
  6
CONTINUOUS
 62
     7
100
AcDbLine
 10
-0.0989110215871
 20
7.30876324555736
 30
0.0
 11
0.35360198147001
 21
6.81493195847681
 31
0.0
  0
LINE
  5
459
330
1F
100
AcDbEntity
  8
1
  6
CONTINUOUS
 62
     7
100
AcDbLine
 10
-0.53908659880528
 20
8.08516804152309
 30
0.0
 11
-0.08657359574818
 21
7.59133675444251
 31
0.0
  0
LINE
  5
45A
330
1F
100
AcDbEntity
  8
1
  6
CONTINUOUS
 62
     7
100
AcDbLine
 10
-0.08657359574818
 20
7.59133675444251
 30
0.0
 11
0.46581262363611
 21
8.09750546736197
 31
0.0
  0
LINE
  5
45B
330
1F
100
AcDbEntity
  8
1
  6
CONTINUOUS
 62
     7
100
AcDbLine
 10
0.46581262363611
 20
8.09750546736197
 30
0.0
 11
0.75912226420772
 21
11.45004999999995
 31
0.0
  0
LINE
  5
45C
330
1F
100
AcDbEntity
  8
1
  6
CONTINUOUS
 62
     7
100
AcDbLine
 10
-3.38728643914669
 20
11.88249097923838
 30
0.0
 11
-2.86721441532808
 21
11.31493195847682
 31
0.0
  0
LINE
  5
45D
330
1F
100
AcDbEntity
  8
1
  6
CONTINUOUS
 62
     7
100
AcDbLine
 10
-2.71975894796608
 20
11.45004999999995
 30
0.0
 11
-3.2398309717847
 21
12.01760902076151
 31
0.0
  0
LINE
  5
45E
330
1F
100
AcDbEntity
  8
1
  6
CONTINUOUS
 62
     7
100
AcDbLine
 10
-2.71975894796608
 20
11.45004999999995
 30
0.0
 11
-0.3927162966279
 21
11.45004999999995
 31
0.0
  0
LINE
  5
45F
330
1F
100
AcDbEntity
  8
1
  6
CONTINUOUS
 62
     7
100
AcDbLine
 10
-3.2398309717847
 20
12.01760902076151
 30
0.0
 11
-2.76790445493108
 21
12.45004999999995
 31
0.0
  0
LINE
  5
460
330
1F
100
AcDbEntity
  8
1
  6
CONTINUOUS
 62
     7
100
AcDbLine
 10
-0.3927162966279
 20
11.45004999999995
 30
0.0
 11
0.2333976564374
 21
12.02377773368096
 31
0.0
  0
LINE
  5
461
330
1F
100
AcDbEntity
  8
1
  6
CONTINUOUS
 62
     7
100
AcDbLine
 10
-0.25759825510468
 20
11.30259453263793
 30
0.0
 11
0.36851569796062
 21
11.87632226631894
 31
0.0
  0
LINE
  5
462
330
1F
100
AcDbEntity
  8
1
  6
CONTINUOUS
 62
     7
100
AcDbLine
 10
-0.25759825510468
 20
11.30259453263793
 30
0.0
 11
-0.53908659880528
 21
8.08516804152309
 31
0.0
  0
LINE
  5
463
330
1F
100
AcDbEntity
  8
1
  6
CONTINUOUS
 62
     7
100
AcDbLine
 10
0.36851569796062
 20
11.87632226631894
 30
0.0
 11
0.75912226420772
 21
11.45004999999995
 31
0.0
  0
LINE
  5
464
330
1F
100
AcDbEntity
  8
1
  6
CONTINUOUS
 62
     7
100
AcDbLine
 10
-3.5424017448953
 20
3.59750546736197
 30
0.0
 11
-4.1685156979606
 21
3.02377773368094
 31
0.0
  0
LINE
  5
465
330
1F
100
AcDbEntity
  8
1
  6
CONTINUOUS
 62
     7
100
AcDbLine
 10
-3.5424017448953
 20
3.59750546736197
 30
0.0
 11
-3.26091340119478
 21
6.81493195847681
 31
0.0
  0
LINE
  5
466
330
1F
100
AcDbEntity
  8
1
  6
CONTINUOUS
 62
     7
100
AcDbLine
 10
-3.4072837033722
 20
3.45004999999995
 30
0.0
 11
-4.0333976564375
 21
2.87632226631892
 31
0.0
  0
LINE
  5
467
330
1F
100
AcDbEntity
  8
1
  6
CONTINUOUS
 62
     7
100
AcDbLine
 10
-4.0333976564375
 20
2.87632226631892
 30
0.0
 11
-3.64279109019029
 21
2.45004999999995
 31
0.0
  0
LINE
  5
468
330
1F
100
AcDbEntity
  8
1
  6
CONTINUOUS
 62
     7
100
AcDbLine
 10
-1.08024105203398
 20
3.45004999999995
 30
0.0
 11
-0.56016902821528
 21
2.88249097923838
 31
0.0
  0
LINE
  5
469
330
1F
100
AcDbEntity
  8
1
  6
CONTINUOUS
 62
     7
100
AcDbLine
 10
-1.08024105203398
 20
3.45004999999995
 30
0.0
 11
-3.4072837033722
 21
3.45004999999995
 31
0.0
  0
LINE
  5
46A
330
1F
100
AcDbEntity
  8
1
  6
CONTINUOUS
 62
     7
100
AcDbLine
 10
-0.41271356085329
 20
3.01760902076151
 30
0.0
 11
-0.93278558467188
 21
3.58516804152308
 31
0.0
  0
LINE
  5
46B
330
1F
100
AcDbEntity
  8
1
  6
CONTINUOUS
 62
     7
100
AcDbLine
 10
-0.41271356085329
 20
3.01760902076151
 30
0.0
 11
0.05921295600032
 21
3.45004999999995
 31
0.0
  0
LINE
  5
46C
330
1F
100
AcDbEntity
  8
1
  6
CONTINUOUS
 62
     7
100
AcDbLine
 10
25.0
 20
-39.0
 30
0.0
 11
-12.99999999999998
 21
-39.0
 31
0.0
  0
LINE
  5
46D
330
1F
100
AcDbEntity
  8
1
  6
CONTINUOUS
 62
     7
100
AcDbLine
 10
-12.99999999999999
 20
-38.0
 30
0.0
 11
25.0
 21
-38.0
 31
0.0
  0
LINE
  5
46E
330
1F
100
AcDbEntity
  8
1
  6
CONTINUOUS
 62
     7
100
AcDbLine
 10
-12.5
 20
-49.0
 30
0.0
 11
24.5
 21
-49.0
 31
0.0
  0
LINE
  5
46F
330
1F
100
AcDbEntity
  8
1
  6
CONTINUOUS
 62
     7
100
AcDbLine
 10
-15.0
 20
31.19990000000003
 30
0.0
 11
-15.0
 21
-46.5
 31
0.0
  0
LINE
  5
470
330
1F
100
AcDbEntity
  8
PV
  6
CONTINUOUS
 62
     7
100
AcDbLine
 10
-12.39999999999998
 20
28.29999999999994
 30
0.0
 11
-12.39999999999998
 21
-22.80000000000008
 31
0.0
  0
LINE
  5
471
330
1F
100
AcDbEntity
  8
PV
  6
CONTINUOUS
 62
     7
100
AcDbLine
 10
-11.19999999999999
 20
29.49999999999994
 30
0.0
 11
23.20000000000002
 21
29.49999999999994
 31
0.0
  0
LINE
  5
472
330
1F
100
AcDbEntity
  8
PV
  6
CONTINUOUS
 62
     7
100
AcDbLine
 10
-11.19999999999999
 20
-24.00000000000006
 30
0.0
 11
23.20000000000002
 21
-24.00000000000006
 31
0.0
  0
LINE
  5
473
330
1F
100
AcDbEntity
  8
PV
  6
CONTINUOUS
 62
     7
100
AcDbLine
 10
24.40000000000001
 20
28.29999999999994
 30
0.0
 11
24.40000000000001
 21
-22.80000000000005
 31
0.0
  0
LINE
  5
474
330
1F
100
AcDbEntity
  8
1
  6
CONTINUOUS
 62
     7
100
AcDbLine
 10
4.00000000000002
 20
-31.9
 30
0.0
 11
1.00000000000002
 21
-35.47526077778264
 31
0.0
  0
LINE
  5
475
330
1F
100
AcDbEntity
  8
1
  6
CONTINUOUS
 62
     7
100
AcDbLine
 10
1.00000000000002
 20
-35.47526077778264
 30
0.0
 11
-2.0
 21
-31.9
 31
0.0
  0
LINE
  5
476
330
1F
100
AcDbEntity
  8
1
  6
CONTINUOUS
 62
     7
100
AcDbLine
 10
-2.0
 20
-31.9
 30
0.0
 11
4.00000000000002
 21
-31.9
 31
0.0
  0
LINE
  5
477
330
1F
100
AcDbEntity
  8
1
  6
CONTINUOUS
 62
     7
100
AcDbLine
 10
-5.99999999999998
 20
-34.90000000000001
 30
0.0
 11
-11.99999999999999
 21
-34.90000000000001
 31
0.0
  0
LINE
  5
478
330
1F
100
AcDbEntity
  8
1
  6
CONTINUOUS
 62
     7
100
AcDbLine
 10
-9.0
 20
-31.32473922221737
 30
0.0
 11
-5.99999999999998
 21
-34.90000000000001
 31
0.0
  0
LINE
  5
479
330
1F
100
AcDbEntity
  8
1
  6
CONTINUOUS
 62
     7
100
AcDbLine
 10
-11.99999999999999
 20
-34.90000000000001
 30
0.0
 11
-9.0
 21
-31.32473922221737
 31
0.0
  0
LINE
  5
47A
330
1F
100
AcDbEntity
  8
1
  6
CONTINUOUS
 62
     7
100
AcDbLine
 10
24.5
 20
33.69990000000001
 30
0.0
 11
-12.5
 21
33.69990000000001
 31
0.0
  0
LINE
  5
47B
330
1F
100
AcDbEntity
  8
1
  6
CONTINUOUS
 62
     7
100
AcDbLine
 10
27.00000000000003
 20
-46.5
 30
0.0
 11
27.0
 21
31.19990000000001
 31
0.0
  0
LINE
  5
47C
330
1F
100
AcDbEntity
  8
1
  6
CONTINUOUS
 62
     7
100
AcDbLine
 10
-13.5
 20
31.19990000000003
 30
0.0
 11
-13.49999999999999
 21
-26.99999999999995
 31
0.0
  0
LINE
  5
47D
330
1F
100
AcDbEntity
  8
1
  6
CONTINUOUS
 62
     7
100
AcDbLine
 10
24.5
 20
32.19990000000003
 30
0.0
 11
-12.49999999999999
 21
32.19990000000003
 31
0.0
  0
LINE
  5
47E
330
1F
100
AcDbEntity
  8
1
  6
CONTINUOUS
 62
     7
100
AcDbLine
 10
25.5
 20
-26.99999999999994
 30
0.0
 11
25.5
 21
31.19990000000003
 31
0.0
  0
LINE
  5
47F
330
1F
100
AcDbEntity
  8
1
  6
CONTINUOUS
 62
     7
100
AcDbLine
 10
-12.5
 20
-27.99999999999994
 30
0.0
 11
24.5
 21
-27.99999999999994
 31
0.0
  0
LINE
  5
480
330
1F
100
AcDbEntity
  8
1
  6
CONTINUOUS
 62
     7
100
AcDbLine
 10
7.49999999999995
 20
-30.0
 30
0.0
 11
7.49999999999995
 21
-36.0
 31
0.0
  0
LINE
  5
481
330
1F
100
AcDbEntity
  8
1
  6
CONTINUOUS
 62
     7
100
AcDbLine
 10
8.49999999999995
 20
-37.0
 30
0.0
 11
24.49999999999996
 21
-37.0
 31
0.0
  0
LINE
  5
482
330
1F
100
AcDbEntity
  8
1
  6
CONTINUOUS
 62
     7
100
AcDbLine
 10
25.49999999999996
 20
-36.0
 30
0.0
 11
25.49999999999996
 21
-30.0
 31
0.0
  0
LINE
  5
483
330
1F
100
AcDbEntity
  8
1
  6
CONTINUOUS
 62
     7
100
AcDbLine
 10
24.49999999999996
 20
-29.0
 30
0.0
 11
8.49999999999982
 21
-29.0
 31
0.0
  0
LINE
  5
484
330
1F
100
AcDbEntity
  8
1
  6
CONTINUOUS
 62
     7
100
AcDbLine
 10
3.49999999999995
 20
-40.0
 30
0.0
 11
-12.50000000000005
 21
-40.0
 31
0.0
  0
LINE
  5
485
330
1F
100
AcDbEntity
  8
1
  6
CONTINUOUS
 62
     7
100
AcDbLine
 10
-13.50000000000005
 20
-41.0
 30
0.0
 11
-13.50000000000005
 21
-47.0
 31
0.0
  0
LINE
  5
486
330
1F
100
AcDbEntity
  8
1
  6
CONTINUOUS
 62
     7
100
AcDbLine
 10
-12.50000000000005
 20
-48.0
 30
0.0
 11
3.49999999999995
 21
-48.0
 31
0.0
  0
LINE
  5
487
330
1F
100
AcDbEntity
  8
1
  6
CONTINUOUS
 62
     7
100
AcDbLine
 10
4.49999999999995
 20
-47.0
 30
0.0
 11
4.49999999999995
 21
-41.0
 31
0.0
  0
LINE
  5
488
330
1F
100
AcDbEntity
  8
1
  6
CONTINUOUS
 62
     7
100
AcDbLine
 10
74.5
 20
-57.00000000000006
 30
0.0
 11
74.5
 21
39.0
 31
0.0
  0
LINE
  5
489
330
1F
100
AcDbEntity
  8
1
  6
CONTINUOUS
 62
     7
100
AcDbLine
 10
73.0
 20
-57.00000000000006
 30
0.0
 11
74.5
 21
-57.00000000000006
 31
0.0
  0
LINE
  5
48A
330
1F
100
AcDbEntity
  8
1
  6
CONTINUOUS
 62
     7
100
AcDbLine
 10
73.0
 20
39.0
 30
0.0
 11
74.5
 21
39.0
 31
0.0
  0
LINE
  5
48B
330
1F
100
AcDbEntity
  8
1
  6
CONTINUOUS
 62
     7
100
AcDbLine
 10
63.00000000000001
 20
38.19809375960232
 30
0.0
 11
63.00000000000001
 21
-56.1980937596023
 31
0.0
  0
LINE
  5
48C
330
1F
100
AcDbEntity
  8
1
  6
CONTINUOUS
 62
     7
100
AcDbLine
 10
67.80000000000007
 20
-56.99999999999999
 30
0.0
 11
63.46512176312798
 21
-56.69687578473221
 31
0.0
  0
LINE
  5
48D
330
1F
100
AcDbEntity
  8
1
  6
CONTINUOUS
 62
     7
100
AcDbLine
 10
63.46512176312798
 20
38.69687578473223
 30
0.0
 11
67.80000000000007
 21
39.0
 31
0.0
  0
LINE
  5
48E
330
1F
100
AcDbEntity
  8
1
  6
CONTINUOUS
 62
     7
100
AcDbLine
 10
0.49999999999989
 20
-57.0
 30
0.0
 11
-17.00000000000011
 21
-57.0
 31
0.0
  0
LINE
  5
48F
330
1F
100
AcDbEntity
  8
1
  6
CONTINUOUS
 62
     7
100
AcDbLine
 10
29.0
 20
-57.0
 30
0.0
 11
11.49999999999989
 21
-57.0
 31
0.0
  0
LINE
  5
490
330
1F
100
AcDbEntity
  8
1
  6
CONTINUOUS
 62
     7
100
AcDbLine
 10
11.49999999999989
 20
-57.0
 30
0.0
 11
11.49999999999989
 21
-55.59999999999999
 31
0.0
  0
LINE
  5
491
330
1F
100
AcDbEntity
  8
1
  6
CONTINUOUS
 62
     7
100
AcDbLine
 10
0.49999999999989
 20
-57.0
 30
0.0
 11
0.49999999999989
 21
-55.59999999999999
 31
0.0
  0
LINE
  5
492
330
1F
100
AcDbEntity
  8
1
  6
CONTINUOUS
 62
     7
100
AcDbLine
 10
0.49999999999989
 20
37.59999999999999
 30
0.0
 11
0.49999999999989
 21
39.0
 31
0.0
  0
LINE
  5
493
330
1F
100
AcDbEntity
  8
1
  6
CONTINUOUS
 62
     7
100
AcDbLine
 10
11.49999999999989
 20
39.0
 30
0.0
 11
29.0
 21
39.0
 31
0.0
  0
LINE
  5
494
330
1F
100
AcDbEntity
  8
1
  6
CONTINUOUS
 62
     7
100
AcDbLine
 10
11.49999999999989
 20
37.59999999999999
 30
0.0
 11
11.49999999999989
 21
39.0
 31
0.0
  0
LINE
  5
495
330
1F
100
AcDbEntity
  8
1
  6
CONTINUOUS
 62
     7
100
AcDbLine
 10
-16.99999999999999
 20
39.0
 30
0.0
 11
0.49999999999989
 21
39.0
 31
0.0
  0
LINE
  5
496
330
1F
100
AcDbEntity
  8
1
  6
CONTINUOUS
 62
     7
100
AcDbLine
 10
-18.00000000000011
 20
38.0
 30
0.0
 11
-17.99999999999999
 21
-56.0
 31
0.0
  0
LINE
  5
497
330
1F
100
AcDbEntity
  8
1
  6
CONTINUOUS
 62
     7
100
AcDbLine
 10
30.0
 20
-56.0
 30
0.0
 11
30.0
 21
38.0
 31
0.0
  0
LINE
  5
498
330
1F
100
AcDbEntity
  8
1
  6
CONTINUOUS
 62
     7
100
AcDbLine
 10
-16.00000000000011
 20
35.5
 30
0.0
 11
28.0
 21
35.5
 31
0.0
  0
LINE
  5
499
330
1F
100
AcDbEntity
  8
1
  6
CONTINUOUS
 62
     7
100
AcDbLine
 10
28.0
 20
35.5
 30
0.0
 11
28.0
 21
-53.5
 31
0.0
  0
LINE
  5
49A
330
1F
100
AcDbEntity
  8
1
  6
CONTINUOUS
 62
     7
100
AcDbLine
 10
28.0
 20
-53.5
 30
0.0
 11
-16.00000000000011
 21
-53.5
 31
0.0
  0
LINE
  5
49B
330
1F
100
AcDbEntity
  8
1
  6
CONTINUOUS
 62
     7
100
AcDbLine
 10
-16.00000000000011
 20
-53.5
 30
0.0
 11
-16.00000000000011
 21
35.5
 31
0.0
  0
LINE
  5
49C
330
1F
100
AcDbEntity
  8
1
  6
CONTINUOUS
 62
     7
100
AcDbLine
 10
67.80000000000007
 20
-56.99999999999999
 30
0.0
 11
67.80000000000007
 21
39.0
 31
0.0
  0
LINE
  5
49D
330
1F
100
AcDbEntity
  8
1
  6
CONTINUOUS
 62
     7
100
AcDbLine
 10
0.49999999999989
 20
37.59999999999999
 30
0.0
 11
11.49999999999989
 21
37.59999999999999
 31
0.0
  0
LINE
  5
49E
330
1F
100
AcDbEntity
  8
1
  6
CONTINUOUS
 62
     7
100
AcDbLine
 10
11.49999999999989
 20
39.0
 30
0.0
 11
0.49999999999989
 21
39.0
 31
0.0
  0
LINE
  5
49F
330
1F
100
AcDbEntity
  8
1
  6
CONTINUOUS
 62
     7
100
AcDbLine
 10
0.49999999999989
 20
-55.59999999999999
 30
0.0
 11
11.49999999999989
 21
-55.59999999999999
 31
0.0
  0
LINE
  5
4A0
330
1F
100
AcDbEntity
  8
1
  6
CONTINUOUS
 62
     7
100
AcDbLine
 10
0.49999999999989
 20
-57.0
 30
0.0
 11
11.49999999999989
 21
-57.0
 31
0.0
  0
LINE
  5
4A1
330
1F
100
AcDbEntity
  8
1
  6
CONTINUOUS
 62
     7
100
AcDbLine
 10
101.5
 20
-42.50000000000006
 30
0.0
 11
103.0
 21
-44.00000000000006
 31
0.0
  0
LINE
  5
4A2
330
1F
100
AcDbEntity
  8
1
  6
CONTINUOUS
 62
     7
100
AcDbLine
 10
166.0861561236693
 20
-50.33005165290967
 30
0.0
 11
171.0
 21
-50.41582311681816
 31
0.0
  0
LINE
  5
4A3
330
1F
100
AcDbEntity
  8
1
  6
CONTINUOUS
 62
     7
100
AcDbLine
 10
172.5
 20
-53.00000000000006
 30
0.0
 11
171.0
 21
-53.00000000000006
 31
0.0
  0
LINE
  5
4A4
330
1F
100
AcDbEntity
  8
1
  6
CONTINUOUS
 62
     7
100
AcDbLine
 10
171.0
 20
-53.00000000000006
 30
0.0
 11
171.0
 21
-50.41582311681816
 31
0.0
  0
LINE
  5
4A5
330
1F
100
AcDbEntity
  8
1
  6
CONTINUOUS
 62
     7
100
AcDbLine
 10
173.0
 20
-52.50000000000006
 30
0.0
 11
173.0
 21
-50.45073324667459
 31
0.0
  0
LINE
  5
4A6
330
1F
100
AcDbEntity
  8
1
  6
CONTINUOUS
 62
     7
100
AcDbLine
 10
166.0861561236693
 20
-41.9300516529097
 30
0.0
 11
171.0
 21
-42.01582311681813
 31
0.0
  0
LINE
  5
4A7
330
1F
100
AcDbEntity
  8
1
  6
CONTINUOUS
 62
     7
100
AcDbLine
 10
171.5
 20
-43.17544935071788
 30
0.0
 11
171.0
 21
-43.18417688318203
 31
0.0
  0
LINE
  5
4A8
330
1F
100
AcDbEntity
  8
1
  6
CONTINUOUS
 62
     7
100
AcDbLine
 10
171.0
 20
-43.18417688318203
 30
0.0
 11
171.0
 21
-42.01582311681813
 31
0.0
  0
LINE
  5
4A9
330
1F
100
AcDbEntity
  8
1
  6
CONTINUOUS
 62
     7
100
AcDbLine
 10
173.0
 20
-43.14926675332555
 30
0.0
 11
173.0
 21
-42.05073324667461
 31
0.0
  0
LINE
  5
4AA
330
1F
100
AcDbEntity
  8
1
  6
CONTINUOUS
 62
     7
100
AcDbLine
 10
166.0861561236693
 20
-33.53005165290966
 30
0.0
 11
171.0
 21
-33.61582311681815
 31
0.0
  0
LINE
  5
4AB
330
1F
100
AcDbEntity
  8
1
  6
CONTINUOUS
 62
     7
100
AcDbLine
 10
171.5
 20
-34.77544935071791
 30
0.0
 11
171.0
 21
-34.784176883182
 31
0.0
  0
LINE
  5
4AC
330
1F
100
AcDbEntity
  8
1
  6
CONTINUOUS
 62
     7
100
AcDbLine
 10
171.0
 20
-34.784176883182
 30
0.0
 11
171.0
 21
-33.61582311681815
 31
0.0
  0
LINE
  5
4AD
330
1F
100
AcDbEntity
  8
1
  6
CONTINUOUS
 62
     7
100
AcDbLine
 10
173.0
 20
-34.74926675332557
 30
0.0
 11
173.0
 21
-33.65073324667458
 31
0.0
  0
LINE
  5
4AE
330
1F
100
AcDbEntity
  8
1
  6
CONTINUOUS
 62
     7
100
AcDbLine
 10
166.0861561236693
 20
-25.13005165290969
 30
0.0
 11
171.0
 21
-25.21582311681817
 31
0.0
  0
LINE
  5
4AF
330
1F
100
AcDbEntity
  8
1
  6
CONTINUOUS
 62
     7
100
AcDbLine
 10
171.5
 20
-26.37544935071787
 30
0.0
 11
171.0
 21
-26.38417688318202
 31
0.0
  0
LINE
  5
4B0
330
1F
100
AcDbEntity
  8
1
  6
CONTINUOUS
 62
     7
100
AcDbLine
 10
171.0
 20
-26.38417688318202
 30
0.0
 11
171.0
 21
-25.21582311681817
 31
0.0
  0
LINE
  5
4B1
330
1F
100
AcDbEntity
  8
1
  6
CONTINUOUS
 62
     7
100
AcDbLine
 10
173.0
 20
-26.34926675332559
 30
0.0
 11
173.0
 21
-25.2507332466746
 31
0.0
  0
LINE
  5
4B2
330
1F
100
AcDbEntity
  8
1
  6
CONTINUOUS
 62
     7
100
AcDbLine
 10
166.0861561236693
 20
-16.73005165290971
 30
0.0
 11
171.0
 21
-16.81582311681814
 31
0.0
  0
LINE
  5
4B3
330
1F
100
AcDbEntity
  8
1
  6
CONTINUOUS
 62
     7
100
AcDbLine
 10
171.5
 20
-17.9754493507179
 30
0.0
 11
171.0
 21
-17.98417688318199
 31
0.0
  0
LINE
  5
4B4
330
1F
100
AcDbEntity
  8
1
  6
CONTINUOUS
 62
     7
100
AcDbLine
 10
171.0
 20
-17.98417688318199
 30
0.0
 11
171.0
 21
-16.81582311681814
 31
0.0
  0
LINE
  5
4B5
330
1F
100
AcDbEntity
  8
1
  6
CONTINUOUS
 62
     7
100
AcDbLine
 10
173.0
 20
-17.94926675332556
 30
0.0
 11
173.0
 21
-16.85073324667457
 31
0.0
  0
LINE
  5
4B6
330
1F
100
AcDbEntity
  8
1
  6
CONTINUOUS
 62
     7
100
AcDbLine
 10
166.0861561236693
 20
-8.33005165290967
 30
0.0
 11
171.0
 21
-8.41582311681816
 31
0.0
  0
LINE
  5
4B7
330
1F
100
AcDbEntity
  8
1
  6
CONTINUOUS
 62
     7
100
AcDbLine
 10
171.5
 20
-9.57544935071792
 30
0.0
 11
171.0
 21
-9.58417688318201
 31
0.0
  0
LINE
  5
4B8
330
1F
100
AcDbEntity
  8
1
  6
CONTINUOUS
 62
     7
100
AcDbLine
 10
171.0
 20
-9.58417688318201
 30
0.0
 11
171.0
 21
-8.41582311681816
 31
0.0
  0
LINE
  5
4B9
330
1F
100
AcDbEntity
  8
1
  6
CONTINUOUS
 62
     7
100
AcDbLine
 10
173.0
 20
-9.54926675332558
 30
0.0
 11
173.0
 21
-8.45073324667459
 31
0.0
  0
LINE
  5
4BA
330
1F
100
AcDbEntity
  8
1
  6
CONTINUOUS
 62
     7
100
AcDbLine
 10
166.0861561236693
 20
0.06994834709025
 30
0.0
 11
171.0
 21
-0.01582311681813
 31
0.0
  0
LINE
  5
4BB
330
1F
100
AcDbEntity
  8
1
  6
CONTINUOUS
 62
     7
100
AcDbLine
 10
171.5
 20
-1.17544935071794
 30
0.0
 11
171.0
 21
-1.18417688318203
 31
0.0
  0
LINE
  5
4BC
330
1F
100
AcDbEntity
  8
1
  6
CONTINUOUS
 62
     7
100
AcDbLine
 10
171.0
 20
-1.18417688318203
 30
0.0
 11
171.0
 21
-0.01582311681813
 31
0.0
  0
LINE
  5
4BD
330
1F
100
AcDbEntity
  8
1
  6
CONTINUOUS
 62
     7
100
AcDbLine
 10
173.0
 20
-1.1492667533256
 30
0.0
 11
173.0
 21
-0.05073324667461
 31
0.0
  0
LINE
  5
4BE
330
1F
100
AcDbEntity
  8
1
  6
CONTINUOUS
 62
     7
100
AcDbLine
 10
166.0861561236693
 20
8.46994834709028
 30
0.0
 11
171.0
 21
8.38417688318185
 31
0.0
  0
LINE
  5
4BF
330
1F
100
AcDbEntity
  8
1
  6
CONTINUOUS
 62
     7
100
AcDbLine
 10
171.5
 20
7.22455064928209
 30
0.0
 11
171.0
 21
7.21582311681794
 31
0.0
  0
LINE
  5
4C0
330
1F
100
AcDbEntity
  8
1
  6
CONTINUOUS
 62
     7
100
AcDbLine
 10
171.0
 20
7.21582311681794
 30
0.0
 11
171.0
 21
8.38417688318185
 31
0.0
  0
LINE
  5
4C1
330
1F
100
AcDbEntity
  8
1
  6
CONTINUOUS
 62
     7
100
AcDbLine
 10
173.0
 20
7.25073324667437
 30
0.0
 11
173.0
 21
8.34926675332537
 31
0.0
  0
LINE
  5
4C2
330
1F
100
AcDbEntity
  8
1
  6
CONTINUOUS
 62
     7
100
AcDbLine
 10
166.0861561236693
 20
16.86994834709026
 30
0.0
 11
171.0
 21
16.78417688318189
 31
0.0
  0
LINE
  5
4C3
330
1F
100
AcDbEntity
  8
1
  6
CONTINUOUS
 62
     7
100
AcDbLine
 10
171.5
 20
15.62455064928207
 30
0.0
 11
171.0
 21
15.61582311681798
 31
0.0
  0
LINE
  5
4C4
330
1F
100
AcDbEntity
  8
1
  6
CONTINUOUS
 62
     7
100
AcDbLine
 10
171.0
 20
15.61582311681798
 30
0.0
 11
171.0
 21
16.78417688318189
 31
0.0
  0
LINE
  5
4C5
330
1F
100
AcDbEntity
  8
1
  6
CONTINUOUS
 62
     7
100
AcDbLine
 10
173.0
 20
15.65073324667441
 30
0.0
 11
173.0
 21
16.74926675332534
 31
0.0
  0
LINE
  5
4C6
330
1F
100
AcDbEntity
  8
1
  6
CONTINUOUS
 62
     7
100
AcDbLine
 10
166.0861561236693
 20
25.26994834709029
 30
0.0
 11
171.0
 21
25.18417688318186
 31
0.0
  0
LINE
  5
4C7
330
1F
100
AcDbEntity
  8
1
  6
CONTINUOUS
 62
     7
100
AcDbLine
 10
171.5
 20
24.02455064928211
 30
0.0
 11
171.0
 21
24.01582311681796
 31
0.0
  0
LINE
  5
4C8
330
1F
100
AcDbEntity
  8
1
  6
CONTINUOUS
 62
     7
100
AcDbLine
 10
171.0
 20
24.01582311681796
 30
0.0
 11
171.0
 21
25.18417688318186
 31
0.0
  0
LINE
  5
4C9
330
1F
100
AcDbEntity
  8
1
  6
CONTINUOUS
 62
     7
100
AcDbLine
 10
173.0
 20
24.0507332466745
 30
0.0
 11
173.0
 21
25.14926675332538
 31
0.0
  0
LINE
  5
4CA
330
1F
100
AcDbEntity
  8
1
  6
CONTINUOUS
 62
     7
100
AcDbLine
 10
171.5
 20
32.4245506492822
 30
0.0
 11
171.0
 21
32.41582311681799
 31
0.0
  0
LINE
  5
4CB
330
1F
100
AcDbEntity
  8
1
  6
CONTINUOUS
 62
     7
100
AcDbLine
 10
172.5
 20
35.0
 30
0.0
 11
171.0
 21
35.0
 31
0.0
  0
LINE
  5
4CC
330
1F
100
AcDbEntity
  8
1
  6
CONTINUOUS
 62
     7
100
AcDbLine
 10
171.0
 20
32.41582311681799
 30
0.0
 11
171.0
 21
35.0
 31
0.0
  0
LINE
  5
4CD
330
1F
100
AcDbEntity
  8
1
  6
CONTINUOUS
 62
     7
100
AcDbLine
 10
173.0
 20
32.45073324667447
 30
0.0
 11
173.0
 21
34.5
 31
0.0
  0
LINE
  5
4CE
330
1F
100
AcDbEntity
  8
1
  6
CONTINUOUS
 62
     7
100
AcDbLine
 10
173.0
 20
32.45073324667447
 30
0.0
 11
171.5
 21
32.4245506492822
 31
0.0
  0
LINE
  5
4CF
330
1F
100
AcDbEntity
  8
1
  6
CONTINUOUS
 62
     7
100
AcDbLine
 10
171.0
 20
25.18417688318186
 30
0.0
 11
171.5
 21
25.17544935071777
 31
0.0
  0
LINE
  5
4D0
330
1F
100
AcDbEntity
  8
1
  6
CONTINUOUS
 62
     7
100
AcDbLine
 10
166.0861561236693
 20
32.3300516529095
 30
0.0
 11
165.5
 21
32.3198202597128
 31
0.0
  0
LINE
  5
4D1
330
1F
100
AcDbEntity
  8
1
  6
CONTINUOUS
 62
     7
100
AcDbLine
 10
166.0861561236693
 20
25.26994834709029
 30
0.0
 11
166.0861561236693
 21
32.3300516529095
 31
0.0
  0
LINE
  5
4D2
330
1F
100
AcDbEntity
  8
1
  6
CONTINUOUS
 62
     7
100
AcDbLine
 10
171.0
 20
32.41582311681799
 30
0.0
 11
166.0861561236693
 21
32.3300516529095
 31
0.0
  0
LINE
  5
4D3
330
1F
100
AcDbEntity
  8
1
  6
CONTINUOUS
 62
     7
100
AcDbLine
 10
171.5
 20
25.17544935071777
 30
0.0
 11
173.0
 21
25.14926675332538
 31
0.0
  0
LINE
  5
4D4
330
1F
100
AcDbEntity
  8
1
  6
CONTINUOUS
 62
     7
100
AcDbLine
 10
171.5
 20
16.77544935071779
 30
0.0
 11
173.0
 21
16.74926675332534
 31
0.0
  0
LINE
  5
4D5
330
1F
100
AcDbEntity
  8
1
  6
CONTINUOUS
 62
     7
100
AcDbLine
 10
171.0
 20
24.01582311681796
 30
0.0
 11
166.0861561236693
 21
23.93005165290947
 31
0.0
  0
LINE
  5
4D6
330
1F
100
AcDbEntity
  8
1
  6
CONTINUOUS
 62
     7
100
AcDbLine
 10
166.0861561236693
 20
16.86994834709026
 30
0.0
 11
166.0861561236693
 21
23.93005165290947
 31
0.0
  0
LINE
  5
4D7
330
1F
100
AcDbEntity
  8
1
  6
CONTINUOUS
 62
     7
100
AcDbLine
 10
171.0
 20
16.78417688318189
 30
0.0
 11
171.5
 21
16.77544935071779
 31
0.0
  0
LINE
  5
4D8
330
1F
100
AcDbEntity
  8
1
  6
CONTINUOUS
 62
     7
100
AcDbLine
 10
173.0
 20
24.0507332466745
 30
0.0
 11
171.5
 21
24.02455064928211
 31
0.0
  0
LINE
  5
4D9
330
1F
100
AcDbEntity
  8
1
  6
CONTINUOUS
 62
     7
100
AcDbLine
 10
166.0861561236693
 20
23.93005165290947
 30
0.0
 11
165.5
 21
23.91982025971277
 31
0.0
  0
LINE
  5
4DA
330
1F
100
AcDbEntity
  8
1
  6
CONTINUOUS
 62
     7
100
AcDbLine
 10
173.0
 20
15.65073324667441
 30
0.0
 11
171.5
 21
15.62455064928207
 31
0.0
  0
LINE
  5
4DB
330
1F
100
AcDbEntity
  8
1
  6
CONTINUOUS
 62
     7
100
AcDbLine
 10
171.0
 20
8.38417688318185
 30
0.0
 11
171.5
 21
8.37544935071776
 31
0.0
  0
LINE
  5
4DC
330
1F
100
AcDbEntity
  8
1
  6
CONTINUOUS
 62
     7
100
AcDbLine
 10
166.0861561236693
 20
15.53005165290949
 30
0.0
 11
165.5
 21
15.51982025971279
 31
0.0
  0
LINE
  5
4DD
330
1F
100
AcDbEntity
  8
1
  6
CONTINUOUS
 62
     7
100
AcDbLine
 10
166.0861561236693
 20
8.46994834709028
 30
0.0
 11
166.0861561236693
 21
15.53005165290949
 31
0.0
  0
LINE
  5
4DE
330
1F
100
AcDbEntity
  8
1
  6
CONTINUOUS
 62
     7
100
AcDbLine
 10
171.0
 20
15.61582311681798
 30
0.0
 11
166.0861561236693
 21
15.53005165290949
 31
0.0
  0
LINE
  5
4DF
330
1F
100
AcDbEntity
  8
1
  6
CONTINUOUS
 62
     7
100
AcDbLine
 10
171.5
 20
8.37544935071776
 30
0.0
 11
173.0
 21
8.34926675332537
 31
0.0
  0
LINE
  5
4E0
330
1F
100
AcDbEntity
  8
1
  6
CONTINUOUS
 62
     7
100
AcDbLine
 10
171.5
 20
-0.02455064928222
 30
0.0
 11
173.0
 21
-0.05073324667461
 31
0.0
  0
LINE
  5
4E1
330
1F
100
AcDbEntity
  8
1
  6
CONTINUOUS
 62
     7
100
AcDbLine
 10
171.0
 20
7.21582311681794
 30
0.0
 11
166.0861561236693
 21
7.13005165290957
 31
0.0
  0
LINE
  5
4E2
330
1F
100
AcDbEntity
  8
1
  6
CONTINUOUS
 62
     7
100
AcDbLine
 10
166.0861561236693
 20
0.06994834709025
 30
0.0
 11
166.0861561236693
 21
7.13005165290957
 31
0.0
  0
LINE
  5
4E3
330
1F
100
AcDbEntity
  8
1
  6
CONTINUOUS
 62
     7
100
AcDbLine
 10
171.0
 20
-0.01582311681813
 30
0.0
 11
171.5
 21
-0.02455064928222
 31
0.0
  0
LINE
  5
4E4
330
1F
100
AcDbEntity
  8
1
  6
CONTINUOUS
 62
     7
100
AcDbLine
 10
173.0
 20
7.25073324667437
 30
0.0
 11
171.5
 21
7.22455064928209
 31
0.0
  0
LINE
  5
4E5
330
1F
100
AcDbEntity
  8
1
  6
CONTINUOUS
 62
     7
100
AcDbLine
 10
166.0861561236693
 20
7.13005165290957
 30
0.0
 11
165.5
 21
7.11982025971275
 31
0.0
  0
LINE
  5
4E6
330
1F
100
AcDbEntity
  8
1
  6
CONTINUOUS
 62
     7
100
AcDbLine
 10
173.0
 20
-1.1492667533256
 30
0.0
 11
171.5
 21
-1.17544935071794
 31
0.0
  0
LINE
  5
4E7
330
1F
100
AcDbEntity
  8
1
  6
CONTINUOUS
 62
     7
100
AcDbLine
 10
171.0
 20
-8.41582311681816
 30
0.0
 11
171.5
 21
-8.42455064928225
 31
0.0
  0
LINE
  5
4E8
330
1F
100
AcDbEntity
  8
1
  6
CONTINUOUS
 62
     7
100
AcDbLine
 10
166.0861561236693
 20
-1.26994834709052
 30
0.0
 11
165.5
 21
-1.28017974028722
 31
0.0
  0
LINE
  5
4E9
330
1F
100
AcDbEntity
  8
1
  6
CONTINUOUS
 62
     7
100
AcDbLine
 10
166.0861561236693
 20
-8.33005165290967
 30
0.0
 11
166.0861561236693
 21
-1.26994834709052
 31
0.0
  0
LINE
  5
4EA
330
1F
100
AcDbEntity
  8
1
  6
CONTINUOUS
 62
     7
100
AcDbLine
 10
171.0
 20
-1.18417688318203
 30
0.0
 11
166.0861561236693
 21
-1.26994834709052
 31
0.0
  0
LINE
  5
4EB
330
1F
100
AcDbEntity
  8
1
  6
CONTINUOUS
 62
     7
100
AcDbLine
 10
171.5
 20
-8.42455064928225
 30
0.0
 11
173.0
 21
-8.45073324667459
 31
0.0
  0
LINE
  5
4EC
330
1F
100
AcDbEntity
  8
1
  6
CONTINUOUS
 62
     7
100
AcDbLine
 10
171.5
 20
-16.82455064928223
 30
0.0
 11
173.0
 21
-16.85073324667457
 31
0.0
  0
LINE
  5
4ED
330
1F
100
AcDbEntity
  8
1
  6
CONTINUOUS
 62
     7
100
AcDbLine
 10
171.0
 20
-9.58417688318201
 30
0.0
 11
166.0861561236693
 21
-9.6699483470905
 31
0.0
  0
LINE
  5
4EE
330
1F
100
AcDbEntity
  8
1
  6
CONTINUOUS
 62
     7
100
AcDbLine
 10
166.0861561236693
 20
-16.73005165290971
 30
0.0
 11
166.0861561236693
 21
-9.6699483470905
 31
0.0
  0
LINE
  5
4EF
330
1F
100
AcDbEntity
  8
1
  6
CONTINUOUS
 62
     7
100
AcDbLine
 10
171.0
 20
-16.81582311681814
 30
0.0
 11
171.5
 21
-16.82455064928223
 31
0.0
  0
LINE
  5
4F0
330
1F
100
AcDbEntity
  8
1
  6
CONTINUOUS
 62
     7
100
AcDbLine
 10
173.0
 20
-9.54926675332558
 30
0.0
 11
171.5
 21
-9.57544935071792
 31
0.0
  0
LINE
  5
4F1
330
1F
100
AcDbEntity
  8
1
  6
CONTINUOUS
 62
     7
100
AcDbLine
 10
166.0861561236693
 20
-9.6699483470905
 30
0.0
 11
165.5
 21
-9.6801797402872
 31
0.0
  0
LINE
  5
4F2
330
1F
100
AcDbEntity
  8
1
  6
CONTINUOUS
 62
     7
100
AcDbLine
 10
173.0
 20
-17.94926675332556
 30
0.0
 11
171.5
 21
-17.9754493507179
 31
0.0
  0
LINE
  5
4F3
330
1F
100
AcDbEntity
  8
1
  6
CONTINUOUS
 62
     7
100
AcDbLine
 10
171.0
 20
-25.21582311681817
 30
0.0
 11
171.5
 21
-25.22455064928226
 31
0.0
  0
LINE
  5
4F4
330
1F
100
AcDbEntity
  8
1
  6
CONTINUOUS
 62
     7
100
AcDbLine
 10
166.0861561236693
 20
-18.06994834709047
 30
0.0
 11
165.5
 21
-18.08017974028718
 31
0.0
  0
LINE
  5
4F5
330
1F
100
AcDbEntity
  8
1
  6
CONTINUOUS
 62
     7
100
AcDbLine
 10
166.0861561236693
 20
-25.13005165290969
 30
0.0
 11
166.0861561236693
 21
-18.06994834709047
 31
0.0
  0
LINE
  5
4F6
330
1F
100
AcDbEntity
  8
1
  6
CONTINUOUS
 62
     7
100
AcDbLine
 10
171.0
 20
-17.98417688318199
 30
0.0
 11
166.0861561236693
 21
-18.06994834709047
 31
0.0
  0
LINE
  5
4F7
330
1F
100
AcDbEntity
  8
1
  6
CONTINUOUS
 62
     7
100
AcDbLine
 10
171.5
 20
-25.22455064928226
 30
0.0
 11
173.0
 21
-25.2507332466746
 31
0.0
  0
LINE
  5
4F8
330
1F
100
AcDbEntity
  8
1
  6
CONTINUOUS
 62
     7
100
AcDbLine
 10
171.5
 20
-33.62455064928224
 30
0.0
 11
173.0
 21
-33.65073324667458
 31
0.0
  0
LINE
  5
4F9
330
1F
100
AcDbEntity
  8
1
  6
CONTINUOUS
 62
     7
100
AcDbLine
 10
171.0
 20
-26.38417688318202
 30
0.0
 11
166.0861561236693
 21
-26.46994834709045
 31
0.0
  0
LINE
  5
4FA
330
1F
100
AcDbEntity
  8
1
  6
CONTINUOUS
 62
     7
100
AcDbLine
 10
166.0861561236693
 20
-33.53005165290966
 30
0.0
 11
166.0861561236693
 21
-26.46994834709045
 31
0.0
  0
LINE
  5
4FB
330
1F
100
AcDbEntity
  8
1
  6
CONTINUOUS
 62
     7
100
AcDbLine
 10
171.0
 20
-33.61582311681815
 30
0.0
 11
171.5
 21
-33.62455064928224
 31
0.0
  0
LINE
  5
4FC
330
1F
100
AcDbEntity
  8
1
  6
CONTINUOUS
 62
     7
100
AcDbLine
 10
173.0
 20
-26.34926675332559
 30
0.0
 11
171.5
 21
-26.37544935071787
 31
0.0
  0
LINE
  5
4FD
330
1F
100
AcDbEntity
  8
1
  6
CONTINUOUS
 62
     7
100
AcDbLine
 10
166.0861561236693
 20
-26.46994834709045
 30
0.0
 11
165.5
 21
-26.48017974028721
 31
0.0
  0
LINE
  5
4FE
330
1F
100
AcDbEntity
  8
1
  6
CONTINUOUS
 62
     7
100
AcDbLine
 10
173.0
 20
-34.74926675332557
 30
0.0
 11
171.5
 21
-34.77544935071791
 31
0.0
  0
LINE
  5
4FF
330
1F
100
AcDbEntity
  8
1
  6
CONTINUOUS
 62
     7
100
AcDbLine
 10
171.0
 20
-42.01582311681813
 30
0.0
 11
171.5
 21
-42.02455064928228
 31
0.0
  0
LINE
  5
500
330
1F
100
AcDbEntity
  8
1
  6
CONTINUOUS
 62
     7
100
AcDbLine
 10
166.0861561236693
 20
-34.86994834709049
 30
0.0
 11
165.5
 21
-34.88017974028719
 31
0.0
  0
LINE
  5
501
330
1F
100
AcDbEntity
  8
1
  6
CONTINUOUS
 62
     7
100
AcDbLine
 10
166.0861561236693
 20
-41.9300516529097
 30
0.0
 11
166.0861561236693
 21
-34.86994834709049
 31
0.0
  0
LINE
  5
502
330
1F
100
AcDbEntity
  8
1
  6
CONTINUOUS
 62
     7
100
AcDbLine
 10
171.0
 20
-34.784176883182
 30
0.0
 11
166.0861561236693
 21
-34.86994834709049
 31
0.0
  0
LINE
  5
503
330
1F
100
AcDbEntity
  8
1
  6
CONTINUOUS
 62
     7
100
AcDbLine
 10
171.5
 20
-42.02455064928228
 30
0.0
 11
173.0
 21
-42.05073324667461
 31
0.0
  0
LINE
  5
504
330
1F
100
AcDbEntity
  8
1
  6
CONTINUOUS
 62
     7
100
AcDbLine
 10
171.5
 20
-50.42455064928225
 30
0.0
 11
173.0
 21
-50.45073324667459
 31
0.0
  0
LINE
  5
505
330
1F
100
AcDbEntity
  8
1
  6
CONTINUOUS
 62
     7
100
AcDbLine
 10
171.0
 20
-43.18417688318203
 30
0.0
 11
166.0861561236693
 21
-43.26994834709046
 31
0.0
  0
LINE
  5
506
330
1F
100
AcDbEntity
  8
1
  6
CONTINUOUS
 62
     7
100
AcDbLine
 10
166.0861561236693
 20
-50.33005165290967
 30
0.0
 11
166.0861561236693
 21
-43.26994834709046
 31
0.0
  0
LINE
  5
507
330
1F
100
AcDbEntity
  8
1
  6
CONTINUOUS
 62
     7
100
AcDbLine
 10
161.5
 20
-54.50000000000006
 30
0.0
 11
172.5
 21
-54.50000000000006
 31
0.0
  0
LINE
  5
508
330
1F
100
AcDbEntity
  8
1
  6
CONTINUOUS
 62
     7
100
AcDbLine
 10
172.5
 20
-54.50000000000006
 30
0.0
 11
173.0
 21
-54.00000000000006
 31
0.0
  0
LINE
  5
509
330
1F
100
AcDbEntity
  8
1
  6
CONTINUOUS
 62
     7
100
AcDbLine
 10
173.0
 20
-54.00000000000006
 30
0.0
 11
173.0
 21
-52.50000000000006
 31
0.0
  0
LINE
  5
50A
330
1F
100
AcDbEntity
  8
1
  6
CONTINUOUS
 62
     7
100
AcDbLine
 10
173.0
 20
34.5
 30
0.0
 11
173.0
 21
36.0
 31
0.0
  0
LINE
  5
50B
330
1F
100
AcDbEntity
  8
1
  6
CONTINUOUS
 62
     7
100
AcDbLine
 10
173.0
 20
36.0
 30
0.0
 11
172.5
 21
36.5
 31
0.0
  0
LINE
  5
50C
330
1F
100
AcDbEntity
  8
1
  6
CONTINUOUS
 62
     7
100
AcDbLine
 10
172.5
 20
36.5
 30
0.0
 11
161.5
 21
36.5
 31
0.0
  0
LINE
  5
50D
330
1F
100
AcDbEntity
  8
1
  6
CONTINUOUS
 62
     7
100
AcDbLine
 10
171.0
 20
-50.41582311681816
 30
0.0
 11
171.5
 21
-50.42455064928225
 31
0.0
  0
LINE
  5
50E
330
1F
100
AcDbEntity
  8
1
  6
CONTINUOUS
 62
     7
100
AcDbLine
 10
171.0
 20
-53.00000000000006
 30
0.0
 11
165.5
 21
-53.00000000000006
 31
0.0
  0
LINE
  5
50F
330
1F
100
AcDbEntity
  8
1
  6
CONTINUOUS
 62
     7
100
AcDbLine
 10
173.0
 20
-43.14926675332555
 30
0.0
 11
171.5
 21
-43.17544935071788
 31
0.0
  0
LINE
  5
510
330
1F
100
AcDbEntity
  8
1
  6
CONTINUOUS
 62
     7
100
AcDbLine
 10
171.0
 20
35.0
 30
0.0
 11
165.5
 21
35.0
 31
0.0
  0
LINE
  5
511
330
1F
100
AcDbEntity
  8
1
  6
CONTINUOUS
 62
     7
100
AcDbLine
 10
166.0861561236693
 20
-43.26994834709046
 30
0.0
 11
165.5
 21
-43.28017974028717
 31
0.0
  0
LINE
  5
512
330
1F
100
AcDbEntity
  8
1
  6
CONTINUOUS
 62
     7
100
AcDbLine
 10
149.5
 20
-44.00000000000006
 30
0.0
 11
149.5
 21
26.0
 31
0.0
  0
LINE
  5
513
330
1F
100
AcDbEntity
  8
1
  6
CONTINUOUS
 62
     7
100
AcDbLine
 10
103.0
 20
-44.00000000000006
 30
0.0
 11
149.5
 21
-44.00000000000006
 31
0.0
  0
LINE
  5
514
330
1F
100
AcDbEntity
  8
1
  6
CONTINUOUS
 62
     7
100
AcDbLine
 10
101.5
 20
26.0
 30
0.0
 11
149.5
 21
26.0
 31
0.0
  0
LINE
  5
515
330
1F
100
AcDbEntity
  8
1
  6
CONTINUOUS
 62
     7
100
AcDbLine
 10
144.0
 20
-50.50000000000006
 30
0.0
 11
131.5
 21
-50.50000000000006
 31
0.0
  0
LINE
  5
516
330
1F
100
AcDbEntity
  8
1
  6
CONTINUOUS
 62
     7
100
AcDbLine
 10
131.5
 20
-48.50000000000006
 30
0.0
 11
144.0
 21
-48.50000000000006
 31
0.0
  0
LINE
  5
517
330
1F
100
AcDbEntity
  8
1
  6
CONTINUOUS
 62
     7
100
AcDbLine
 10
99.5
 20
-40.50000000000006
 30
0.0
 11
87.0
 21
-40.50000000000006
 31
0.0
  0
LINE
  5
518
330
1F
100
AcDbEntity
  8
1
  6
CONTINUOUS
 62
     7
100
AcDbLine
 10
87.0
 20
-38.50000000000006
 30
0.0
 11
99.5
 21
-38.50000000000006
 31
0.0
  0
LINE
  5
519
330
1F
100
AcDbEntity
  8
1
  6
CONTINUOUS
 62
     7
100
AcDbLine
 10
131.5
 20
-45.00000000000006
 30
0.0
 11
144.0
 21
-45.00000000000006
 31
0.0
  0
LINE
  5
51A
330
1F
100
AcDbEntity
  8
1
  6
CONTINUOUS
 62
     7
100
AcDbLine
 10
144.0
 20
-47.00000000000006
 30
0.0
 11
131.5
 21
-47.00000000000006
 31
0.0
  0
LINE
  5
51B
330
1F
100
AcDbEntity
  8
1
  6
CONTINUOUS
 62
     7
100
AcDbLine
 10
124.5
 20
-47.00000000000006
 30
0.0
 11
112.0
 21
-47.00000000000006
 31
0.0
  0
LINE
  5
51C
330
1F
100
AcDbEntity
  8
1
  6
CONTINUOUS
 62
     7
100
AcDbLine
 10
112.0
 20
-45.00000000000006
 30
0.0
 11
124.5
 21
-45.00000000000006
 31
0.0
  0
LINE
  5
51D
330
1F
100
AcDbEntity
  8
1
  6
CONTINUOUS
 62
     7
100
AcDbLine
 10
87.0
 20
-35.00000000000006
 30
0.0
 11
99.5
 21
-35.00000000000006
 31
0.0
  0
LINE
  5
51E
330
1F
100
AcDbEntity
  8
1
  6
CONTINUOUS
 62
     7
100
AcDbLine
 10
99.5
 20
-37.00000000000006
 30
0.0
 11
87.0
 21
-37.00000000000006
 31
0.0
  0
LINE
  5
51F
330
1F
100
AcDbEntity
  8
1
  6
CONTINUOUS
 62
     7
100
AcDbLine
 10
99.5
 20
-33.50000000000006
 30
0.0
 11
87.0
 21
-33.50000000000006
 31
0.0
  0
LINE
  5
520
330
1F
100
AcDbEntity
  8
1
  6
CONTINUOUS
 62
     7
100
AcDbLine
 10
87.0
 20
-31.50000000000006
 30
0.0
 11
99.5
 21
-31.50000000000006
 31
0.0
  0
LINE
  5
521
330
1F
100
AcDbEntity
  8
1
  6
CONTINUOUS
 62
     7
100
AcDbLine
 10
87.0
 20
-28.00000000000006
 30
0.0
 11
99.5
 21
-28.00000000000006
 31
0.0
  0
LINE
  5
522
330
1F
100
AcDbEntity
  8
1
  6
CONTINUOUS
 62
     7
100
AcDbLine
 10
99.5
 20
-30.00000000000006
 30
0.0
 11
87.0
 21
-30.00000000000006
 31
0.0
  0
LINE
  5
523
330
1F
100
AcDbEntity
  8
1
  6
CONTINUOUS
 62
     7
100
AcDbLine
 10
173.0
 20
34.5
 30
0.0
 11
172.5
 21
35.0
 31
0.0
  0
LINE
  5
524
330
1F
100
AcDbEntity
  8
1
  6
CONTINUOUS
 62
     7
100
AcDbLine
 10
173.0
 20
-52.50000000000006
 30
0.0
 11
172.5
 21
-53.00000000000006
 31
0.0
  0
LINE
  5
525
330
1F
100
AcDbEntity
  8
1
  6
CONTINUOUS
 62
     7
100
AcDbLine
 10
161.5
 20
-54.50000000000006
 30
0.0
 11
163.0
 21
-53.00000000000006
 31
0.0
  0
LINE
  5
526
330
1F
100
AcDbEntity
  8
1
  6
CONTINUOUS
 62
     7
100
AcDbLine
 10
163.0
 20
35.0
 30
0.0
 11
161.5
 21
36.5
 31
0.0
  0
LINE
  5
527
330
1F
100
AcDbEntity
  8
1
  6
CONTINUOUS
 62
     7
100
AcDbLine
 10
161.5
 20
-54.50000000000006
 30
0.0
 11
74.5
 21
-54.50000000000006
 31
0.0
  0
LINE
  5
528
330
1F
100
AcDbEntity
  8
1
  6
CONTINUOUS
 62
     7
100
AcDbLine
 10
74.5
 20
36.5
 30
0.0
 11
75.0
 21
36.5
 31
0.0
  0
LINE
  5
529
330
1F
100
AcDbEntity
  8
1
  6
CONTINUOUS
 62
     7
100
AcDbLine
 10
73.0
 20
-57.00000000000006
 30
0.0
 11
73.0
 21
-54.80000000000007
 31
0.0
  0
LINE
  5
52A
330
1F
100
AcDbEntity
  8
1
  6
CONTINUOUS
 62
     7
100
AcDbLine
 10
73.0
 20
-54.80000000000007
 30
0.0
 11
73.0
 21
39.0
 31
0.0
  0
LINE
  5
52B
330
1F
100
AcDbEntity
  8
1
  6
CONTINUOUS
 62
     7
100
AcDbLine
 10
62.69999999999993
 20
38.0
 30
0.0
 11
63.0
 21
37.69999999999999
 31
0.0
  0
LINE
  5
52C
330
1F
100
AcDbEntity
  8
1
  6
CONTINUOUS
 62
     7
100
AcDbLine
 10
62.69999999999993
 20
-56.00000000000006
 30
0.0
 11
63.0
 21
-55.70000000000005
 31
0.0
  0
LINE
  5
52D
330
1F
100
AcDbEntity
  8
1
  6
CONTINUOUS
 62
     7
100
AcDbLine
 10
62.69999999999993
 20
-57.00000000000006
 30
0.0
 11
68.0
 21
-57.00000000000006
 31
0.0
  0
LINE
  5
52E
330
1F
100
AcDbEntity
  8
1
  6
CONTINUOUS
 62
     7
100
AcDbLine
 10
62.69999999999993
 20
39.0
 30
0.0
 11
68.0
 21
39.0
 31
0.0
  0
LINE
  5
52F
330
1F
100
AcDbEntity
  8
1
  6
CONTINUOUS
 62
     7
100
AcDbLine
 10
68.0
 20
-57.00000000000006
 30
0.0
 11
68.0
 21
39.0
 31
0.0
  0
LINE
  5
530
330
1F
100
AcDbEntity
  8
1
  6
CONTINUOUS
 62
     7
100
AcDbLine
 10
62.69999999999993
 20
-56.00000000000006
 30
0.0
 11
62.69999999999993
 21
-57.00000000000006
 31
0.0
  0
LINE
  5
531
330
1F
100
AcDbEntity
  8
1
  6
CONTINUOUS
 62
     7
100
AcDbLine
 10
68.0
 20
-57.00000000000006
 30
0.0
 11
73.0
 21
-57.00000000000006
 31
0.0
  0
LINE
  5
532
330
1F
100
AcDbEntity
  8
1
  6
CONTINUOUS
 62
     7
100
AcDbLine
 10
62.69999999999993
 20
38.0
 30
0.0
 11
62.69999999999993
 21
39.0
 31
0.0
  0
LINE
  5
533
330
1F
100
AcDbEntity
  8
1
  6
CONTINUOUS
 62
     7
100
AcDbLine
 10
68.0
 20
39.0
 30
0.0
 11
73.0
 21
39.0
 31
0.0
  0
LINE
  5
534
330
1F
100
AcDbEntity
  8
1
  6
CONTINUOUS
 62
     7
100
AcDbLine
 10
165.5
 20
32.3198202597128
 30
0.0
 11
165.5
 21
25.280179740287
 31
0.0
  0
LINE
  5
535
330
1F
100
AcDbEntity
  8
1
  6
CONTINUOUS
 62
     7
100
AcDbLine
 10
165.5
 20
25.280179740287
 30
0.0
 11
166.0861561236693
 21
25.26994834709029
 31
0.0
  0
LINE
  5
536
330
1F
100
AcDbEntity
  8
1
  6
CONTINUOUS
 62
     7
100
AcDbLine
 10
165.5
 20
23.91982025971277
 30
0.0
 11
165.5
 21
16.88017974028708
 31
0.0
  0
LINE
  5
537
330
1F
100
AcDbEntity
  8
1
  6
CONTINUOUS
 62
     7
100
AcDbLine
 10
165.5
 20
16.88017974028708
 30
0.0
 11
166.0861561236693
 21
16.86994834709026
 31
0.0
  0
LINE
  5
538
330
1F
100
AcDbEntity
  8
1
  6
CONTINUOUS
 62
     7
100
AcDbLine
 10
165.5
 20
15.51982025971279
 30
0.0
 11
165.5
 21
8.4801797402871
 31
0.0
  0
LINE
  5
539
330
1F
100
AcDbEntity
  8
1
  6
CONTINUOUS
 62
     7
100
AcDbLine
 10
165.5
 20
8.4801797402871
 30
0.0
 11
166.0861561236693
 21
8.46994834709028
 31
0.0
  0
LINE
  5
53A
330
1F
100
AcDbEntity
  8
1
  6
CONTINUOUS
 62
     7
100
AcDbLine
 10
165.5
 20
7.11982025971275
 30
0.0
 11
165.5
 21
0.08017974028695
 31
0.0
  0
LINE
  5
53B
330
1F
100
AcDbEntity
  8
1
  6
CONTINUOUS
 62
     7
100
AcDbLine
 10
165.5
 20
0.08017974028695
 30
0.0
 11
166.0861561236693
 21
0.06994834709025
 31
0.0
  0
LINE
  5
53C
330
1F
100
AcDbEntity
  8
1
  6
CONTINUOUS
 62
     7
100
AcDbLine
 10
165.5
 20
-1.28017974028722
 30
0.0
 11
165.5
 21
-8.31982025971297
 31
0.0
  0
LINE
  5
53D
330
1F
100
AcDbEntity
  8
1
  6
CONTINUOUS
 62
     7
100
AcDbLine
 10
165.5
 20
-8.31982025971297
 30
0.0
 11
166.0861561236693
 21
-8.33005165290967
 31
0.0
  0
LINE
  5
53E
330
1F
100
AcDbEntity
  8
1
  6
CONTINUOUS
 62
     7
100
AcDbLine
 10
165.5
 20
-9.6801797402872
 30
0.0
 11
165.5
 21
-16.71982025971295
 31
0.0
  0
LINE
  5
53F
330
1F
100
AcDbEntity
  8
1
  6
CONTINUOUS
 62
     7
100
AcDbLine
 10
165.5
 20
-16.71982025971295
 30
0.0
 11
166.0861561236693
 21
-16.73005165290971
 31
0.0
  0
LINE
  5
540
330
1F
100
AcDbEntity
  8
1
  6
CONTINUOUS
 62
     7
100
AcDbLine
 10
165.5
 20
-18.08017974028718
 30
0.0
 11
165.5
 21
-25.11982025971298
 31
0.0
  0
LINE
  5
541
330
1F
100
AcDbEntity
  8
1
  6
CONTINUOUS
 62
     7
100
AcDbLine
 10
165.5
 20
-25.11982025971298
 30
0.0
 11
166.0861561236693
 21
-25.13005165290969
 31
0.0
  0
LINE
  5
542
330
1F
100
AcDbEntity
  8
1
  6
CONTINUOUS
 62
     7
100
AcDbLine
 10
165.5
 20
-26.48017974028721
 30
0.0
 11
165.5
 21
-33.51982025971296
 31
0.0
  0
LINE
  5
543
330
1F
100
AcDbEntity
  8
1
  6
CONTINUOUS
 62
     7
100
AcDbLine
 10
165.5
 20
-33.51982025971296
 30
0.0
 11
166.0861561236693
 21
-33.53005165290966
 31
0.0
  0
LINE
  5
544
330
1F
100
AcDbEntity
  8
1
  6
CONTINUOUS
 62
     7
100
AcDbLine
 10
165.5
 20
-34.88017974028719
 30
0.0
 11
165.5
 21
-41.91982025971294
 31
0.0
  0
LINE
  5
545
330
1F
100
AcDbEntity
  8
1
  6
CONTINUOUS
 62
     7
100
AcDbLine
 10
165.5
 20
-41.91982025971294
 30
0.0
 11
166.0861561236693
 21
-41.9300516529097
 31
0.0
  0
LINE
  5
546
330
1F
100
AcDbEntity
  8
1
  6
CONTINUOUS
 62
     7
100
AcDbLine
 10
165.5
 20
-43.28017974028717
 30
0.0
 11
165.5
 21
-50.31982025971297
 31
0.0
  0
LINE
  5
547
330
1F
100
AcDbEntity
  8
1
  6
CONTINUOUS
 62
     7
100
AcDbLine
 10
165.5
 20
-50.31982025971297
 30
0.0
 11
166.0861561236693
 21
-50.33005165290967
 31
0.0
  0
LINE
  5
548
330
1F
100
AcDbEntity
  8
1
  6
CONTINUOUS
 62
     7
100
AcDbLine
 10
75.0
 20
36.0
 30
0.0
 11
75.0
 21
36.5
 31
0.0
  0
LINE
  5
549
330
1F
100
AcDbEntity
  8
1
  6
CONTINUOUS
 62
     7
100
AcDbLine
 10
75.0
 20
36.5
 30
0.0
 11
86.0
 21
36.5
 31
0.0
  0
LINE
  5
54A
330
1F
100
AcDbEntity
  8
1
  6
CONTINUOUS
 62
     7
100
AcDbLine
 10
75.0
 20
36.0
 30
0.0
 11
86.0
 21
36.0
 31
0.0
  0
LINE
  5
54B
330
1F
100
AcDbEntity
  8
1
  6
CONTINUOUS
 62
     7
100
AcDbLine
 10
86.0
 20
36.0
 30
0.0
 11
86.0
 21
36.5
 31
0.0
  0
LINE
  5
54C
330
1F
100
AcDbEntity
  8
1
  6
CONTINUOUS
 62
     7
100
AcDbLine
 10
86.0
 20
36.5
 30
0.0
 11
161.5
 21
36.5
 31
0.0
  0
LINE
  5
54D
330
1F
100
AcDbEntity
  8
1
  6
CONTINUOUS
 62
     7
100
AcDbLine
 10
159.5
 20
21.59999999999985
 30
0.0
 11
159.5
 21
27.59999999999985
 31
0.0
  0
LINE
  5
54E
330
1F
100
AcDbEntity
  8
1
  6
CONTINUOUS
 62
     7
100
AcDbLine
 10
153.5
 20
21.59999999999985
 30
0.0
 11
159.5
 21
21.59999999999985
 31
0.0
  0
LINE
  5
54F
330
1F
100
AcDbEntity
  8
1
  6
CONTINUOUS
 62
     7
100
AcDbLine
 10
153.5
 20
27.59999999999985
 30
0.0
 11
153.5
 21
21.59999999999985
 31
0.0
  0
LINE
  5
550
330
1F
100
AcDbEntity
  8
1
  6
CONTINUOUS
 62
     7
100
AcDbLine
 10
159.5
 20
27.59999999999985
 30
0.0
 11
153.5
 21
27.59999999999985
 31
0.0
  0
LINE
  5
551
330
1F
100
AcDbEntity
  8
1
  6
CONTINUOUS
 62
     7
100
AcDbLine
 10
156.3609722339839
 20
23.98352941176466
 30
0.0
 11
156.2219444679689
 21
25.15705882352938
 31
0.0
  0
LINE
  5
552
330
1F
100
AcDbEntity
  8
1
  6
CONTINUOUS
 62
     7
100
AcDbLine
 10
156.77805553203
 20
25.15705882352938
 30
0.0
 11
156.6390277660144
 21
23.98352941176466
 31
0.0
  0
LINE
  5
553
330
1F
100
AcDbEntity
  8
1
  6
CONTINUOUS
 62
     7
100
AcDbLine
 10
158.5256475521449
 20
22.84499999999986
 30
0.0
 11
156.4999999999999
 21
26.3535244785437
 31
0.0
  0
LINE
  5
554
330
1F
100
AcDbEntity
  8
1
  6
CONTINUOUS
 62
     7
100
AcDbLine
 10
154.4743524478539
 20
22.84499999999986
 30
0.0
 11
158.5256475521449
 21
22.84499999999986
 31
0.0
  0
LINE
  5
555
330
1F
100
AcDbEntity
  8
1
  6
CONTINUOUS
 62
     7
100
AcDbLine
 10
156.4999999999999
 20
26.3535244785437
 30
0.0
 11
154.4743524478539
 21
22.84499999999986
 31
0.0
  0
LINE
  5
556
330
1F
100
AcDbEntity
  8
1
  6
CONTINUOUS
 62
     7
100
AcDbLine
 10
158.7681346652043
 20
22.91499999999996
 30
0.0
 11
156.681865334794
 21
26.52852447854366
 31
0.0
  0
LINE
  5
557
330
1F
100
AcDbEntity
  8
1
  6
CONTINUOUS
 62
     7
100
AcDbLine
 10
154.4137306695889
 20
22.59999999999985
 30
0.0
 11
158.5862693304096
 21
22.59999999999985
 31
0.0
  0
LINE
  5
558
330
1F
100
AcDbEntity
  8
1
  6
CONTINUOUS
 62
     7
100
AcDbLine
 10
156.3181346652051
 20
26.52852447854366
 30
0.0
 11
154.231865334794
 21
22.91499999999996
 31
0.0
  0
LINE
  5
559
330
1F
100
AcDbEntity
  8
1
  6
CONTINUOUS
 62
     7
100
AcDbLine
 10
124.5
 20
-50.50000000000006
 30
0.0
 11
112.0
 21
-50.50000000000006
 31
0.0
  0
LINE
  5
55A
330
1F
100
AcDbEntity
  8
1
  6
CONTINUOUS
 62
     7
100
AcDbLine
 10
112.0
 20
-48.50000000000006
 30
0.0
 11
124.5
 21
-48.50000000000006
 31
0.0
  0
LINE
  5
55B
330
1F
100
AcDbEntity
  8
1
  6
CONTINUOUS
 62
     7
100
AcDbLine
 10
161.5
 20
36.5
 30
0.0
 11
161.5
 21
-54.50000000000006
 31
0.0
  0
LINE
  5
55C
330
1F
100
AcDbEntity
  8
1
  6
CONTINUOUS
 62
     7
100
AcDbLine
 10
165.5
 20
-53.00000000000006
 30
0.0
 11
163.0
 21
-53.00000000000006
 31
0.0
  0
LINE
  5
55D
330
1F
100
AcDbEntity
  8
1
  6
CONTINUOUS
 62
     7
100
AcDbLine
 10
165.5
 20
35.0
 30
0.0
 11
163.0
 21
35.0
 31
0.0
  0
LINE
  5
55E
330
1F
100
AcDbEntity
  8
1
  6
CONTINUOUS
 62
     7
100
AcDbLine
 10
101.5
 20
26.0
 30
0.0
 11
101.5
 21
-42.50000000000006
 31
0.0
  0
ARC
  5
55F
330
1F
100
AcDbEntity
  8
0
  6
CONTINUOUS
 62
     7
100
AcDbCircle
 10
168.2252762652938
 20
-48.5499999999999
 30
0.0
 40
1.0
100
AcDbArc
 50
270.0
 51
343.0422366999975
  0
ARC
  5
560
330
1F
100
AcDbEntity
  8
0
  6
CONTINUOUS
 62
     7
100
AcDbCircle
 10
162.4861561236693
 20
-46.7999999999999
 30
0.0
 40
7.000000000000023
100
AcDbArc
 50
343.042236699996
 51
16.95776330000378
  0
ARC
  5
561
330
1F
100
AcDbEntity
  8
0
  6
CONTINUOUS
 62
     7
100
AcDbCircle
 10
168.2252762652938
 20
-45.0499999999999
 30
0.0
 40
1.000000000000032
100
AcDbArc
 50
16.95776330000132
 51
90.0
  0
ARC
  5
562
330
1F
100
AcDbEntity
  8
0
  6
CONTINUOUS
 62
     7
100
AcDbCircle
 10
168.2252762652938
 20
-40.14999999999992
 30
0.0
 40
1.0
100
AcDbArc
 50
270.0
 51
343.0422366999952
  0
ARC
  5
563
330
1F
100
AcDbEntity
  8
0
  6
CONTINUOUS
 62
     7
100
AcDbCircle
 10
162.4861561236693
 20
-38.39999999999992
 30
0.0
 40
7.000000000000036
100
AcDbArc
 50
343.0422366999957
 51
16.95776330000378
  0
ARC
  5
564
330
1F
100
AcDbEntity
  8
0
  6
CONTINUOUS
 62
     7
100
AcDbCircle
 10
168.2252762652938
 20
-36.64999999999992
 30
0.0
 40
1.000000000000032
100
AcDbArc
 50
16.95776330000132
 51
90.0
  0
ARC
  5
565
330
1F
100
AcDbEntity
  8
0
  6
CONTINUOUS
 62
     7
100
AcDbCircle
 10
168.2252762652938
 20
-31.74999999999994
 30
0.0
 40
1.000000000000004
100
AcDbArc
 50
270.0
 51
343.0422366999954
  0
ARC
  5
566
330
1F
100
AcDbEntity
  8
0
  6
CONTINUOUS
 62
     7
100
AcDbCircle
 10
162.4861561236693
 20
-29.99999999999994
 30
0.0
 40
7.000000000000035
100
AcDbArc
 50
343.0422366999957
 51
16.95776330000378
  0
ARC
  5
567
330
1F
100
AcDbEntity
  8
0
  6
CONTINUOUS
 62
     7
100
AcDbCircle
 10
168.2252762652938
 20
-28.24999999999994
 30
0.0
 40
1.000000000000032
100
AcDbArc
 50
16.95776330000132
 51
90.0
  0
ARC
  5
568
330
1F
100
AcDbEntity
  8
0
  6
CONTINUOUS
 62
     7
100
AcDbCircle
 10
168.2252762652938
 20
-23.34999999999999
 30
0.0
 40
1.0
100
AcDbArc
 50
270.0
 51
343.0422366999987
  0
ARC
  5
569
330
1F
100
AcDbEntity
  8
0
  6
CONTINUOUS
 62
     7
100
AcDbCircle
 10
162.4861561236693
 20
-21.59999999999999
 30
0.0
 40
7.000000000000017
100
AcDbArc
 50
343.0422366999962
 51
16.95776330000395
  0
ARC
  5
56A
330
1F
100
AcDbEntity
  8
0
  6
CONTINUOUS
 62
     7
100
AcDbCircle
 10
168.2252762652938
 20
-19.84999999999999
 30
0.0
 40
1.000000000000038
100
AcDbArc
 50
16.95776330000249
 51
90.0
  0
ARC
  5
56B
330
1F
100
AcDbEntity
  8
0
  6
CONTINUOUS
 62
     7
100
AcDbCircle
 10
168.2252762652938
 20
-14.95000000000002
 30
0.0
 40
1.0
100
AcDbArc
 50
270.0
 51
343.0422366999975
  0
ARC
  5
56C
330
1F
100
AcDbEntity
  8
0
  6
CONTINUOUS
 62
     7
100
AcDbCircle
 10
162.4861561236693
 20
-13.20000000000002
 30
0.0
 40
7.000000000000023
100
AcDbArc
 50
343.042236699996
 51
16.95776330000427
  0
ARC
  5
56D
330
1F
100
AcDbEntity
  8
0
  6
CONTINUOUS
 62
     7
100
AcDbCircle
 10
168.2252762652938
 20
-11.45000000000002
 30
0.0
 40
1.00000000000005
100
AcDbArc
 50
16.95776330000473
 51
90.0
  0
ARC
  5
56E
330
1F
100
AcDbEntity
  8
0
  6
CONTINUOUS
 62
     7
100
AcDbCircle
 10
168.2252762652938
 20
-6.55000000000004
 30
0.0
 40
1.0
100
AcDbArc
 50
270.0
 51
343.0422366999987
  0
ARC
  5
56F
330
1F
100
AcDbEntity
  8
0
  6
CONTINUOUS
 62
     7
100
AcDbCircle
 10
162.4861561236693
 20
-4.80000000000004
 30
0.0
 40
7.000000000000017
100
AcDbArc
 50
343.0422366999962
 51
16.95776330000422
  0
ARC
  5
570
330
1F
100
AcDbEntity
  8
0
  6
CONTINUOUS
 62
     7
100
AcDbCircle
 10
168.2252762652938
 20
-3.05000000000004
 30
0.0
 40
1.000000000000048
100
AcDbArc
 50
16.95776330000443
 51
90.0
  0
ARC
  5
571
330
1F
100
AcDbEntity
  8
0
  6
CONTINUOUS
 62
     7
100
AcDbCircle
 10
168.2252762652938
 20
1.84999999999997
 30
0.0
 40
1.000000000000028
100
AcDbArc
 50
270.0
 51
343.0422366999956
  0
ARC
  5
572
330
1F
100
AcDbEntity
  8
0
  6
CONTINUOUS
 62
     7
100
AcDbCircle
 10
162.4861561236693
 20
3.59999999999997
 30
0.0
 40
7.000000000000034
100
AcDbArc
 50
343.0422366999958
 51
16.957763300004
  0
ARC
  5
573
330
1F
100
AcDbEntity
  8
0
  6
CONTINUOUS
 62
     7
100
AcDbCircle
 10
168.2252762652938
 20
5.34999999999994
 30
0.0
 40
1.000000000000049
100
AcDbArc
 50
16.95776330000449
 51
90.0
  0
ARC
  5
574
330
1F
100
AcDbEntity
  8
0
  6
CONTINUOUS
 62
     7
100
AcDbCircle
 10
168.2252762652938
 20
10.24999999999991
 30
0.0
 40
0.9999999999999662
100
AcDbArc
 50
270.0
 51
343.042236699999
  0
ARC
  5
575
330
1F
100
AcDbEntity
  8
0
  6
CONTINUOUS
 62
     7
100
AcDbCircle
 10
162.4861561236693
 20
11.99999999999991
 30
0.0
 40
7.000000000000015
100
AcDbArc
 50
343.0422366999962
 51
16.95776330000427
  0
ARC
  5
576
330
1F
100
AcDbEntity
  8
0
  6
CONTINUOUS
 62
     7
100
AcDbCircle
 10
168.2252762652938
 20
13.74999999999991
 30
0.0
 40
1.00000000000005
100
AcDbArc
 50
16.95776330000473
 51
90.0
  0
ARC
  5
577
330
1F
100
AcDbEntity
  8
0
  6
CONTINUOUS
 62
     7
100
AcDbCircle
 10
168.2252762652938
 20
18.64999999999992
 30
0.0
 40
1.0
100
AcDbArc
 50
270.0
 51
343.0422366999969
  0
ARC
  5
578
330
1F
100
AcDbEntity
  8
0
  6
CONTINUOUS
 62
     7
100
AcDbCircle
 10
162.4861561236693
 20
20.39999999999992
 30
0.0
 40
7.000000000000027
100
AcDbArc
 50
343.042236699996
 51
16.95776330000403
  0
ARC
  5
579
330
1F
100
AcDbEntity
  8
0
  6
CONTINUOUS
 62
     7
100
AcDbCircle
 10
168.2252762652938
 20
22.14999999999992
 30
0.0
 40
1.000000000000041
100
AcDbArc
 50
16.95776330000307
 51
90.0
  0
ARC
  5
57A
330
1F
100
AcDbEntity
  8
0
  6
CONTINUOUS
 62
     7
100
AcDbCircle
 10
168.2252762652938
 20
27.0499999999999
 30
0.0
 40
1.0
100
AcDbArc
 50
270.0
 51
343.0422366999969
  0
ARC
  5
57B
330
1F
100
AcDbEntity
  8
0
  6
CONTINUOUS
 62
     7
100
AcDbCircle
 10
162.4861561236693
 20
28.7999999999999
 30
0.0
 40
7.000000000000027
100
AcDbArc
 50
343.042236699996
 51
16.95776330000395
  0
ARC
  5
57C
330
1F
100
AcDbEntity
  8
0
  6
CONTINUOUS
 62
     7
100
AcDbCircle
 10
168.2252762652938
 20
30.5499999999999
 30
0.0
 40
1.000000000000038
100
AcDbArc
 50
16.95776330000249
 51
90.0
  0
ARC
  5
57D
330
1F
100
AcDbEntity
  8
1
  6
CONTINUOUS
 62
     7
100
AcDbCircle
 10
166.9
 20
37.09999999999999
 30
0.0
 40
0.5999999999999801
100
AcDbArc
 50
270.0
 51
0.0
  0
ARC
  5
57E
330
1F
100
AcDbEntity
  8
1
  6
CONTINUOUS
 62
     7
100
AcDbCircle
 10
166.9
 20
-55.09999999999998
 30
0.0
 40
0.5999999999999943
100
AcDbArc
 50
0.00000000000068
 51
90.0
  0
ARC
  5
57F
330
1F
100
AcDbEntity
  8
1
  6
CONTINUOUS
 62
     7
100
AcDbCircle
 10
-12.99999999999999
 20
-38.5
 30
0.0
 40
0.5
100
AcDbArc
 50
90.0
 51
270.000000000001
  0
ARC
  5
580
330
1F
100
AcDbEntity
  8
1
  6
CONTINUOUS
 62
     7
100
AcDbCircle
 10
25.0
 20
-38.5
 30
0.0
 40
0.5
100
AcDbArc
 50
270.0
 51
90.0
  0
ARC
  5
581
330
1F
100
AcDbEntity
  8
1
  6
CONTINUOUS
 62
     7
100
AcDbCircle
 10
63.50000000000001
 20
-56.1980937596023
 30
0.0
 40
0.5
100
AcDbArc
 50
180.0
 51
266.0000000000042
  0
ARC
  5
582
330
1F
100
AcDbEntity
  8
1
  6
CONTINUOUS
 62
     7
100
AcDbCircle
 10
63.50000000000001
 20
38.19809375960232
 30
0.0
 40
0.4999999999999908
100
AcDbArc
 50
93.99999999999575
 51
180.0
  0
ARC
  5
583
330
1F
100
AcDbEntity
  8
1
  6
CONTINUOUS
 62
     7
100
AcDbCircle
 10
29.0
 20
38.0
 30
0.0
 40
1.0
100
AcDbArc
 50
0.0
 51
90.0
  0
ARC
  5
584
330
1F
100
AcDbEntity
  8
1
  6
CONTINUOUS
 62
     7
100
AcDbCircle
 10
-17.00000000000011
 20
38.0
 30
0.0
 40
1.0
100
AcDbArc
 50
89.99999999999308
 51
180.0
  0
ARC
  5
585
330
1F
100
AcDbEntity
  8
1
  6
CONTINUOUS
 62
     7
100
AcDbCircle
 10
-17.00000000000011
 20
-56.0
 30
0.0
 40
0.9999999999998792
100
AcDbArc
 50
180.0
 51
270.0
  0
ARC
  5
586
330
1F
100
AcDbEntity
  8
1
  6
CONTINUOUS
 62
     7
100
AcDbCircle
 10
29.0
 20
-56.0
 30
0.0
 40
1.0
100
AcDbArc
 50
270.0
 51
0.0
  0
ARC
  5
587
330
1F
100
AcDbEntity
  8
1
  6
CONTINUOUS
 62
     7
100
AcDbCircle
 10
144.0
 20
-49.50000000000006
 30
0.0
 40
1.0
100
AcDbArc
 50
270.0
 51
90.0
  0
ARC
  5
588
330
1F
100
AcDbEntity
  8
1
  6
CONTINUOUS
 62
     7
100
AcDbCircle
 10
131.5
 20
-49.50000000000006
 30
0.0
 40
1.0
100
AcDbArc
 50
90.0
 51
270.0
  0
ARC
  5
589
330
1F
100
AcDbEntity
  8
1
  6
CONTINUOUS
 62
     7
100
AcDbCircle
 10
131.5
 20
-46.00000000000006
 30
0.0
 40
1.0
100
AcDbArc
 50
90.0
 51
270.0
  0
ARC
  5
58A
330
1F
100
AcDbEntity
  8
1
  6
CONTINUOUS
 62
     7
100
AcDbCircle
 10
144.0
 20
-46.00000000000006
 30
0.0
 40
1.0
100
AcDbArc
 50
270.0
 51
90.0
  0
ARC
  5
58B
330
1F
100
AcDbEntity
  8
1
  6
CONTINUOUS
 62
     7
100
AcDbCircle
 10
124.5
 20
-46.00000000000006
 30
0.0
 40
1.0
100
AcDbArc
 50
270.0
 51
90.0
  0
ARC
  5
58C
330
1F
100
AcDbEntity
  8
1
  6
CONTINUOUS
 62
     7
100
AcDbCircle
 10
112.0
 20
-46.00000000000006
 30
0.0
 40
1.0
100
AcDbArc
 50
90.0
 51
270.0
  0
ARC
  5
58D
330
1F
100
AcDbEntity
  8
1
  6
CONTINUOUS
 62
     7
100
AcDbCircle
 10
87.0
 20
-36.00000000000006
 30
0.0
 40
1.0
100
AcDbArc
 50
90.0
 51
270.0
  0
ARC
  5
58E
330
1F
100
AcDbEntity
  8
1
  6
CONTINUOUS
 62
     7
100
AcDbCircle
 10
99.5
 20
-36.00000000000006
 30
0.0
 40
1.0
100
AcDbArc
 50
270.0
 51
90.0
  0
ARC
  5
58F
330
1F
100
AcDbEntity
  8
1
  6
CONTINUOUS
 62
     7
100
AcDbCircle
 10
99.5
 20
-32.50000000000006
 30
0.0
 40
1.0
100
AcDbArc
 50
270.0
 51
90.0
  0
ARC
  5
590
330
1F
100
AcDbEntity
  8
1
  6
CONTINUOUS
 62
     7
100
AcDbCircle
 10
87.0
 20
-32.50000000000006
 30
0.0
 40
0.9999999999999964
100
AcDbArc
 50
90.0
 51
270.0
  0
ARC
  5
591
330
1F
100
AcDbEntity
  8
1
  6
CONTINUOUS
 62
     7
100
AcDbCircle
 10
87.0
 20
-29.00000000000006
 30
0.0
 40
1.0
100
AcDbArc
 50
90.0
 51
270.0
  0
ARC
  5
592
330
1F
100
AcDbEntity
  8
1
  6
CONTINUOUS
 62
     7
100
AcDbCircle
 10
99.5
 20
-29.00000000000006
 30
0.0
 40
1.0
100
AcDbArc
 50
270.0
 51
90.0
  0
ARC
  5
593
330
1F
100
AcDbEntity
  8
1
  6
CONTINUOUS
 62
     7
100
AcDbCircle
 10
156.4999999999999
 20
23.99999999999989
 30
0.0
 40
0.1400000000007643
100
AcDbArc
 50
186.7563270305241
 51
353.2436729694047
  0
ARC
  5
594
330
1F
100
AcDbEntity
  8
1
  6
CONTINUOUS
 62
     7
100
AcDbCircle
 10
156.4999999999999
 20
25.18999999999977
 30
0.0
 40
0.2799999999996577
100
AcDbArc
 50
353.2436729694444
 51
186.756327030535
  0
ARC
  5
595
330
1F
100
AcDbEntity
  8
1
  6
CONTINUOUS
 62
     7
100
AcDbCircle
 10
158.5862693304096
 20
22.80999999999978
 30
0.0
 40
0.2099999999999298
100
AcDbArc
 50
270.0
 51
30.00000000005012
  0
ARC
  5
596
330
1F
100
AcDbEntity
  8
1
  6
CONTINUOUS
 62
     7
100
AcDbCircle
 10
154.4137306695889
 20
22.80999999999978
 30
0.0
 40
0.2100000000002173
100
AcDbArc
 50
149.999999999977
 51
270.0
  0
ARC
  5
597
330
1F
100
AcDbEntity
  8
1
  6
CONTINUOUS
 62
     7
100
AcDbCircle
 10
156.4999999999999
 20
26.4235244785437
 30
0.0
 40
0.2099999999994408
100
AcDbArc
 50
30.00000000007478
 51
150.0000000000183
  0
ARC
  5
598
330
1F
100
AcDbEntity
  8
1
  6
CONTINUOUS
 62
     7
100
AcDbCircle
 10
99.5
 20
-39.50000000000006
 30
0.0
 40
1.0
100
AcDbArc
 50
270.0
 51
90.0
  0
ARC
  5
599
330
1F
100
AcDbEntity
  8
1
  6
CONTINUOUS
 62
     7
100
AcDbCircle
 10
87.0
 20
-39.50000000000006
 30
0.0
 40
1.0
100
AcDbArc
 50
90.0
 51
270.0
  0
ARC
  5
59A
330
1F
100
AcDbEntity
  8
1
  6
CONTINUOUS
 62
     7
100
AcDbCircle
 10
124.5
 20
-49.50000000000006
 30
0.0
 40
1.0
100
AcDbArc
 50
270.0
 51
90.0
  0
ARC
  5
59B
330
1F
100
AcDbEntity
  8
1
  6
CONTINUOUS
 62
     7
100
AcDbCircle
 10
112.0
 20
-49.50000000000006
 30
0.0
 40
1.0
100
AcDbArc
 50
90.0
 51
270.0
  0
CIRCLE
  5
59C
330
1F
100
AcDbEntity
  8
1
  6
CONTINUOUS
 62
     7
100
AcDbCircle
 10
9.0
 20
14.15004999999995
 30
0.0
 40
0.4000000000000057
  0
CIRCLE
  5
59D
330
1F
100
AcDbEntity
  8
1
  6
CONTINUOUS
 62
     7
100
AcDbCircle
 10
15.40000000000012
 20
14.15004999999995
 30
0.0
 40
0.400000000000011
  0
CIRCLE
  5
59E
330
1F
100
AcDbEntity
  8
1
  6
CONTINUOUS
 62
     7
100
AcDbCircle
 10
2.59999999999991
 20
14.15004999999995
 30
0.0
 40
0.4000000000000061
  0
CIRCLE
  5
59F
330
1F
100
AcDbEntity
  8
1
  6
CONTINUOUS
 62
     7
100
AcDbCircle
 10
-3.80000000000018
 20
14.15004999999995
 30
0.0
 40
0.4000000000000057
  0
CIRCLE
  5
5A0
330
1F
100
AcDbEntity
  8
1
  6
CONTINUOUS
 62
     7
100
AcDbCircle
 10
16.59999999999991
 20
2.85004999999994
 30
0.0
 40
0.4000000000000909
  0
CIRCLE
  5
5A1
330
1F
100
AcDbEntity
  8
1
  6
CONTINUOUS
 62
     7
100
AcDbCircle
 10
11.1999999999999
 20
2.85004999999994
 30
0.0
 40
0.400000000000011
  0
CIRCLE
  5
5A2
330
1F
100
AcDbEntity
  8
1
  6
CONTINUOUS
 62
     7
100
AcDbCircle
 10
5.7999999999999
 20
2.85004999999994
 30
0.0
 40
0.4000000000000057
  0
CIRCLE
  5
5A3
330
1F
100
AcDbEntity
  8
1
  6
CONTINUOUS
 62
     7
100
AcDbCircle
 10
0.40000000000001
 20
2.85004999999994
 30
0.0
 40
0.399999999999892
  0
CIRCLE
  5
5A4
330
1F
100
AcDbEntity
  8
1
  6
CONTINUOUS
 62
     7
100
AcDbCircle
 10
156.4999999999999
 20
23.33499999999998
 30
0.0
 40
0.2450000000001182
  0
ARC
  5
5A5
330
1F
100
AcDbEntity
  8
0
  6
CONTINUOUS
 62
     7
100
AcDbCircle
 10
167.2861561236693
 20
-47.68860009363283
 30
0.0
 40
0.2000000000000171
100
AcDbArc
 50
0.0
 51
69.44395478040296
  0
ARC
  5
5A6
330
1F
100
AcDbEntity
  8
0
  6
CONTINUOUS
 62
     7
100
AcDbCircle
 10
167.2861561236693
 20
-45.911399906367
 30
0.0
 40
0.1999999999999859
100
AcDbArc
 50
290.5560452195985
 51
0.0
  0
ARC
  5
5A7
330
1F
100
AcDbEntity
  8
0
  6
CONTINUOUS
 62
     7
100
AcDbCircle
 10
166.2861561236693
 20
-47.68860009363283
 30
0.0
 40
0.2000000000000171
100
AcDbArc
 50
0.0
 51
69.44395478040296
  0
ARC
  5
5A8
330
1F
100
AcDbEntity
  8
0
  6
CONTINUOUS
 62
     7
100
AcDbCircle
 10
166.2861561236693
 20
-45.911399906367
 30
0.0
 40
0.1999999999999859
100
AcDbArc
 50
290.5560452195985
 51
0.0
  0
ARC
  5
5A9
330
1F
100
AcDbEntity
  8
0
  6
CONTINUOUS
 62
     7
100
AcDbCircle
 10
167.2861561236693
 20
-39.28860009363285
 30
0.0
 40
0.2000000000000171
100
AcDbArc
 50
0.0
 51
69.4439547804051
  0
ARC
  5
5AA
330
1F
100
AcDbEntity
  8
0
  6
CONTINUOUS
 62
     7
100
AcDbCircle
 10
167.2861561236693
 20
-37.51139990636699
 30
0.0
 40
0.2000000000000192
100
AcDbArc
 50
290.5560452195949
 51
0.0
  0
ARC
  5
5AB
330
1F
100
AcDbEntity
  8
0
  6
CONTINUOUS
 62
     7
100
AcDbCircle
 10
166.2861561236693
 20
-39.28860009363285
 30
0.0
 40
0.2000000000000171
100
AcDbArc
 50
0.0
 51
69.4439547804051
  0
ARC
  5
5AC
330
1F
100
AcDbEntity
  8
0
  6
CONTINUOUS
 62
     7
100
AcDbCircle
 10
166.2861561236693
 20
-37.51139990636699
 30
0.0
 40
0.2000000000000192
100
AcDbArc
 50
290.5560452195949
 51
0.0
  0
ARC
  5
5AD
330
1F
100
AcDbEntity
  8
0
  6
CONTINUOUS
 62
     7
100
AcDbCircle
 10
167.2861561236693
 20
-30.88860009363287
 30
0.0
 40
0.2000000000000171
100
AcDbArc
 50
0.0
 51
69.44395478040475
  0
ARC
  5
5AE
330
1F
100
AcDbEntity
  8
0
  6
CONTINUOUS
 62
     7
100
AcDbCircle
 10
167.2861561236693
 20
-29.11139990636701
 30
0.0
 40
0.2000000000000192
100
AcDbArc
 50
290.5560452195949
 51
0.0
  0
ARC
  5
5AF
330
1F
100
AcDbEntity
  8
0
  6
CONTINUOUS
 62
     7
100
AcDbCircle
 10
166.2861561236693
 20
-30.88860009363287
 30
0.0
 40
0.2000000000000171
100
AcDbArc
 50
0.0
 51
69.44395478040475
  0
ARC
  5
5B0
330
1F
100
AcDbEntity
  8
0
  6
CONTINUOUS
 62
     7
100
AcDbCircle
 10
166.2861561236693
 20
-29.11139990636701
 30
0.0
 40
0.2000000000000192
100
AcDbArc
 50
290.5560452195949
 51
0.0
  0
ARC
  5
5B1
330
1F
100
AcDbEntity
  8
0
  6
CONTINUOUS
 62
     7
100
AcDbCircle
 10
167.2861561236693
 20
-22.48860009363293
 30
0.0
 40
0.2000000000000171
100
AcDbArc
 50
0.0
 51
69.44395478040867
  0
ARC
  5
5B2
330
1F
100
AcDbEntity
  8
0
  6
CONTINUOUS
 62
     7
100
AcDbCircle
 10
167.2861561236693
 20
-20.71139990636703
 30
0.0
 40
0.1999999999999958
100
AcDbArc
 50
290.5560452195974
 51
0.0
  0
ARC
  5
5B3
330
1F
100
AcDbEntity
  8
0
  6
CONTINUOUS
 62
     7
100
AcDbCircle
 10
166.2861561236693
 20
-22.48860009363293
 30
0.0
 40
0.2000000000000171
100
AcDbArc
 50
0.0
 51
69.44395478040867
  0
ARC
  5
5B4
330
1F
100
AcDbEntity
  8
0
  6
CONTINUOUS
 62
     7
100
AcDbCircle
 10
166.2861561236693
 20
-20.71139990636703
 30
0.0
 40
0.1999999999999958
100
AcDbArc
 50
290.5560452195974
 51
0.0
  0
ARC
  5
5B5
330
1F
100
AcDbEntity
  8
0
  6
CONTINUOUS
 62
     7
100
AcDbCircle
 10
167.2861561236693
 20
-14.08860009363295
 30
0.0
 40
0.2000000000000171
100
AcDbArc
 50
0.0
 51
69.44395478040475
  0
ARC
  5
5B6
330
1F
100
AcDbEntity
  8
0
  6
CONTINUOUS
 62
     7
100
AcDbCircle
 10
167.2861561236693
 20
-12.31139990636709
 30
0.0
 40
0.1999999999999609
100
AcDbArc
 50
290.5560452196011
 51
0.0
  0
ARC
  5
5B7
330
1F
100
AcDbEntity
  8
0
  6
CONTINUOUS
 62
     7
100
AcDbCircle
 10
166.2861561236693
 20
-14.08860009363295
 30
0.0
 40
0.2000000000000171
100
AcDbArc
 50
0.0
 51
69.44395478040475
  0
ARC
  5
5B8
330
1F
100
AcDbEntity
  8
0
  6
CONTINUOUS
 62
     7
100
AcDbCircle
 10
166.2861561236693
 20
-12.31139990636709
 30
0.0
 40
0.1999999999999609
100
AcDbArc
 50
290.5560452196011
 51
0.0
  0
ARC
  5
5B9
330
1F
100
AcDbEntity
  8
0
  6
CONTINUOUS
 62
     7
100
AcDbCircle
 10
167.2861561236693
 20
-5.68860009363297
 30
0.0
 40
0.2000000000000171
100
AcDbArc
 50
0.0
 51
69.4439547804051
  0
ARC
  5
5BA
330
1F
100
AcDbEntity
  8
0
  6
CONTINUOUS
 62
     7
100
AcDbCircle
 10
167.2861561236693
 20
-3.91139990636711
 30
0.0
 40
0.1999999999999655
100
AcDbArc
 50
290.5560452196007
 51
0.0
  0
ARC
  5
5BB
330
1F
100
AcDbEntity
  8
0
  6
CONTINUOUS
 62
     7
100
AcDbCircle
 10
166.2861561236693
 20
-5.68860009363297
 30
0.0
 40
0.2000000000000171
100
AcDbArc
 50
0.0
 51
69.4439547804051
  0
ARC
  5
5BC
330
1F
100
AcDbEntity
  8
0
  6
CONTINUOUS
 62
     7
100
AcDbCircle
 10
166.2861561236693
 20
-3.91139990636711
 30
0.0
 40
0.1999999999999655
100
AcDbArc
 50
290.5560452196007
 51
0.0
  0
ARC
  5
5BD
330
1F
100
AcDbEntity
  8
0
  6
CONTINUOUS
 62
     7
100
AcDbCircle
 10
167.2861561236693
 20
2.71139990636703
 30
0.0
 40
0.2000000000000171
100
AcDbArc
 50
0.0
 51
69.4439547804022
  0
ARC
  5
5BE
330
1F
100
AcDbEntity
  8
0
  6
CONTINUOUS
 62
     7
100
AcDbCircle
 10
167.2861561236693
 20
4.48860009363287
 30
0.0
 40
0.1999999999999643
100
AcDbArc
 50
290.5560452196008
 51
0.0
  0
ARC
  5
5BF
330
1F
100
AcDbEntity
  8
0
  6
CONTINUOUS
 62
     7
100
AcDbCircle
 10
166.2861561236693
 20
2.71139990636703
 30
0.0
 40
0.2000000000000171
100
AcDbArc
 50
0.0
 51
69.4439547804022
  0
ARC
  5
5C0
330
1F
100
AcDbEntity
  8
0
  6
CONTINUOUS
 62
     7
100
AcDbCircle
 10
166.2861561236693
 20
4.48860009363287
 30
0.0
 40
0.1999999999999643
100
AcDbArc
 50
290.5560452196008
 51
0.0
  0
ARC
  5
5C1
330
1F
100
AcDbEntity
  8
0
  6
CONTINUOUS
 62
     7
100
AcDbCircle
 10
167.2861561236693
 20
11.11139990636701
 30
0.0
 40
0.2000000000000171
100
AcDbArc
 50
0.0
 51
69.44395478040475
  0
ARC
  5
5C2
330
1F
100
AcDbEntity
  8
0
  6
CONTINUOUS
 62
     7
100
AcDbCircle
 10
167.2861561236693
 20
12.88860009363285
 30
0.0
 40
0.1999999999999693
100
AcDbArc
 50
290.5560452196003
 51
0.0
  0
ARC
  5
5C3
330
1F
100
AcDbEntity
  8
0
  6
CONTINUOUS
 62
     7
100
AcDbCircle
 10
166.2861561236693
 20
11.11139990636701
 30
0.0
 40
0.2000000000000171
100
AcDbArc
 50
0.0
 51
69.44395478040475
  0
ARC
  5
5C4
330
1F
100
AcDbEntity
  8
0
  6
CONTINUOUS
 62
     7
100
AcDbCircle
 10
166.2861561236693
 20
12.88860009363285
 30
0.0
 40
0.1999999999999693
100
AcDbArc
 50
290.5560452196003
 51
0.0
  0
ARC
  5
5C5
330
1F
100
AcDbEntity
  8
0
  6
CONTINUOUS
 62
     7
100
AcDbCircle
 10
167.2861561236693
 20
19.51139990636699
 30
0.0
 40
0.2000000000000171
100
AcDbArc
 50
0.0
 51
69.44395478040475
  0
ARC
  5
5C6
330
1F
100
AcDbEntity
  8
0
  6
CONTINUOUS
 62
     7
100
AcDbCircle
 10
167.2861561236693
 20
21.28860009363285
 30
0.0
 40
0.1999999999999892
100
AcDbArc
 50
290.5560452195981
 51
0.0
  0
ARC
  5
5C7
330
1F
100
AcDbEntity
  8
0
  6
CONTINUOUS
 62
     7
100
AcDbCircle
 10
166.2861561236693
 20
19.51139990636699
 30
0.0
 40
0.2000000000000171
100
AcDbArc
 50
0.0
 51
69.44395478040475
  0
ARC
  5
5C8
330
1F
100
AcDbEntity
  8
0
  6
CONTINUOUS
 62
     7
100
AcDbCircle
 10
166.2861561236693
 20
21.28860009363285
 30
0.0
 40
0.1999999999999892
100
AcDbArc
 50
290.5560452195981
 51
0.0
  0
ARC
  5
5C9
330
1F
100
AcDbEntity
  8
0
  6
CONTINUOUS
 62
     7
100
AcDbCircle
 10
167.2861561236693
 20
27.91139990636697
 30
0.0
 40
0.2000000000000171
100
AcDbArc
 50
0.0
 51
69.44395478040475
  0
ARC
  5
5CA
330
1F
100
AcDbEntity
  8
0
  6
CONTINUOUS
 62
     7
100
AcDbCircle
 10
167.2861561236693
 20
29.68860009363283
 30
0.0
 40
0.1999999999999958
100
AcDbArc
 50
290.5560452195974
 51
0.0
  0
ARC
  5
5CB
330
1F
100
AcDbEntity
  8
0
  6
CONTINUOUS
 62
     7
100
AcDbCircle
 10
166.2861561236693
 20
27.91139990636697
 30
0.0
 40
0.2000000000000171
100
AcDbArc
 50
0.0
 51
69.44395478040475
  0
ARC
  5
5CC
330
1F
100
AcDbEntity
  8
0
  6
CONTINUOUS
 62
     7
100
AcDbCircle
 10
166.2861561236693
 20
29.68860009363283
 30
0.0
 40
0.1999999999999958
100
AcDbArc
 50
290.5560452195974
 51
0.0
  0
ARC
  5
5CD
330
1F
100
AcDbEntity
  8
1
  6
CONTINUOUS
 62
     7
100
AcDbCircle
 10
136.0
 20
42.90000000000001
 30
0.0
 40
1.199999999999996
100
AcDbArc
 50
90.0
 51
180.0
  0
ARC
  5
5CE
330
1F
100
AcDbEntity
  8
1
  6
CONTINUOUS
 62
     7
100
AcDbCircle
 10
159.6
 20
42.90000000000001
 30
0.0
 40
1.200000000000017
100
AcDbArc
 50
0.0
 51
90.0
  0
ARC
  5
5CF
330
1F
100
AcDbEntity
  8
1
  6
CONTINUOUS
 62
     7
100
AcDbCircle
 10
168.5
 20
41.75000000000001
 30
0.0
 40
1.0
100
AcDbArc
 50
0.0
 51
90.0
  0
ARC
  5
5D0
330
1F
100
AcDbEntity
  8
1
  6
CONTINUOUS
 62
     7
100
AcDbCircle
 10
168.5
 20
38.25000000000001
 30
0.0
 40
1.0
100
AcDbArc
 50
270.0
 51
0.0
  0
ARC
  5
5D1
330
1F
100
AcDbEntity
  8
1
  6
CONTINUOUS
 62
     7
100
AcDbCircle
 10
136.0
 20
-60.89999999999998
 30
0.0
 40
1.199999999999989
100
AcDbArc
 50
180.0
 51
270.0
  0
ARC
  5
5D2
330
1F
100
AcDbEntity
  8
1
  6
CONTINUOUS
 62
     7
100
AcDbCircle
 10
159.6
 20
-60.89999999999998
 30
0.0
 40
1.200000000000003
100
AcDbArc
 50
270.0
 51
0.0
  0
ARC
  5
5D3
330
1F
100
AcDbEntity
  8
1
  6
CONTINUOUS
 62
     7
100
AcDbCircle
 10
168.5
 20
-59.75
 30
0.0
 40
1.0
100
AcDbArc
 50
270.0
 51
0.0
  0
ARC
  5
5D4
330
1F
100
AcDbEntity
  8
1
  6
CONTINUOUS
 62
     7
100
AcDbCircle
 10
168.5
 20
-56.25
 30
0.0
 40
1.0
100
AcDbArc
 50
0.0
 51
90.0
  0
ARC
  5
5D5
330
1F
100
AcDbEntity
  8
1
  6
CONTINUOUS
 62
     7
100
AcDbCircle
 10
-12.5
 20
-46.5
 30
0.0
 40
2.5
100
AcDbArc
 50
180.0
 51
270.0
  0
ARC
  5
5D6
330
1F
100
AcDbEntity
  8
1
  6
CONTINUOUS
 62
     7
100
AcDbCircle
 10
23.20000000000002
 20
28.29999999999994
 30
0.0
 40
1.199999999999989
100
AcDbArc
 50
0.0
 51
90.0
  0
ARC
  5
5D7
330
1F
100
AcDbEntity
  8
1
  6
CONTINUOUS
 62
     7
100
AcDbCircle
 10
-11.19999999999999
 20
28.29999999999994
 30
0.0
 40
1.199999999999999
100
AcDbArc
 50
90.0
 51
180.0
  0
ARC
  5
5D8
330
1F
100
AcDbEntity
  8
1
  6
CONTINUOUS
 62
     7
100
AcDbCircle
 10
-11.19999999999999
 20
-22.80000000000006
 30
0.0
 40
1.19999999999999
100
AcDbArc
 50
180.0000000000009
 51
270.0
  0
ARC
  5
5D9
330
1F
100
AcDbEntity
  8
1
  6
CONTINUOUS
 62
     7
100
AcDbCircle
 10
23.20000000000002
 20
-22.80000000000006
 30
0.0
 40
1.199999999999999
100
AcDbArc
 50
270.0
 51
0.00000000000051
  0
ARC
  5
5DA
330
1F
100
AcDbEntity
  8
1
  6
CONTINUOUS
 62
     7
100
AcDbCircle
 10
24.5
 20
-46.5
 30
0.0
 40
2.5
100
AcDbArc
 50
270.0
 51
0.0
  0
ARC
  5
5DB
330
1F
100
AcDbEntity
  8
1
  6
CONTINUOUS
 62
     7
100
AcDbCircle
 10
24.5
 20
31.19990000000003
 30
0.0
 40
2.5
100
AcDbArc
 50
359.9999999999995
 51
90.0
  0
ARC
  5
5DC
330
1F
100
AcDbEntity
  8
1
  6
CONTINUOUS
 62
     7
100
AcDbCircle
 10
-12.5
 20
31.19990000000003
 30
0.0
 40
2.499999999999975
100
AcDbArc
 50
90.0
 51
180.0
  0
ARC
  5
5DD
330
1F
100
AcDbEntity
  8
1
  6
CONTINUOUS
 62
     7
100
AcDbCircle
 10
-12.5
 20
31.19990000000003
 30
0.0
 40
0.9999999999999964
100
AcDbArc
 50
89.99999999999939
 51
180.0
  0
ARC
  5
5DE
330
1F
100
AcDbEntity
  8
1
  6
CONTINUOUS
 62
     7
100
AcDbCircle
 10
24.5
 20
31.19990000000003
 30
0.0
 40
1.0
100
AcDbArc
 50
0.0
 51
90.0
  0
ARC
  5
5DF
330
1F
100
AcDbEntity
  8
1
  6
CONTINUOUS
 62
     7
100
AcDbCircle
 10
24.5
 20
-26.99999999999994
 30
0.0
 40
1.0
100
AcDbArc
 50
270.0
 51
0.0
  0
ARC
  5
5E0
330
1F
100
AcDbEntity
  8
1
  6
CONTINUOUS
 62
     7
100
AcDbCircle
 10
-12.5
 20
-26.99999999999994
 30
0.0
 40
0.9999999999999893
100
AcDbArc
 50
180.0000000000006
 51
270.0
  0
ARC
  5
5E1
330
1F
100
AcDbEntity
  8
1
  6
CONTINUOUS
 62
     7
100
AcDbCircle
 10
8.49999999999989
 20
-29.99999999999994
 30
0.0
 40
0.9999999999999396
100
AcDbArc
 50
90.00000000000388
 51
180.0000000000035
  0
ARC
  5
5E2
330
1F
100
AcDbEntity
  8
1
  6
CONTINUOUS
 62
     7
100
AcDbCircle
 10
8.49999999999995
 20
-36.0
 30
0.0
 40
1.0
100
AcDbArc
 50
180.0
 51
270.0
  0
ARC
  5
5E3
330
1F
100
AcDbEntity
  8
1
  6
CONTINUOUS
 62
     7
100
AcDbCircle
 10
24.49999999999996
 20
-36.0
 30
0.0
 40
1.0
100
AcDbArc
 50
270.0
 51
0.0
  0
ARC
  5
5E4
330
1F
100
AcDbEntity
  8
1
  6
CONTINUOUS
 62
     7
100
AcDbCircle
 10
24.49999999999996
 20
-30.0
 30
0.0
 40
1.0
100
AcDbArc
 50
0.0
 51
90.0
  0
ARC
  5
5E5
330
1F
100
AcDbEntity
  8
1
  6
CONTINUOUS
 62
     7
100
AcDbCircle
 10
3.49999999999995
 20
-41.0
 30
0.0
 40
1.0
100
AcDbArc
 50
0.0
 51
90.0
  0
ARC
  5
5E6
330
1F
100
AcDbEntity
  8
1
  6
CONTINUOUS
 62
     7
100
AcDbCircle
 10
-12.50000000000005
 20
-41.0
 30
0.0
 40
1.0
100
AcDbArc
 50
90.0
 51
180.0
  0
ARC
  5
5E7
330
1F
100
AcDbEntity
  8
1
  6
CONTINUOUS
 62
     7
100
AcDbCircle
 10
-12.50000000000005
 20
-47.0
 30
0.0
 40
1.0
100
AcDbArc
 50
180.0
 51
270.0
  0
ARC
  5
5E8
330
1F
100
AcDbEntity
  8
1
  6
CONTINUOUS
 62
     7
100
AcDbCircle
 10
3.49999999999995
 20
-47.0
 30
0.0
 40
1.0
100
AcDbArc
 50
270.0
 51
0.0
  0
ENDSEC
  0
SECTION
  2
OBJECTS
  0
DICTIONARY
  5
C
330
0
100
AcDbDictionary
  3
ACAD_GROUP
350
D
  3
ACAD_LAYOUT
350
1A
  3
ACAD_MATERIAL
350
43
  3
ACAD_MLEADERSTYLE
350
6B
  3
ACAD_MLINESTYLE
350
17
  3
ACAD_PLOTSETTINGS
350
19
  3
ACAD_SCALELIST
350
47
  3
ACAD_VISUALSTYLE
350
2A
  3
ACDBHEADERROUNDTRIPXREC
350
5E9
  3
ACDBVARIABLEDICTIONARY
350
60A
  0
DICTIONARY
  5
611
330
8
100
AcDbDictionary
280
     1
  3
ACAD_XREC_ROUNDTRIP
360
612
  0
DICTIONARY
  5
D
102
{ACAD_REACTORS
330
C
102
}
330
C
100
AcDbDictionary
  0
DICTIONARY
  5
1A
102
{ACAD_REACTORS
330
C
102
}
330
C
100
AcDbDictionary
  0
DICTIONARY
  5
43
102
{ACAD_REACTORS
330
C
102
}
330
C
100
AcDbDictionary
  3
BYBLOCK
350
45
  3
BYLAYER
350
44
  3
GLOBAL
350
46
  0
DICTIONARY
  5
6B
102
{ACAD_REACTORS
330
C
102
}
330
C
100
AcDbDictionary
  3
STANDARD
350
6C
  0
DICTIONARY
  5
17
102
{ACAD_REACTORS
330
C
102
}
330
C
100
AcDbDictionary
  3
STANDARD
350
18
  0
DICTIONARY
  5
19
102
{ACAD_REACTORS
330
C
102
}
330
C
100
AcDbDictionary
  0
DICTIONARY
  5
47
102
{ACAD_REACTORS
330
C
102
}
330
C
100
AcDbDictionary
  3
A0
350
48
  3
A1
350
49
  3
A2
350
4A
  3
A3
350
4B
  3
A4
350
4C
  3
A5
350
4D
  3
A6
350
4E
  3
A7
350
4F
  3
A8
350
50
  3
A9
350
51
  3
B0
350
52
  3
B1
350
53
  3
B2
350
54
  3
B3
350
55
  3
B4
350
56
  3
B5
350
57
  3
B6
350
58
  3
B7
350
59
  3
B8
350
5A
  3
B9
350
5B
  3
C0
350
5C
  3
C1
350
5D
  3
C2
350
5E
  3
C3
350
5F
  3
C4
350
60
  3
C5
350
61
  3
C6
350
62
  3
C7
350
63
  3
C8
350
64
  3
C9
350
65
  3
D0
350
66
  3
D1
350
67
  3
D2
350
68
  0
DICTIONARY
  5
2A
102
{ACAD_REACTORS
330
C
102
}
330
C
100
AcDbDictionary
  3
2DWIREFRAME
350
2F
  3
BASIC
350
32
  3
BRIGHTEN
350
36
  3
COLORCHANGE
350
3A
  3
CONCEPTUAL
350
34
  3
DIM
350
35
  3
EDGECOLOROFF
350
3D
  3
FACEPATTERN
350
39
  3
FLAT
350
2B
  3
FLATWITHEDGES
350
2C
  3
GOURAUD
350
2D
  3
GOURAUDWITHEDGES
350
2E
  3
HIDDEN
350
31
  3
JITTEROFF
350
3B
  3
LINEPATTERN
350
38
  3
OVERHANGOFF
350
3C
  3
REALISTIC
350
33
  3
SHADED
350
42
  3
SHADED_WITH_EDGES
350
41
  3
SHADES_OF_GRAY
350
3E
  3
SKETCHY
350
3F
  3
THICKEN
350
37
  3
WIREFRAME
350
30
  3
X-RAY
350
40
  0
DICTIONARY
  5
5E9
102
{ACAD_REACTORS
330
C
102
}
330
C
100
AcDbDictionary
  3
CEPSNID
350
5F3
  3
CEPSNTYPE
350
5F2
  3
DIMSTYLEDATA
350
609
  3
FINGERPRINTGUID
350
5F4
  3
HYPERLINKBASE
350
5EC
  3
INSUNITS
350
5F1
  3
LAYOUTDICT
350
5EE
  3
LWETCUNION
350
5F0
  3
PLOTSETDICT
350
5EF
  3
PSVPSCALE
350
5F6
  3
PUCSBASE
350
5F9
  3
PUCSORGBACK
350
5FF
  3
PUCSORGBOTTOM
350
5FB
  3
PUCSORGFRONT
350
5FE
  3
PUCSORGLEFT
350
5FC
  3
PUCSORGRIGHT
350
5FD
  3
PUCSORGTOP
350
5FA
  3
PUCSORTHOREF
350
5F7
  3
PUCSORTHOVIEW
350
5F8
  3
STYLESHEET
350
5ED
  3
TSTACKALIGN
350
5EA
  3
TSTACKSIZE
350
5EB
  3
UCSBASE
350
602
  3
UCSORGBACK
350
608
  3
UCSORGBOTTOM
350
604
  3
UCSORGFRONT
350
607
  3
UCSORGLEFT
350
605
  3
UCSORGRIGHT
350
606
  3
UCSORGTOP
350
603
  3
UCSORTHOREF
350
600
  3
UCSORTHOVIEW
350
601
  3
VERSIONGUID
350
5F5
  0
DICTIONARY
  5
60A
102
{ACAD_REACTORS
330
C
102
}
330
C
100
AcDbDictionary
  3
CANNOSCALE
350
613
  3
CMLEADERSTYLE
350
60C
  3
CTABLESTYLE
350
60B
  3
DIMASSOC
350
60F
  3
HIDETEXT
350
610
  3
MSLTSCALE
350
614
  0
XRECORD
  5
612
102
{ACAD_REACTORS
330
611
102
}
330
611
100
AcDbXrecord
102
VTR_0.000_0.000_1.000_1.000_GRIDDISPLAY
 70
     3
102
VTR_0.000_0.000_1.000_1.000_GRIDMAJOR
 70
     5
102
VTR_0.000_0.000_1.000_1.000_DEFAULTLIGHTING
280
     1
102
VTR_0.000_0.000_1.000_1.000_DEFAULTLIGHTINGTYPE
 70
     1
102
VTR_0.000_0.000_1.000_1.000_BRIGHTNESS
141
0.0
102
VTR_0.000_0.000_1.000_1.000_CONTRAST
142
0.0
  0
MATERIAL
  5
45
102
{ACAD_REACTORS
330
43
102
}
102
{ACAD_XDICTIONARY
360
617
102
}
330
43
100
AcDbMaterial
  1
BYBLOCK
  0
MATERIAL
  5
44
102
{ACAD_REACTORS
330
43
102
}
102
{ACAD_XDICTIONARY
360
615
102
}
330
43
100
AcDbMaterial
  1
BYLAYER
  0
MATERIAL
  5
46
102
{ACAD_REACTORS
330
43
102
}
102
{ACAD_XDICTIONARY
360
619
102
}
330
43
100
AcDbMaterial
  1
GLOBAL
  0
ACAD_PROXY_OBJECT
  5
6C
102
{ACAD_REACTORS
330
6B
102
}
330
6B
100
AcDbProxyObject
 90
      499
 91
      505
 93
      610
310
40901902A4063FBFFFFFE056BD1B81E855B9FC0AD7A3703D0AD73F4214DD185B99185C9900AD7A3703D0AC73F90141901A02B5E8DC0F42B1CFC02B5E8DC0F42B1CFE5764000000000000300FC0
340
14
340
0
340
11
340
0
 94
        0
1001
ACAD_MLEADERVER
1070
     2
  0
MLINESTYLE
  5
18
102
{ACAD_REACTORS
330
17
102
}
330
17
100
AcDbMlineStyle
  2
Standard
 70
     0
  3

 62
   256
 51
90.0
 52
90.0
 71
     2
 49
0.5
 62
   256
  6
BYLAYER
 49
-0.5
 62
   256
  6
BYLAYER
  0
ACAD_PROXY_OBJECT
  5
48
102
{ACAD_REACTORS
330
47
102
}
330
47
100
AcDbProxyObject
 90
      499
 91
      503
 93
       41
310
903313A31580
  0
ACAD_PROXY_OBJECT
  5
49
102
{ACAD_REACTORS
330
47
102
}
330
47
100
AcDbProxyObject
 90
      499
 91
      503
 93
      105
310
903313A324000000000000004000
  0
ACAD_PROXY_OBJECT
  5
4A
102
{ACAD_REACTORS
330
47
102
}
330
47
100
AcDbProxyObject
 90
      499
 91
      503
 93
      105
310
903313A344000000000000104000
  0
ACAD_PROXY_OBJECT
  5
4B
102
{ACAD_REACTORS
330
47
102
}
330
47
100
AcDbProxyObject
 90
      499
 91
      503
 93
      105
310
903313A354000000000000144000
  0
ACAD_PROXY_OBJECT
  5
4C
102
{ACAD_REACTORS
330
47
102
}
330
47
100
AcDbProxyObject
 90
      499
 91
      503
 93
      105
310
903313A384000000000000204000
  0
ACAD_PROXY_OBJECT
  5
4D
102
{ACAD_REACTORS
330
47
102
}
330
47
100
AcDbProxyObject
 90
      499
 91
      503
 93
      113
310
904313A31304000000000000244000
  0
ACAD_PROXY_OBJECT
  5
4E
102
{ACAD_REACTORS
330
47
102
}
330
47
100
AcDbProxyObject
 90
      499
 91
      503
 93
      113
310
904313A31364000000000000304000
  0
ACAD_PROXY_OBJECT
  5
4F
102
{ACAD_REACTORS
330
47
102
}
330
47
100
AcDbProxyObject
 90
      499
 91
      503
 93
      113
310
904313A32304000000000000344000
  0
ACAD_PROXY_OBJECT
  5
50
102
{ACAD_REACTORS
330
47
102
}
330
47
100
AcDbProxyObject
 90
      499
 91
      503
 93
      113
310
904313A333040000000000003E4000
  0
ACAD_PROXY_OBJECT
  5
51
102
{ACAD_REACTORS
330
47
102
}
330
47
100
AcDbProxyObject
 90
      499
 91
      503
 93
      113
310
904313A34304000000000000444000
  0
ACAD_PROXY_OBJECT
  5
52
102
{ACAD_REACTORS
330
47
102
}
330
47
100
AcDbProxyObject
 90
      499
 91
      503
 93
      113
310
904313A35304000000000000494000
  0
ACAD_PROXY_OBJECT
  5
53
102
{ACAD_REACTORS
330
47
102
}
330
47
100
AcDbProxyObject
 90
      499
 91
      503
 93
      121
310
905313A3130304000000000000594000
  0
ACAD_PROXY_OBJECT
  5
54
102
{ACAD_REACTORS
330
47
102
}
330
47
100
AcDbProxyObject
 90
      499
 91
      503
 93
      105
310
903323A310000000000000010100
  0
ACAD_PROXY_OBJECT
  5
55
102
{ACAD_REACTORS
330
47
102
}
330
47
100
AcDbProxyObject
 90
      499
 91
      503
 93
      105
310
903343A310000000000000410100
  0
ACAD_PROXY_OBJECT
  5
56
102
{ACAD_REACTORS
330
47
102
}
330
47
100
AcDbProxyObject
 90
      499
 91
      503
 93
      105
310
903383A310000000000000810100
  0
ACAD_PROXY_OBJECT
  5
57
102
{ACAD_REACTORS
330
47
102
}
330
47
100
AcDbProxyObject
 90
      499
 91
      503
 93
      113
310
90431303A310000000000000910100
  0
ACAD_PROXY_OBJECT
  5
58
102
{ACAD_REACTORS
330
47
102
}
330
47
100
AcDbProxyObject
 90
      499
 91
      503
 93
      121
310
9053130303A310000000000001650100
  0
ACAD_PROXY_OBJECT
  5
59
102
{ACAD_REACTORS
330
47
102
}
330
47
100
AcDbProxyObject
 90
      499
 91
      503
 93
      257
310
90E312F31323822203D2031272D3022000000000000200FC000000000000284000
  0
ACAD_PROXY_OBJECT
  5
5A
102
{ACAD_REACTORS
330
47
102
}
330
47
100
AcDbProxyObject
 90
      499
 91
      503
 93
      249
310
90D312F363422203D2031272D3022000000000000240FC000000000000284000
  0
ACAD_PROXY_OBJECT
  5
5B
102
{ACAD_REACTORS
330
47
102
}
330
47
100
AcDbProxyObject
 90
      499
 91
      503
 93
      249
310
90D312F333222203D2031272D3022000000000000280FC000000000000284000
  0
ACAD_PROXY_OBJECT
  5
5C
102
{ACAD_REACTORS
330
47
102
}
330
47
100
AcDbProxyObject
 90
      499
 91
      503
 93
      249
310
90D312F313622203D2031272D30220000000000002C0FC000000000000284000
  0
ACAD_PROXY_OBJECT
  5
5D
102
{ACAD_REACTORS
330
47
102
}
330
47
100
AcDbProxyObject
 90
      499
 91
      503
 93
      249
310
90D332F333222203D2031272D30220000000000002E0FC000000000000284000
  0
ACAD_PROXY_OBJECT
  5
5E
102
{ACAD_REACTORS
330
47
102
}
330
47
100
AcDbProxyObject
 90
      499
 91
      503
 93
      241
310
90C312F3822203D2031272D3022000000000000300FC000000000000284000
  0
ACAD_PROXY_OBJECT
  5
5F
102
{ACAD_REACTORS
330
47
102
}
330
47
100
AcDbProxyObject
 90
      499
 91
      503
 93
      249
310
90D332F313622203D2031272D3022000000000000320FC000000000000284000
  0
ACAD_PROXY_OBJECT
  5
60
102
{ACAD_REACTORS
330
47
102
}
330
47
100
AcDbProxyObject
 90
      499
 91
      503
 93
      241
310
90C312F3422203D2031272D3022000000000000340FC000000000000284000
  0
ACAD_PROXY_OBJECT
  5
61
102
{ACAD_REACTORS
330
47
102
}
330
47
100
AcDbProxyObject
 90
      499
 91
      503
 93
      241
310
90C332F3822203D2031272D3022000000000000360FC000000000000284000
  0
ACAD_PROXY_OBJECT
  5
62
102
{ACAD_REACTORS
330
47
102
}
330
47
100
AcDbProxyObject
 90
      499
 91
      503
 93
      241
310
90C312F3222203D2031272D3022000000000000380FC000000000000284000
  0
ACAD_PROXY_OBJECT
  5
63
102
{ACAD_REACTORS
330
47
102
}
330
47
100
AcDbProxyObject
 90
      499
 91
      503
 93
      241
310
90C332F3422203D2031272D30220000000000003A0FC000000000000284000
  0
ACAD_PROXY_OBJECT
  5
64
102
{ACAD_REACTORS
330
47
102
}
330
47
100
AcDbProxyObject
 90
      499
 91
      503
 93
      161
310
90A3122203D2031272D30224000000000000284000
  0
ACAD_PROXY_OBJECT
  5
65
102
{ACAD_REACTORS
330
47
102
}
330
47
100
AcDbProxyObject
 90
      499
 91
      503
 93
      257
310
90E312D312F3222203D2031272D30220000000000003E0FC000000000000284000
  0
ACAD_PROXY_OBJECT
  5
66
102
{ACAD_REACTORS
330
47
102
}
330
47
100
AcDbProxyObject
 90
      499
 91
      503
 93
      225
310
90A3322203D2031272D302200000000000002100000000000000284000
  0
ACAD_PROXY_OBJECT
  5
67
102
{ACAD_REACTORS
330
47
102
}
330
47
100
AcDbProxyObject
 90
      499
 91
      503
 93
      225
310
90A3622203D2031272D302200000000000006100000000000000284000
  0
ACAD_PROXY_OBJECT
  5
68
102
{ACAD_REACTORS
330
47
102
}
330
47
100
AcDbProxyObject
 90
      499
 91
      503
 93
      249
310
90D31272D3022203D2031272D30220000000000000A100000000000000284000
  0
ACAD_PROXY_OBJECT
  5
2F
102
{ACAD_REACTORS
330
2A
102
}
330
2A
100
AcDbProxyObject
 90
      499
 91
      501
 93
      436
310
42CC9915DA5C99599C985B595049028333333333333E33F0000000000000F90107901411070040501600405405064090741402480A0340
1001
ACAD
1000
AcDbSavedByObjectVersion
1070
     0
  0
ACAD_PROXY_OBJECT
  5
32
102
{ACAD_REACTORS
330
2A
102
}
330
2A
100
AcDbProxyObject
 90
      499
 91
      501
 93
      388
310
4150985CDA58D07406404333333333333E33F0000000000000F90107A41107004050150841D405064090741402480A0350
1001
ACAD
1000
AcDbSavedByObjectVersion
1070
     0
  0
ACAD_PROXY_OBJECT
  5
36
102
{ACAD_REACTORS
330
2A
102
}
330
2A
100
AcDbProxyObject
 90
      499
 91
      501
 93
      428
310
42109C9A59DA1D195B90C409028333333333333E33F0000000000000F9010790141107004050150841D405064090741402480A029950
1001
ACAD
1000
AcDbSavedByObjectVersion
1070
     0
  0
ACAD_PROXY_OBJECT
  5
3A
102
{ACAD_REACTORS
330
2A
102
}
330
2A
100
AcDbProxyObject
 90
      499
 91
      501
 93
      452
310
42D0DBDB1BDC90DA185B99D95104090240C333333333333E33F0000000000000F90108901411070040501508421405064090741402480A0350
1001
ACAD
1000
AcDbSavedByObjectVersion
1070
     0
  0
ACAD_PROXY_OBJECT
  5
34
102
{ACAD_REACTORS
330
2A
102
}
330
2A
100
AcDbProxyObject
 90
      499
 91
      501
 93
      500
310
4290DBDB98D95C1D1D585B10940D028333333333333E33F0000000000000F90107902409070040501000000000018199010841D405064090740C02480A0340
1001
ACAD
1000
AcDbSavedByObjectVersion
1070
     0
  0
ACAD_PROXY_OBJECT
  5
35
102
{ACAD_REACTORS
330
2A
102
}
330
2A
100
AcDbProxyObject
 90
      499
 91
      501
 93
      412
310
40D11A5B50B409028333333333333E33F0000000000000F9010790141107004050150841D405064090741402480A02677FFFFFD0
1001
ACAD
1000
AcDbSavedByObjectVersion
1070
     0
  0
ACAD_PROXY_OBJECT
  5
3D
102
{ACAD_REACTORS
330
2A
102
}
330
2A
100
AcDbProxyObject
 90
      499
 91
      501
 93
      452
310
43115919D950DBDB1BDC93D999916409028333333333333E33F0000000000000F9010790141107004050150841D405064090741402480A0350
1001
ACAD
1000
AcDbSavedByObjectVersion
1070
     0
  0
ACAD_PROXY_OBJECT
  5
39
102
{ACAD_REACTORS
330
2A
102
}
330
2A
100
AcDbProxyObject
 90
      499
 91
      501
 93
      444
310
42D19858D95C185D1D195C9B90F409028333333333333E33F0000000000000F9010790141107004050150841D405064090741402480A0350
1001
ACAD
1000
AcDbSavedByObjectVersion
1070
     0
  0
ACAD_PROXY_OBJECT
  5
2B
102
{ACAD_REACTORS
330
2A
102
}
330
2A
100
AcDbProxyObject
 90
      499
 91
      501
 93
      380
310
41119B185D240901404333333333333E33F0000000000000F9010740A907004050150841D405064090741402480A1B50
1001
ACAD
1000
AcDbSavedByObjectVersion
1070
     0
  0
ACAD_PROXY_OBJECT
  5
2C
102
{ACAD_REACTORS
330
2A
102
}
330
2A
100
AcDbProxyObject
 90
      499
 91
      501
 93
      468
310
43519B185D15DA5D1A115919D95CD0140901404333333333333E33F0000000000000F90107409019070040501600405405064090741402480A1B50
1001
ACAD
1000
AcDbSavedByObjectVersion
1070
     0
  0
ACAD_PROXY_OBJECT
  5
2D
102
{ACAD_REACTORS
330
2A
102
}
330
2A
100
AcDbProxyObject
 90
      499
 91
      501
 93
      404
310
41D1DBDD5C985D5910240902404333333333333E33F0000000000000F9010740A9070040501641D405064090741402480A1B50
1001
ACAD
1000
AcDbSavedByObjectVersion
1070
     0
  0
ACAD_PROXY_OBJECT
  5
2E
102
{ACAD_REACTORS
330
2A
102
}
330
2A
100
AcDbProxyObject
 90
      499
 91
      501
 93
      492
310
4411DBDD5C985D5915DA5D1A115919D95CD0340902404333333333333E33F0000000000000F90107409019070040501600405405064090741402480A1B50
1001
ACAD
1000
AcDbSavedByObjectVersion
1070
     0
  0
ACAD_PROXY_OBJECT
  5
31
102
{ACAD_REACTORS
330
2A
102
}
330
2A
100
AcDbProxyObject
 90
      499
 91
      501
 93
      476
310
41921A5919195B90640502408333333333333E33F0000000000000F901079024090700405020000000000001110200405405064090740C02480A0340
1001
ACAD
1000
AcDbSavedByObjectVersion
1070
     0
  0
ACAD_PROXY_OBJECT
  5
3B
102
{ACAD_REACTORS
330
2A
102
}
330
2A
100
AcDbProxyObject
 90
      499
 91
      501
 93
      428
310
42529A5D1D195C93D999914409028333333333333E33F0000000000000F9010790141107004050150A41D405064090741402480A0350
1001
ACAD
1000
AcDbSavedByObjectVersion
1070
     0
  0
ACAD_PROXY_OBJECT
  5
38
102
{ACAD_REACTORS
330
2A
102
}
330
2A
100
AcDbProxyObject
 90
      499
 91
      501
 93
      444
310
42D31A5B995C185D1D195C9B90E409028333333333333E33F0000000000000F9010790141107004050750841D405064090741402483A0350
1001
ACAD
1000
AcDbSavedByObjectVersion
1070
     0
  0
ACAD_PROXY_OBJECT
  5
3C
102
{ACAD_REACTORS
330
2A
102
}
330
2A
100
AcDbProxyObject
 90
      499
 91
      501
 93
      444
310
42D3DD995C9A185B99D3D999915409028333333333333E33F0000000000000F9010790141107004050150941D405064090741402480A0350
1001
ACAD
1000
AcDbSavedByObjectVersion
1070
     0
  0
ACAD_PROXY_OBJECT
  5
33
102
{ACAD_REACTORS
330
2A
102
}
330
2A
100
AcDbProxyObject
 90
      499
 91
      501
 93
      428
310
425499585B1A5CDD1A58D08409038333333333333E33F0000000000000F9010740A907004050150800405405064090740C02480A1B40
1001
ACAD
1000
AcDbSavedByObjectVersion
1070
     0
  0
ACAD_PROXY_OBJECT
  5
42
102
{ACAD_REACTORS
330
2A
102
}
330
2A
100
AcDbProxyObject
 90
      499
 91
      501
 93
      420
310
4194DA1859195911B40902404333333333333E33F0000000000000F9010740A41107004050150800405405064090840C02480A0B40
1001
ACAD
1000
AcDbSavedByObjectVersion
1070
     0
  0
ACAD_PROXY_OBJECT
  5
41
102
{ACAD_REACTORS
330
2A
102
}
330
2A
100
AcDbProxyObject
 90
      499
 91
      501
 93
      516
310
4454DA18591959081DDA5D1A08195919D95CD1A40902404333333333333E33F0000000000000F901074090142907004050250800405405064090740C02480A0B40
1001
ACAD
1000
AcDbSavedByObjectVersion
1070
     0
  0
ACAD_PROXY_OBJECT
  5
3E
102
{ACAD_REACTORS
330
2A
102
}
330
2A
100
AcDbProxyObject
 90
      499
 91
      501
 93
      532
310
4394DA1859195CC81BD98811DC985E5174090240C333333333333E33F0000000000000F901079024090741D01000000000000111010841D405064090740C02480A0340
1001
ACAD
1000
AcDbSavedByObjectVersion
1070
     0
  0
ACAD_PROXY_OBJECT
  5
3F
102
{ACAD_REACTORS
330
2A
102
}
330
2A
100
AcDbProxyObject
 90
      499
 91
      501
 93
      476
310
41D4DAD95D18DA1E51840502408333333333333E33F0000000000000F901079024090741D01000000000000111010B41D405064090741802480A0340
1001
ACAD
1000
AcDbSavedByObjectVersion
1070
     0
  0
ACAD_PROXY_OBJECT
  5
37
102
{ACAD_REACTORS
330
2A
102
}
330
2A
100
AcDbProxyObject
 90
      499
 91
      501
 93
      412
310
41D51A1A58DAD95B90D409028333333333333E33F0000000000000F9010790141107004050150C41D405064090741402480A0350
1001
ACAD
1000
AcDbSavedByObjectVersion
1070
     0
  0
ACAD_PROXY_OBJECT
  5
30
102
{ACAD_REACTORS
330
2A
102
}
330
2A
100
AcDbProxyObject
 90
      499
 91
      501
 93
      420
310
4255DA5C99599C985B595059028333333333333E33F0000000000000F90107901411070040501600405405064090740C02480A0340
1001
ACAD
1000
AcDbSavedByObjectVersion
1070
     0
  0
ACAD_PROXY_OBJECT
  5
40
102
{ACAD_REACTORS
330
2A
102
}
330
2A
100
AcDbProxyObject
 90
      499
 91
      501
 93
      404
310
41560B54985E51940902404000000000000E03F0000000000000F9010740501907004050150841D405064090740C02480A1B40
1001
ACAD
1000
AcDbSavedByObjectVersion
1070
     0
  0
XRECORD
  5
5F3
102
{ACAD_REACTORS
330
5E9
102
}
330
5E9
100
AcDbXrecord
340
0
  0
XRECORD
  5
5F2
102
{ACAD_REACTORS
330
5E9
102
}
330
5E9
100
AcDbXrecord
 90
        0
  0
XRECORD
  5
609
102
{ACAD_REACTORS
330
5E9
102
}
330
5E9
100
AcDbXrecord
1000
DSTYLE
1002
{
1070
   171
 70
     2
1070
   143
 40
25.4
1070
   274
 70
     2
1070
    41
 40
0.18
1070
   141
 40
0.09
1070
   271
 70
     4
1070
    43
 40
0.38
1070
   278
 70
    46
1070
    44
 40
0.18
1070
    42
 40
0.0625
1070
   147
 40
0.09
1070
    77
 70
     0
1070
   272
 70
     4
1070
    73
 70
     1
1070
   172
 70
     0
1070
    74
 70
     1
1070
   283
 70
     1
1070
   340
340
11
1070
   140
 40
0.18
1070
   284
 70
     0
1070
    78
 70
     0
1002
}
  0
XRECORD
  5
5F4
102
{ACAD_REACTORS
330
5E9
102
}
330
5E9
100
AcDbXrecord
  1
{BAF5AA9E-BC21-48F8-A806-4C45B8437DBF}
  0
XRECORD
  5
5EC
102
{ACAD_REACTORS
330
5E9
102
}
330
5E9
100
AcDbXrecord
  1

  0
XRECORD
  5
5F1
102
{ACAD_REACTORS
330
5E9
102
}
330
5E9
100
AcDbXrecord
 90
        4
  0
XRECORD
  5
5EE
102
{ACAD_REACTORS
330
5E9
102
}
330
5E9
100
AcDbXrecord
340
1A
  0
XRECORD
  5
5F0
102
{ACAD_REACTORS
330
5E9
102
}
330
5E9
100
AcDbXrecord
 90
    10781
  0
XRECORD
  5
5EF
102
{ACAD_REACTORS
330
5E9
102
}
330
5E9
100
AcDbXrecord
340
19
  0
XRECORD
  5
5F6
102
{ACAD_REACTORS
330
5E9
102
}
330
5E9
100
AcDbXrecord
 40
0.0
  0
XRECORD
  5
5F9
102
{ACAD_REACTORS
330
5E9
102
}
330
5E9
100
AcDbXrecord
340
0
  0
XRECORD
  5
5FF
102
{ACAD_REACTORS
330
5E9
102
}
330
5E9
100
AcDbXrecord
 10
0.0
 20
0.0
 30
0.0
  0
XRECORD
  5
5FB
102
{ACAD_REACTORS
330
5E9
102
}
330
5E9
100
AcDbXrecord
 10
0.0
 20
0.0
 30
0.0
  0
XRECORD
  5
5FE
102
{ACAD_REACTORS
330
5E9
102
}
330
5E9
100
AcDbXrecord
 10
0.0
 20
0.0
 30
0.0
  0
XRECORD
  5
5FC
102
{ACAD_REACTORS
330
5E9
102
}
330
5E9
100
AcDbXrecord
 10
0.0
 20
0.0
 30
0.0
  0
XRECORD
  5
5FD
102
{ACAD_REACTORS
330
5E9
102
}
330
5E9
100
AcDbXrecord
 10
0.0
 20
0.0
 30
0.0
  0
XRECORD
  5
5FA
102
{ACAD_REACTORS
330
5E9
102
}
330
5E9
100
AcDbXrecord
 10
0.0
 20
0.0
 30
0.0
  0
XRECORD
  5
5F7
102
{ACAD_REACTORS
330
5E9
102
}
330
5E9
100
AcDbXrecord
340
0
  0
XRECORD
  5
5F8
102
{ACAD_REACTORS
330
5E9
102
}
330
5E9
100
AcDbXrecord
 70
     0
  0
XRECORD
  5
5ED
102
{ACAD_REACTORS
330
5E9
102
}
330
5E9
100
AcDbXrecord
  1

  0
XRECORD
  5
5EA
102
{ACAD_REACTORS
330
5E9
102
}
330
5E9
100
AcDbXrecord
 90
        1
  0
XRECORD
  5
5EB
102
{ACAD_REACTORS
330
5E9
102
}
330
5E9
100
AcDbXrecord
 90
       70
  0
XRECORD
  5
602
102
{ACAD_REACTORS
330
5E9
102
}
330
5E9
100
AcDbXrecord
340
0
  0
XRECORD
  5
608
102
{ACAD_REACTORS
330
5E9
102
}
330
5E9
100
AcDbXrecord
 10
0.0
 20
0.0
 30
0.0
  0
XRECORD
  5
604
102
{ACAD_REACTORS
330
5E9
102
}
330
5E9
100
AcDbXrecord
 10
0.0
 20
0.0
 30
0.0
  0
XRECORD
  5
607
102
{ACAD_REACTORS
330
5E9
102
}
330
5E9
100
AcDbXrecord
 10
0.0
 20
0.0
 30
0.0
  0
XRECORD
  5
605
102
{ACAD_REACTORS
330
5E9
102
}
330
5E9
100
AcDbXrecord
 10
0.0
 20
0.0
 30
0.0
  0
XRECORD
  5
606
102
{ACAD_REACTORS
330
5E9
102
}
330
5E9
100
AcDbXrecord
 10
0.0
 20
0.0
 30
0.0
  0
XRECORD
  5
603
102
{ACAD_REACTORS
330
5E9
102
}
330
5E9
100
AcDbXrecord
 10
0.0
 20
0.0
 30
0.0
  0
XRECORD
  5
600
102
{ACAD_REACTORS
330
5E9
102
}
330
5E9
100
AcDbXrecord
340
0
  0
XRECORD
  5
601
102
{ACAD_REACTORS
330
5E9
102
}
330
5E9
100
AcDbXrecord
 70
     0
  0
XRECORD
  5
5F5
102
{ACAD_REACTORS
330
5E9
102
}
330
5E9
100
AcDbXrecord
  1
{FAEB1C32-E019-11D5-929B-00C0DF256EC4}
  0
DICTIONARYVAR
  5
613
102
{ACAD_REACTORS
330
60A
102
}
330
60A
100
DictionaryVariables
280
     0
  1
1:1
  0
DICTIONARYVAR
  5
60C
102
{ACAD_REACTORS
330
60A
102
}
330
60A
100
DictionaryVariables
280
     0
  1
Standard
  0
DICTIONARYVAR
  5
60B
102
{ACAD_REACTORS
330
60A
102
}
330
60A
100
DictionaryVariables
280
     0
  1
Standard
  0
DICTIONARYVAR
  5
60F
102
{ACAD_REACTORS
330
60A
102
}
330
60A
100
DictionaryVariables
280
     0
  1
2
  0
DICTIONARYVAR
  5
610
102
{ACAD_REACTORS
330
60A
102
}
330
60A
100
DictionaryVariables
280
     0
  1
1
  0
DICTIONARYVAR
  5
614
102
{ACAD_REACTORS
330
60A
102
}
330
60A
100
DictionaryVariables
280
     0
  1
1
  0
DICTIONARY
  5
617
330
45
100
AcDbDictionary
280
     1
  3
ACAD_XREC_ROUNDTRIP
360
618
  0
DICTIONARY
  5
615
330
44
100
AcDbDictionary
280
     1
  3
ACAD_XREC_ROUNDTRIP
360
616
  0
DICTIONARY
  5
619
330
46
100
AcDbDictionary
280
     1
  3
ACAD_XREC_ROUNDTRIP
360
61A
  0
XRECORD
  5
618
102
{ACAD_REACTORS
330
617
102
}
330
617
100
AcDbXrecord
102
MATERIAL
148
0.0
149
0.0
149
0.0
 93
        0
 94
      127
282
     0
 72
     1
 77
     1
171
     1
175
     1
179
     1
273
     0
  0
XRECORD
  5
616
102
{ACAD_REACTORS
330
615
102
}
330
615
100
AcDbXrecord
102
MATERIAL
148
0.0
149
0.0
149
0.0
 93
        0
 94
      127
282
     0
 72
     1
 77
     1
171
     1
175
     1
179
     1
273
     0
  0
XRECORD
  5
61A
102
{ACAD_REACTORS
330
619
102
}
330
619
100
AcDbXrecord
102
MATERIAL
148
0.0
149
0.0
149
0.0
 93
        0
 94
      127
282
     0
 72
     1
 77
     1
171
     1
175
     1
179
     1
273
     0
  0
ENDSEC
  0
EOF
