  0
SECTION
  2
HEADER
  9
$ACADVER
  1
AC1014
  9
$ACADMAINTVER
 70
             0
  9
$DWGCODEPAGE
  3
ANSI_1252
  9
$INSBASE
 10
0.0
 20
0.0
 30
0.0
  9
$EXTMIN
 10
1.00000000000000E+20
 20
1.00000000000000E+20
 30
1.00000000000000E+20
  9
$EXTMAX
 10
-1.00000000000000E+20
 20
-1.00000000000000E+20
 30
-1.00000000000000E+20
  9
$LIMMIN
 10
0.0
 20
0.0
  9
$LIMMAX
 10
0.0
 20
0.0
  9
$ORTHOMODE
 70
             0
  9
$REGENMODE
 70
             1
  9
$FILLMODE
 70
             1
  9
$QTEXTMODE
 70
             0
  9
$MIRRTEXT
 70
             1
  9
$DRAGMODE
 70
             2
  9
$LTSCALE
 40
1.0
  9
$OSMODE
 70
             0
  9
$ATTMODE
 70
             1
  9
$TEXTSIZE
 40
0.2
  9
$TRACEWID
 40
0.05
  9
$TEXTSTYLE
  7
STANDARD
  9
$CLAYER
  8
0
  9
$CELTYPE
  6
CONTINUOUS
  9
$CECOLOR
 62
           256
  9
$CELTSCALE
 40
1.0
  9
$DELOBJ
 70
             1
  9
$DISPSILH
 70
             0
  9
$DIMSCALE
 40
1.0
  9
$DIMASZ
 40
0.18
  9
$DIMEXO
 40
0.0625
  9
$DIMDLI
 40
0.38
  9
$DIMRND
 40
0.0
  9
$DIMDLE
 40
0.0
  9
$DIMEXE
 40
0.18
  9
$DIMTP
 40
0.0
  9
$DIMTM
 40
0.0
  9
$DIMTXT
 40
0.18
  9
$DIMCEN
 40
0.09
  9
$DIMTSZ
 40
0.0
  9
$DIMTOL
 70
             0
  9
$DIMLIM
 70
             0
  9
$DIMTIH
 70
             1
  9
$DIMTOH
 70
             1
  9
$DIMSE1
 70
             0
  9
$DIMSE2
 70
             0
  9
$DIMTAD
 70
             0
  9
$DIMZIN
 70
             0
  9
$DIMBLK
  1

  9
$DIMASO
 70
             1
  9
$DIMSHO
 70
             1
  9
$DIMPOST
  1

  9
$DIMAPOST
  1

  9
$DIMALT
 70
             0
  9
$DIMALTD
 70
             2
  9
$DIMALTF
 40
25.4
  9
$DIMLFAC
 40
1.0
  9
$DIMTOFL
 70
             0
  9
$DIMTVP
 40
0.0
  9
$DIMTIX
 70
             0
  9
$DIMSOXD
 70
             0
  9
$DIMSAH
 70
             0
  9
$DIMBLK1
  1

  9
$DIMBLK2
  1

  9
$DIMSTYLE
  2
STANDARD
  9
$DIMCLRD
 70
             0
  9
$DIMCLRE
 70
             0
  9
$DIMCLRT
 70
             0
  9
$DIMTFAC
 40
1.0
  9
$DIMGAP
 40
0.09
  9
$DIMJUST
 70
             0
  9
$DIMSD1
 70
             0
  9
$DIMSD2
 70
             0
  9
$DIMTOLJ
 70
             1
  9
$DIMTZIN
 70
             0
  9
$DIMALTZ
 70
             0
  9
$DIMALTTZ
 70
             0
  9
$DIMFIT
 70
             3
  9
$DIMUPT
 70
             0
  9
$DIMUNIT
 70
             2
  9
$DIMDEC
 70
             4
  9
$DIMTDEC
 70
             4
  9
$DIMALTU
 70
             2
  9
$DIMALTTD
 70
             2
  9
$DIMTXSTY
  7
STANDARD
  9
$DIMAUNIT
 70
             0
  9
$LUNITS
 70
             2
  9
$LUPREC
 70
             4
  9
$SKETCHINC
 40
0.1
  9
$FILLETRAD
 40
0.0
  9
$AUNITS
 70
             0
  9
$AUPREC
 70
             0
  9
$MENU
  1
acad
  9
$ELEVATION
 40
0.0
  9
$PELEVATION
 40
0.0
  9
$THICKNESS
 40
0.0
  9
$LIMCHECK
 70
             0
  9
$BLIPMODE
 70
             1
  9
$CHAMFERA
 40
0.0
  9
$CHAMFERB
 40
0.0
  9
$CHAMFERC
 40
0.0
  9
$CHAMFERD
 40
0.0
  9
$SKPOLY
 70
             0
  9
$TDCREATE
 40
0.000000000
  9
$TDUPDATE
 40
0.000000000
  9
$TDINDWG
 40
0.0000000000
  9
$TDUSRTIMER
 40
0.0000000000
  9
$USRTIMER
 70
             1
  9
$ANGBASE
 50
0.0
  9
$ANGDIR
 70
             0
  9
$PDMODE
 70
             0
  9
$PDSIZE
 40
0.0
  9
$PLINEWID
 40
0.0
  9
$COORDS
 70
             0
  9
$SPLFRAME
 70
             0
  9
$SPLINETYPE
 70
             6
  9
$SPLINESEGS
 70
             8
  9
$ATTDIA
 70
             0
  9
$ATTREQ
 70
             1
  9
$HANDLING
 70
             1
  9
$HANDSEED
  5
2E2
  9
$SURFTAB1
 70
             6
  9
$SURFTAB2
 70
             6
  9
$SURFTYPE
 70
             6
  9
$SURFU
 70
             6
  9
$SURFV
 70
             6
  9
$UCSNAME
  2

  9
$UCSORG
 10
0.0
 20
0.0
 30
0.0
  9
$UCSXDIR
 10
1.0
 20
0.0
 30
0.0
  9
$UCSYDIR
 10
0.0
 20
1.0
 30
0.0
  9
$PUCSNAME
  2

  9
$PUCSORG
 10
0.0
 20
0.0
 30
0.0
  9
$PUCSXDIR
 10
1.0
 20
0.0
 30
0.0
  9
$PUCSYDIR
 10
0.0
 20
1.0
 30
0.0
  9
$USERI1
 70
             0
  9
$USERI2
 70
             0
  9
$USERI3
 70
             0
  9
$USERI4
 70
             0
  9
$USERI5
 70
             0
  9
$USERR1
 40
11.6
  9
$USERR2
 40
0.0
  9
$USERR3
 40
0.0
  9
$USERR4
 40
0.0
  9
$USERR5
 40
0.0
  9
$WORLDVIEW
 70
             1
  9
$SHADEDGE
 70
             3
  9
$SHADEDIF
 70
            70
  9
$TILEMODE
 70
             1
  9
$MAXACTVP
 70
            16
  9
$PINSBASE
 10
0.0
 20
0.0
 30
0.0
  9
$PLIMCHECK
 70
             0
  9
$PEXTMIN
 10
1.00000000000000E+20
 20
1.00000000000000E+20
 30
1.00000000000000E+20
  9
$PEXTMAX
 10
-1.00000000000000E+20
 20
-1.00000000000000E+20
 30
-1.00000000000000E+20
  9
$PLIMMIN
 10
0.0
 20
0.0
  9
$PLIMMAX
 10
12.0
 20
9.0
  9
$UNITMODE
 70
             0
  9
$VISRETAIN
 70
             0
  9
$PLINEGEN
 70
             1
  9
$PSLTSCALE
 70
             0
  9
$TREEDEPTH
 70
          3020
  9
$PICKSTYLE
 70
             1
  9
$CMLSTYLE
  2
STANDARD
  9
$CMLJUST
 70
             0
  9
$CMLSCALE
 40
1.0
  9
$PROXYGRAPHICS
 70
             0
  9
$MEASUREMENT
 70
             1
  0
ENDSEC
  0
SECTION
  2
CLASSES
  0
CLASS
  1
LWPOLYLINE
  2
AcDbPolyline
  3
"AutoCAD"
 90
        0
280
             0
281
             1
  0
CLASS
  1
IMAGE
  2
AcDbRasterImage
  3
ISM
 90
      127
280
             0
281
             1
  0
CLASS
  1
OLE2FRAME
  2
AcDbOle2Frame
  3
""
 90
        0
280
             0
281
             1
  0
CLASS
  1
HATCH
  2
AcDbHatch
  3
"ACAD_SEDONA"
 90
        0
280
             0
281
             1
  0
CLASS
  1
DICTIONARYVAR
  2
AcDbDictionaryVar
  3
"AutoCAD"
 90
        0
280
             0
281
             0
  0
CLASS
  1
RASTERVARIABLES
  2
AcDbRasterVariables
  3
ISM
 90
        0
280
             0
281
             0
  0
CLASS
  1
IMAGEDEF
  2
AcDbRasterImageDef
  3
ISM
 90
        0
280
             0
281
             0
  0
CLASS
  1
IMAGEDEF_REACTOR
  2
AcDbRasterImageDefReactor
  3
ISM
 90
        1
280
             0
281
             0
  0
CLASS
  1
IDBUFFER
  2
AcDbIdBuffer
  3
"Acad"
 90
        0
280
             0
281
             0
  0
CLASS
  1
SPATIAL_FILTER
  2
AcDbSpatialFilter
  3
"Acad"
 90
        0
280
             0
281
             0
  0
CLASS
  1
XRECORD
  2
AcDbXrecord
  3
"<Built In>"
 90
        0
280
             0
281
             0
  0
CLASS
  1
SORTENTSTABLE
  2
AcDbSortentsTable
  3
"AutoCAD"
 90
        0
280
             0
281
             0
  0
CLASS
  1
LAYER_INDEX
  2
AcDbLayerIndex
  3
"Acad"
 90
        0
280
             0
281
             0
  0
CLASS
  1
SPATIAL_INDEX
  2
AcDbSpatialIndex
  3
"Acad"
 90
        0
280
             0
281
             0
  0
CLASS
  1
OBJECT_PTR
  2
CAseDLPNTableRecord
  3
"ASE-LPNTableRecord"
 90
        1
280
             0
281
             0
  0
CLASS
  1
LAYOUT
  2
AcDbLayout
  3
"AutoCAD 2000"
 90
        1
280
             0
281
             0
  0
CLASS
  1
PLOTSETTINGS
  2
AcDbPlotSettings
  3
"AutoCAD 2000"
 90
        1
280
             0
281
             0
  0
CLASS
  1
ACDBDICTIONARYWDFLT
  2
AcDbDictionaryWithDefault
  3
"AutoCAD 2000"
 90
        1
280
             0
281
             0
  0
CLASS
  1
ACDBPLACEHOLDER
  2
AcDbPlaceHolder
  3
"AutoCAD 2000"
 90
        1
280
             0
281
             0
  0
ENDSEC
  0
SECTION
  2
TABLES
  0
TABLE
  2
VPORT
  5
7
100
AcDbSymbolTable
 70
             1
  0
VPORT
  5
15
100
AcDbSymbolTableRecord
100
AcDbViewportTableRecord
  2
*ACTIVE
 70
             0
 10
0.0
 20
0.0
 11
1.0
 21
1.0
 12
1780.17218130794
 22
4251.2613782651597
 13
0.0
 23
0.0
 14
1.0
 24
1.0
 15
0.0
 25
0.0
 16
0.0
 26
0.0
 36
1.0
 17
0.0
 27
0.0
 37
0.0
 40
71.5
 41
1.60267857142857
 42
50.0
 43
0.0
 44
0.0
 50
0.0
 51
0.0
 71
             0
 72
           100
 73
             1
 74
             1
 75
             0
 76
             0
 77
             0
 78
             0
  0
ENDTAB
  0
TABLE
  2
LTYPE
  5
4
100
AcDbSymbolTable
 70
            10
  0
LTYPE
  5
11
100
AcDbSymbolTableRecord
100
AcDbLinetypeTableRecord
  2
BYBLOCK
 70
            64
  3

 72
            65
 73
             0
 40
0.0
  0
LTYPE
  5
12
100
AcDbSymbolTableRecord
100
AcDbLinetypeTableRecord
  2
BYLAYER
 70
            64
  3

 72
            65
 73
             0
 40
0.0
  0
LTYPE
  5
13
100
AcDbSymbolTableRecord
100
AcDbLinetypeTableRecord
  2
CONTINUOUS
 70
            64
  3
Solid line
 72
            65
 73
             0
 40
0.0
  0
LTYPE
  5
1D
100
AcDbSymbolTableRecord
100
AcDbLinetypeTableRecord
  2
DASHED
 70
            64
  3
Dashed
 72
            65
 73
             2
 40
15.0
 49
12.0
 74
             0
 49
-3.0
 74
             0
  0
LTYPE
  5
1E
100
AcDbSymbolTableRecord
100
AcDbLinetypeTableRecord
  2
DOTTED
 70
            64
  3
Dotted
 72
            65
 73
             2
 40
3.5
 49
0.5
 74
             0
 49
-3.0
 74
             0
  0
LTYPE
  5
1F
100
AcDbSymbolTableRecord
100
AcDbLinetypeTableRecord
  2
DOT_CENTER
 70
            64
  3
Dot_Center
 72
            65
 73
             4
 40
2.0
 49
1.25
 74
             0
 49
-0.25
 74
             0
 49
0.25
 74
             0
 49
-0.25
 74
             0
  0
LTYPE
  5
20
100
AcDbSymbolTableRecord
100
AcDbLinetypeTableRecord
  2
LONG_DASHED
 70
            64
  3
Long_Dashed
 72
            65
 73
             2
 40
2.0
 49
1.5
 74
             0
 49
-0.5
 74
             0
  0
LTYPE
  5
21
100
AcDbSymbolTableRecord
100
AcDbLinetypeTableRecord
  2
DASH_CENTER
 70
            64
  3
Dash_Center
 72
            65
 73
             4
 40
36.0
 49
24.0
 74
             0
 49
-3.0
 74
             0
 49
6.0
 74
             0
 49
-3.0
 74
             0
  0
LTYPE
  5
22
100
AcDbSymbolTableRecord
100
AcDbLinetypeTableRecord
  2
PHANTOM
 70
            64
  3
Phantom
 72
            65
 73
             6
 40
2.5
 49
1.25
 74
             0
 49
-0.25
 74
             0
 49
0.25
 74
             0
 49
-0.25
 74
             0
 49
0.25
 74
             0
 49
-0.25
 74
             0
  0
LTYPE
  5
23
100
AcDbSymbolTableRecord
100
AcDbLinetypeTableRecord
  2
CENTER_DASH_DASH
 70
            64
  3
Center_Dash_Dash
 72
            65
 73
             6
 40
22.0
 49
12.0
 74
             0
 49
-3.0
 74
             0
 49
0.5
 74
             0
 49
-3.0
 74
             0
 49
0.5
 74
             0
 49
-3.0
 74
             0
  0
ENDTAB
  0
TABLE
  2
LAYER
  5
2
100
AcDbSymbolTable
 70
             2
  0
LAYER
  5
14
100
AcDbSymbolTableRecord
100
AcDbLayerTableRecord
  2
0
 70
             0
 62
             7
  6
CONTINUOUS
  0
LAYER
  5
24
100
AcDbSymbolTableRecord
100
AcDbLayerTableRecord
  2
1
 70
             0
 62
             7
  6
CONTINUOUS
  0
ENDTAB
  0
TABLE
  2
STYLE
  5
3
100
AcDbSymbolTable
 70
             1
  0
STYLE
  5
17
100
AcDbSymbolTableRecord
100
AcDbTextStyleTableRecord
  2
STANDARD
 70
             0
 40
0.0
 41
1.0
 50
0.0
 71
             0
 42
0.0
  3
txt
  4

  0
ENDTAB
  0
TABLE
  2
VIEW
  5
5
100
AcDbSymbolTable
 70
             0
  0
ENDTAB
  0
TABLE
  2
UCS
  5
6
100
AcDbSymbolTable
 70
             0
  0
ENDTAB
  0
TABLE
  2
APPID
  5
8
100
AcDbSymbolTable
 70
             1
  0
APPID
  5
16
100
AcDbSymbolTableRecord
100
AcDbRegAppTableRecord
  2
ACAD
 70
             0
  0
ENDTAB
  0
TABLE
  2
DIMSTYLE
  5
9
100
AcDbSymbolTable
 70
             1
  0
DIMSTYLE
105
18
100
AcDbSymbolTableRecord
100
AcDbDimStyleTableRecord
  2
STANDARD
 70
             0
  3

  4

  5

  6

  7

 40
1.0
 41
0.18
 42
0.0625
 43
0.38
 44
0.18
 45
0.0
 46
0.0
 47
0.0
 48
0.0
 71
             0
 72
             0
 73
             1
 74
             1
 75
             0
 76
             0
 77
             0
 78
             0
140
0.18
141
0.09
142
0.0
143
25.4
144
1.0
145
0.0
146
1.0
147
0.09
170
             0
171
             2
172
             0
173
             0
174
             0
175
             0
176
             0
177
             0
178
             0
270
             2
271
             4
272
             4
273
             2
274
             2
275
             0
280
             0
281
             0
282
             0
283
             1
284
             0
285
             0
286
             0
287
             0
288
             0
340
17
  0
ENDTAB
  0
TABLE
  2
BLOCK_RECORD
  5
1
100
AcDbSymbolTable
 70
             0
  0
BLOCK_RECORD
  5
A
100
AcDbSymbolTableRecord
100
AcDbBlockTableRecord
  2
*MODEL_SPACE
  0
BLOCK_RECORD
  5
B
100
AcDbSymbolTableRecord
100
AcDbBlockTableRecord
  2
*PAPER_SPACE
  0
ENDTAB
  0
ENDSEC
  0
SECTION
  2
BLOCKS
  0
BLOCK
  5
D
100
AcDbEntity
  8
0
100
AcDbBlockBegin
  2
*MODEL_SPACE
 70
             0
 10
0.0
 20
0.0
 30
0.0
  3
*MODEL_SPACE
  1

  0
ENDBLK
  5
E
100
AcDbEntity
  8
0
100
AcDbBlockEnd
  0
BLOCK
  5
F
100
AcDbEntity
 67
             1
  8
0
100
AcDbBlockBegin
  2
*PAPER_SPACE
 70
             0
 10
0.0
 20
0.0
 30
0.0
  3
*PAPER_SPACE
  1

  0
ENDBLK
  5
10
100
AcDbEntity
 67
             1
  8
0
100
AcDbBlockEnd
  0
ENDSEC
  0
SECTION
  2
ENTITIES
  0
CIRCLE
  5
2E0
100
AcDbEntity
  8
0
  6
CONTINUOUS
 62
             7
100
AcDbCircle
 10
1744.02217978204
 20
4244.861369109859
 40
1.59999942779996
  0
ARC
  5
2DF
100
AcDbEntity
  8
0
  6
DOTTED
 62
             7
100
AcDbCircle
 10
1824.8221980926401
 20
4266.0613813169603
 40
0.80000001190017
100
AcDbArc
 50
179.99996402780292
 51
-90.00005395831191
  0
ARC
  5
2DE
100
AcDbEntity
  8
0
  6
DOTTED
 62
             7
100
AcDbCircle
 10
1825.8221980926401
 20
4238.46137521336
 40
0.80000001190005
100
AcDbArc
 50
89.99998201393403
 51
179.99996402780292
  0
ARC
  5
2DD
100
AcDbEntity
  8
0
  6
DOTTED
 62
             7
100
AcDbCircle
 10
1824.8221980926401
 20
4239.46137521336
 40
0.80000001190005
100
AcDbArc
 50
89.99998201393403
 51
179.99996402780292
  0
ARC
  5
2DC
100
AcDbEntity
  8
0
  6
DOTTED
 62
             7
100
AcDbCircle
 10
1830.52217978204
 20
4240.0613813169603
 40
0.80000001190005
100
AcDbArc
 50
-89.99998201391774
 51
0.0
  0
ARC
  5
2DB
100
AcDbEntity
  8
0
  6
DOTTED
 62
             7
100
AcDbCircle
 10
1829.52217978204
 20
4241.0613813169603
 40
0.80000001190005
100
AcDbArc
 50
-89.99998201391774
 51
0.0
  0
ARC
  5
2DA
100
AcDbEntity
  8
0
  6
DOTTED
 62
             7
100
AcDbCircle
 10
1830.52217978204
 20
4265.46137521336
 40
0.80000001190001
100
AcDbArc
 50
0.0
 51
89.99998201391774
  0
ARC
  5
2D9
100
AcDbEntity
  8
0
  6
DOTTED
 62
             7
100
AcDbCircle
 10
1829.52217978204
 20
4264.46137521336
 40
0.80000001190001
100
AcDbArc
 50
0.0
 51
89.99998201391774
  0
ARC
  5
2D8
100
AcDbEntity
  8
0
  6
DOTTED
 62
             7
100
AcDbCircle
 10
1825.8221980926401
 20
4267.0613813169603
 40
0.80000001190017
100
AcDbArc
 50
179.99996402780292
 51
-90.00005395831191
  0
ARC
  5
2D7
100
AcDbEntity
  8
0
  6
CONTINUOUS
 62
             7
100
AcDbCircle
 10
1756.52217978204
 20
4252.7613782651597
 40
2.09999942779915
100
AcDbArc
 50
89.9999820138963
 51
107.75274139901052
  0
ARC
  5
2D6
100
AcDbEntity
  8
0
  6
CONTINUOUS
 62
             7
100
AcDbCircle
 10
1731.52217978204
 20
4252.7613782651597
 40
2.09999942780097
100
AcDbArc
 50
-89.9999820138963
 51
-72.2472586010722
  0
ARC
  5
2D5
100
AcDbEntity
  8
0
  6
CONTINUOUS
 62
             7
100
AcDbCircle
 10
1754.27217978204
 20
4263.3476209409591
 40
0.50000000000014
100
AcDbArc
 50
100.78430429823479
 51
-179.99992668927513
  0
ARC
  5
2D4
100
AcDbEntity
  8
0
  6
CONTINUOUS
 62
             7
100
AcDbCircle
 10
1733.77217978204
 20
4263.3476209409591
 40
0.5
100
AcDbArc
 50
0.0
 51
79.21565972974138
  0
ARC
  5
2D3
100
AcDbEntity
  8
0
  6
CONTINUOUS
 62
             7
100
AcDbCircle
 10
1739.6221858855399
 20
4219.7613782651597
 40
1.0000000000002
100
AcDbArc
 50
179.9999640279066
 51
-89.99999931679609
  0
ARC
  5
2D2
100
AcDbEntity
  8
0
  6
CONTINUOUS
 62
             7
100
AcDbCircle
 10
1740.42217367854
 20
4226.9113874204586
 40
2.75000000000048
100
AcDbArc
 50
-179.99990938629853
 51
0.0
  0
ARC
  5
2D1
100
AcDbEntity
  8
0
  6
CONTINUOUS
 62
             7
100
AcDbCircle
 10
1740.42217367854
 20
4226.9113874204586
 40
2.75
100
AcDbArc
 50
0.0
 51
179.999964027755
  0
ARC
  5
2D0
100
AcDbEntity
  8
0
  6
CONTINUOUS
 62
             7
100
AcDbCircle
 10
1733.2221767303399
 20
4235.6113996274589
 40
2.75
100
AcDbArc
 50
0.0
 51
179.99990938629853
  0
ARC
  5
2CF
100
AcDbEntity
  8
0
  6
CONTINUOUS
 62
             7
100
AcDbCircle
 10
1733.2221767303399
 20
4235.6113996274589
 40
2.75000000000026
100
AcDbArc
 50
-179.99990938633641
 51
0.0
  0
ARC
  5
2CE
100
AcDbEntity
  8
0
  6
CONTINUOUS
 62
             7
100
AcDbCircle
 10
1733.2221767303399
 20
4226.9113874204586
 40
2.75
100
AcDbArc
 50
0.0
 51
179.99990938629853
  0
ARC
  5
2CD
100
AcDbEntity
  8
0
  6
CONTINUOUS
 62
             7
100
AcDbCircle
 10
1733.2221767303399
 20
4226.9113874204586
 40
2.75000000000026
100
AcDbArc
 50
-179.99990938629853
 51
0.0
  0
ARC
  5
2CC
100
AcDbEntity
  8
0
  6
CONTINUOUS
 62
             7
100
AcDbCircle
 10
1730.42217367854
 20
4224.1113996274589
 40
0.19999998810024
100
AcDbArc
 50
-179.99990938685684
 51
-89.99992737243564
  0
ARC
  5
2CB
100
AcDbEntity
  8
0
  6
CONTINUOUS
 62
             7
100
AcDbCircle
 10
1730.42217367854
 20
4232.8114118344592
 40
0.19999998810024
100
AcDbArc
 50
-179.99990938607519
 51
-89.99992737243564
  0
ARC
  5
2CA
100
AcDbEntity
  8
0
  6
CONTINUOUS
 62
             7
100
AcDbCircle
 10
1730.42217367854
 20
4229.7113904721582
 40
0.19999998810091
100
AcDbArc
 50
89.99998201403039
 51
-179.99998133099581
  0
ARC
  5
2C9
100
AcDbEntity
  8
0
  6
CONTINUOUS
 62
             7
100
AcDbCircle
 10
1730.42217367854
 20
4238.4113874204586
 40
0.19999998810182
100
AcDbArc
 50
89.99998201403039
 51
-179.99998133125638
  0
ARC
  5
2C8
100
AcDbEntity
  8
0
  6
CONTINUOUS
 62
             7
100
AcDbCircle
 10
1737.6221706267399
 20
4224.1113996274589
 40
0.19999998810003
100
AcDbArc
 50
179.99996402780025
 51
-89.99999931670486
  0
ARC
  5
2C7
100
AcDbEntity
  8
0
  6
CONTINUOUS
 62
             7
100
AcDbCircle
 10
1736.02217978204
 20
4224.1113996274589
 40
0.19999998809924
100
AcDbArc
 50
-89.99992737243564
 51
0.0
  0
ARC
  5
2C6
100
AcDbEntity
  8
0
  6
CONTINUOUS
 62
             7
100
AcDbCircle
 10
1737.6221706267399
 20
4229.7113904721582
 40
0.19999998810091
100
AcDbArc
 50
89.99998201396527
 51
179.99996402727913
  0
ARC
  5
2C5
100
AcDbEntity
  8
0
  6
CONTINUOUS
 62
             7
100
AcDbCircle
 10
1736.02217978204
 20
4232.8114118344592
 40
0.19999998810106
100
AcDbArc
 50
-89.99992737243564
 51
0.0
  0
ARC
  5
2C4
100
AcDbEntity
  8
0
  6
CONTINUOUS
 62
             7
100
AcDbCircle
 10
1736.02217978204
 20
4229.7113904721582
 40
0.19999998809999
100
AcDbArc
 50
0.0
 51
89.99998201429095
  0
ARC
  5
2C3
100
AcDbEntity
  8
0
  6
CONTINUOUS
 62
             7
100
AcDbCircle
 10
1736.02217978204
 20
4238.4113874204586
 40
0.19999998809999
100
AcDbArc
 50
0.0
 51
89.99998201429095
  0
ARC
  5
2C2
100
AcDbEntity
  8
0
  6
CONTINUOUS
 62
             7
100
AcDbCircle
 10
1731.52217978204
 20
4252.7613782651597
 40
2.09999942779917
100
AcDbArc
 50
72.2472586010722
 51
89.9999820138963
  0
ARC
  5
2C1
100
AcDbEntity
  8
0
  6
CONTINUOUS
 62
             7
100
AcDbCircle
 10
1731.02217978204
 20
4252.7613782651597
 40
4.09999942780047
100
AcDbArc
 50
-37.5630419820094
 51
37.56304198198925
  0
ARC
  5
2C0
100
AcDbEntity
  8
0
  6
CONTINUOUS
 62
             7
100
AcDbCircle
 10
1733.77217978204
 20
4242.1751203305603
 40
0.50000000000061
100
AcDbArc
 50
-79.21565972974138
 51
0.0
  0
ARC
  5
2BF
100
AcDbEntity
  8
0
  6
CONTINUOUS
 62
             7
100
AcDbCircle
 10
1756.52217978204
 20
4252.7613782651597
 40
2.09999942780014
100
AcDbArc
 50
-107.75274139901052
 51
-90.00005395831734
  0
ARC
  5
2BE
100
AcDbEntity
  8
0
  6
CONTINUOUS
 62
             7
100
AcDbCircle
 10
1754.8221675750401
 20
4235.6113996274589
 40
2.75
100
AcDbArc
 50
0.0
 51
179.99990938629853
  0
ARC
  5
2BD
100
AcDbEntity
  8
0
  6
CONTINUOUS
 62
             7
100
AcDbCircle
 10
1754.8221675750401
 20
4226.9113874204586
 40
2.75
100
AcDbArc
 50
0.0
 51
179.99990938629853
  0
ARC
  5
2BC
100
AcDbEntity
  8
0
  6
CONTINUOUS
 62
             7
100
AcDbCircle
 10
1754.8221675750401
 20
4226.9113874204586
 40
2.75000000000162
100
AcDbArc
 50
-179.99990938629853
 51
0.0
  0
ARC
  5
2BB
100
AcDbEntity
  8
0
  6
CONTINUOUS
 62
             7
100
AcDbCircle
 10
1754.8221675750401
 20
4235.6113996274589
 40
2.75000000000162
100
AcDbArc
 50
-179.99990938633641
 51
0.0
  0
ARC
  5
2BA
100
AcDbEntity
  8
0
  6
CONTINUOUS
 62
             7
100
AcDbCircle
 10
1747.6221706267399
 20
4226.9113874204586
 40
2.75000000000048
100
AcDbArc
 50
-179.99990938629853
 51
0.0
  0
ARC
  5
2B9
100
AcDbEntity
  8
0
  6
CONTINUOUS
 62
             7
100
AcDbCircle
 10
1747.6221706267399
 20
4226.9113874204586
 40
2.75
100
AcDbArc
 50
0.0
 51
179.999964027755
  0
ARC
  5
2B8
100
AcDbEntity
  8
0
  6
CONTINUOUS
 62
             7
100
AcDbCircle
 10
1743.2221614715399
 20
4224.1113996274589
 40
0.19999998809909
100
AcDbArc
 50
-89.99998201396527
 51
0.0
  0
ARC
  5
2B7
100
AcDbEntity
  8
0
  6
CONTINUOUS
 62
             7
100
AcDbCircle
 10
1744.8221675750401
 20
4224.1113996274589
 40
0.19999998810026
100
AcDbArc
 50
179.99996402780025
 51
-89.99999931709569
  0
ARC
  5
2B6
100
AcDbEntity
  8
0
  6
CONTINUOUS
 62
             7
100
AcDbCircle
 10
1743.2221614715399
 20
4229.7113904721582
 40
0.19999998809999
100
AcDbArc
 50
0.0
 51
89.99998201396527
  0
ARC
  5
2B5
100
AcDbEntity
  8
0
  6
CONTINUOUS
 62
             7
100
AcDbCircle
 10
1744.8221675750401
 20
4229.7113904721582
 40
0.19999998810091
100
AcDbArc
 50
89.99998201403039
 51
179.99996402727913
  0
ARC
  5
2B4
100
AcDbEntity
  8
0
  6
CONTINUOUS
 62
             7
100
AcDbCircle
 10
1748.42217367854
 20
4219.7613782651597
 40
1.00000000000005
100
AcDbArc
 50
-89.99998201394027
 51
0.0
  0
ARC
  5
2B3
100
AcDbEntity
  8
0
  6
CONTINUOUS
 62
             7
100
AcDbCircle
 10
1750.4221584197401
 20
4224.1113996274589
 40
0.19999998809909
100
AcDbArc
 50
-89.99998201403039
 51
0.0
  0
ARC
  5
2B2
100
AcDbEntity
  8
0
  6
CONTINUOUS
 62
             7
100
AcDbCircle
 10
1752.02217978204
 20
4224.1113996274589
 40
0.19999998810024
100
AcDbArc
 50
-179.99990938685684
 51
-89.99992737243564
  0
ARC
  5
2B1
100
AcDbEntity
  8
0
  6
CONTINUOUS
 62
             7
100
AcDbCircle
 10
1750.4221584197401
 20
4229.7113904721582
 40
0.19999998809999
100
AcDbArc
 50
0.0
 51
89.99998201403039
  0
ARC
  5
2B0
100
AcDbEntity
  8
0
  6
CONTINUOUS
 62
             7
100
AcDbCircle
 10
1752.02217978204
 20
4232.8114118344592
 40
0.19999998810024
100
AcDbArc
 50
-179.99990938607519
 51
-89.99992737243564
  0
ARC
  5
2AF
100
AcDbEntity
  8
0
  6
CONTINUOUS
 62
             7
100
AcDbCircle
 10
1752.02217978204
 20
4229.7113904721582
 40
0.19999998810091
100
AcDbArc
 50
89.99998201429095
 51
-179.99998133099581
  0
ARC
  5
2AE
100
AcDbEntity
  8
0
  6
CONTINUOUS
 62
             7
100
AcDbCircle
 10
1752.02217978204
 20
4238.4113874204586
 40
0.19999998810182
100
AcDbArc
 50
89.99998201429095
 51
-179.99998133125638
  0
ARC
  5
2AD
100
AcDbEntity
  8
0
  6
CONTINUOUS
 62
             7
100
AcDbCircle
 10
1744.02217978204
 20
4244.861369109859
 40
2.79999923710244
100
AcDbArc
 50
102.37360735579934
 51
-102.37362465870662
  0
ARC
  5
2AC
100
AcDbEntity
  8
0
  6
CONTINUOUS
 62
             7
100
AcDbCircle
 10
1744.02217978204
 20
4244.861369109859
 40
2.7999992370995
100
AcDbArc
 50
-77.62635667200775
 51
77.62635667200775
  0
ARC
  5
2AB
100
AcDbEntity
  8
0
  6
CONTINUOUS
 62
             7
100
AcDbCircle
 10
1757.02217978204
 20
4252.7613782651597
 40
4.09999942780091
100
AcDbArc
 50
142.43692887600562
 51
-142.43700082028519
  0
ARC
  5
2AA
100
AcDbEntity
  8
0
  6
CONTINUOUS
 62
             7
100
AcDbCircle
 10
1754.27217978204
 20
4242.1751203305603
 40
0.50000000000063
100
AcDbArc
 50
179.99990938618481
 51
-100.78432160104481
  0
ARC
  5
2A9
100
AcDbEntity
  8
0
  6
CONTINUOUS
 62
             7
100
AcDbCircle
 10
1757.6221706267399
 20
4224.1113996274589
 40
0.19999998809924
100
AcDbArc
 50
-89.99992737243564
 51
0.0
  0
ARC
  5
2A8
100
AcDbEntity
  8
0
  6
CONTINUOUS
 62
             7
100
AcDbCircle
 10
1757.6221706267399
 20
4232.8114118344592
 40
0.19999998810106
100
AcDbArc
 50
-89.99992737243564
 51
0.0
  0
ARC
  5
2A7
100
AcDbEntity
  8
0
  6
CONTINUOUS
 62
             7
100
AcDbCircle
 10
1757.6221706267399
 20
4229.7113904721582
 40
0.19999998809999
100
AcDbArc
 50
0.0
 51
89.99998201396527
  0
ARC
  5
2A6
100
AcDbEntity
  8
0
  6
CONTINUOUS
 62
             7
100
AcDbCircle
 10
1757.6221706267399
 20
4238.4113874204586
 40
0.19999998809999
100
AcDbArc
 50
0.0
 51
89.99998201396527
  0
ARC
  5
2A5
100
AcDbEntity
  8
0
  6
CONTINUOUS
 62
             7
100
AcDbCircle
 10
1805.02217978204
 20
4232.5613813169593
 40
2.00000000000039
100
AcDbArc
 50
179.99996402780238
 51
-89.9999993168026
  0
ARC
  5
2A4
100
AcDbEntity
  8
0
  6
CONTINUOUS
 62
             7
100
AcDbCircle
 10
1815.52217978204
 20
4221.7613782651597
 40
2.00000000000039
100
AcDbArc
 50
-179.99996402780238
 51
0.0
  0
ARC
  5
2A3
100
AcDbEntity
  8
0
  6
CONTINUOUS
 62
             7
100
AcDbCircle
 10
1815.52217978204
 20
4223.7613782651597
 40
2.00000000000039
100
AcDbArc
 50
179.99996402780238
 51
-89.9999993168026
  0
ARC
  5
2A2
100
AcDbEntity
  8
0
  6
CONTINUOUS
 62
             7
100
AcDbCircle
 10
1825.3544246551401
 20
4237.1113843686589
 40
0.19999998809909
100
AcDbArc
 50
89.99998201403039
 51
-171.46934826516275
  0
ARC
  5
2A1
100
AcDbEntity
  8
0
  6
CONTINUOUS
 62
             7
100
AcDbCircle
 10
1740.42217367854
 20
4269.9113569028586
 40
2.75000000000048
100
AcDbArc
 50
-179.99990938629853
 51
0.0
  0
ARC
  5
2A0
100
AcDbEntity
  8
0
  6
CONTINUOUS
 62
             7
100
AcDbCircle
 10
1740.42217367854
 20
4269.9113569028586
 40
2.75
100
AcDbArc
 50
0.0
 51
179.99996402777396
  0
ARC
  5
29F
100
AcDbEntity
  8
0
  6
CONTINUOUS
 62
             7
100
AcDbCircle
 10
1740.42217367854
 20
4278.611369109859
 40
2.75000000000048
100
AcDbArc
 50
-179.99990938633641
 51
0.0
  0
ARC
  5
29E
100
AcDbEntity
  8
0
  6
CONTINUOUS
 62
             7
100
AcDbCircle
 10
1740.42217367854
 20
4278.611369109859
 40
2.75
100
AcDbArc
 50
0.0
 51
179.99996402777396
  0
ARC
  5
29D
100
AcDbEntity
  8
0
  6
CONTINUOUS
 62
             7
100
AcDbCircle
 10
1733.2221767303399
 20
4269.9113569028586
 40
2.75000000000026
100
AcDbArc
 50
-179.99990938629853
 51
0.0
  0
ARC
  5
29C
100
AcDbEntity
  8
0
  6
CONTINUOUS
 62
             7
100
AcDbCircle
 10
1733.2221767303399
 20
4269.9113569028586
 40
2.75
100
AcDbArc
 50
0.0
 51
179.99996402777396
  0
ARC
  5
29B
100
AcDbEntity
  8
0
  6
CONTINUOUS
 62
             7
100
AcDbCircle
 10
1733.2221767303399
 20
4278.611369109859
 40
2.75000000000026
100
AcDbArc
 50
-179.99990938633641
 51
0.0
  0
ARC
  5
29A
100
AcDbEntity
  8
0
  6
CONTINUOUS
 62
             7
100
AcDbCircle
 10
1733.2221767303399
 20
4278.611369109859
 40
2.75
100
AcDbArc
 50
0.0
 51
179.99996402777396
  0
ARC
  5
299
100
AcDbEntity
  8
0
  6
CONTINUOUS
 62
             7
100
AcDbCircle
 10
1730.42217367854
 20
4267.111353851059
 40
0.19999998810003
100
AcDbArc
 50
179.99996402780025
 51
-89.99999931677
  0
ARC
  5
298
100
AcDbEntity
  8
0
  6
CONTINUOUS
 62
             7
100
AcDbCircle
 10
1730.42217367854
 20
4272.7113446958601
 40
0.19999998810091
100
AcDbArc
 50
89.99998201403039
 51
179.99996402832136
  0
ARC
  5
297
100
AcDbEntity
  8
0
  6
CONTINUOUS
 62
             7
100
AcDbCircle
 10
1730.42217367854
 20
4275.8113660581594
 40
0.19999998810003
100
AcDbArc
 50
179.99996402780025
 51
-89.99999931677
  0
ARC
  5
296
100
AcDbEntity
  8
0
  6
CONTINUOUS
 62
             7
100
AcDbCircle
 10
1730.42217367854
 20
4281.4113569028586
 40
0.19999998810273
100
AcDbArc
 50
89.99998201403039
 51
179.99996402727913
  0
ARC
  5
295
100
AcDbEntity
  8
0
  6
CONTINUOUS
 62
             7
100
AcDbCircle
 10
1737.6221706267399
 20
4267.111353851059
 40
0.19999998810003
100
AcDbArc
 50
179.99996402780025
 51
-89.99999931670486
  0
ARC
  5
294
100
AcDbEntity
  8
0
  6
CONTINUOUS
 62
             7
100
AcDbCircle
 10
1736.02217978204
 20
4267.111353851059
 40
0.19999998809909
100
AcDbArc
 50
-89.99998201429095
 51
0.0
  0
ARC
  5
293
100
AcDbEntity
  8
0
  6
CONTINUOUS
 62
             7
100
AcDbCircle
 10
1737.6221706267399
 20
4272.7113446958601
 40
0.19999998810091
100
AcDbArc
 50
89.99998201396527
 51
179.99996402832136
  0
ARC
  5
292
100
AcDbEntity
  8
0
  6
CONTINUOUS
 62
             7
100
AcDbCircle
 10
1736.02217978204
 20
4272.7113446958601
 40
0.19999998809999
100
AcDbArc
 50
0.0
 51
89.99998201429095
  0
ARC
  5
291
100
AcDbEntity
  8
0
  6
CONTINUOUS
 62
             7
100
AcDbCircle
 10
1737.6221706267399
 20
4275.8113660581594
 40
0.19999998810003
100
AcDbArc
 50
179.99996402780025
 51
-89.99999931670486
  0
ARC
  5
290
100
AcDbEntity
  8
0
  6
CONTINUOUS
 62
             7
100
AcDbCircle
 10
1736.02217978204
 20
4275.8113660581594
 40
0.19999998809909
100
AcDbArc
 50
-89.99998201429095
 51
0.0
  0
ARC
  5
28F
100
AcDbEntity
  8
0
  6
CONTINUOUS
 62
             7
100
AcDbCircle
 10
1737.6221706267399
 20
4281.4113569028586
 40
0.19999998810273
100
AcDbArc
 50
89.99998201396527
 51
179.99996402727913
  0
ARC
  5
28E
100
AcDbEntity
  8
0
  6
CONTINUOUS
 62
             7
100
AcDbCircle
 10
1736.02217978204
 20
4281.4113569028586
 40
0.19999998809999
100
AcDbArc
 50
0.0
 51
89.99998201429095
  0
ARC
  5
28D
100
AcDbEntity
  8
0
  6
CONTINUOUS
 62
             7
100
AcDbCircle
 10
1754.8221675750401
 20
4269.9113569028586
 40
2.75
100
AcDbArc
 50
0.0
 51
179.99996402777396
  0
ARC
  5
28C
100
AcDbEntity
  8
0
  6
CONTINUOUS
 62
             7
100
AcDbCircle
 10
1754.8221675750401
 20
4278.611369109859
 40
2.75000000000162
100
AcDbArc
 50
-179.99990938633641
 51
0.0
  0
ARC
  5
28B
100
AcDbEntity
  8
0
  6
CONTINUOUS
 62
             7
100
AcDbCircle
 10
1754.8221675750401
 20
4269.9113569028586
 40
2.75000000000162
100
AcDbArc
 50
-179.99990938629853
 51
0.0
  0
ARC
  5
28A
100
AcDbEntity
  8
0
  6
CONTINUOUS
 62
             7
100
AcDbCircle
 10
1754.8221675750401
 20
4278.611369109859
 40
2.75
100
AcDbArc
 50
0.0
 51
179.99996402777396
  0
ARC
  5
289
100
AcDbEntity
  8
0
  6
CONTINUOUS
 62
             7
100
AcDbCircle
 10
1747.6221706267399
 20
4269.9113569028586
 40
2.75
100
AcDbArc
 50
0.0
 51
179.99996402777396
  0
ARC
  5
288
100
AcDbEntity
  8
0
  6
CONTINUOUS
 62
             7
100
AcDbCircle
 10
1747.6221706267399
 20
4278.611369109859
 40
2.75000000000048
100
AcDbArc
 50
-179.99990938633641
 51
0.0
  0
ARC
  5
287
100
AcDbEntity
  8
0
  6
CONTINUOUS
 62
             7
100
AcDbCircle
 10
1747.6221706267399
 20
4269.9113569028586
 40
2.75000000000048
100
AcDbArc
 50
-179.99990938629853
 51
0.0
  0
ARC
  5
286
100
AcDbEntity
  8
0
  6
CONTINUOUS
 62
             7
100
AcDbCircle
 10
1747.6221706267399
 20
4278.611369109859
 40
2.75
100
AcDbArc
 50
0.0
 51
179.99996402777396
  0
ARC
  5
285
100
AcDbEntity
  8
0
  6
CONTINUOUS
 62
             7
100
AcDbCircle
 10
1743.2221614715399
 20
4272.7113446958601
 40
0.19999998809999
100
AcDbArc
 50
0.0
 51
89.99998201396527
  0
ARC
  5
284
100
AcDbEntity
  8
0
  6
CONTINUOUS
 62
             7
100
AcDbCircle
 10
1743.2221614715399
 20
4267.111353851059
 40
0.19999998809909
100
AcDbArc
 50
-89.99998201396527
 51
0.0
  0
ARC
  5
283
100
AcDbEntity
  8
0
  6
CONTINUOUS
 62
             7
100
AcDbCircle
 10
1744.8221675750401
 20
4267.111353851059
 40
0.19999998810026
100
AcDbArc
 50
179.99996402780025
 51
-89.99999931709569
  0
ARC
  5
282
100
AcDbEntity
  8
0
  6
CONTINUOUS
 62
             7
100
AcDbCircle
 10
1744.8221675750401
 20
4272.7113446958601
 40
0.19999998810091
100
AcDbArc
 50
89.99998201403039
 51
179.99996402832136
  0
ARC
  5
281
100
AcDbEntity
  8
0
  6
CONTINUOUS
 62
             7
100
AcDbCircle
 10
1743.2221614715399
 20
4281.4113569028586
 40
0.19999998809999
100
AcDbArc
 50
0.0
 51
89.99998201396527
  0
ARC
  5
280
100
AcDbEntity
  8
0
  6
CONTINUOUS
 62
             7
100
AcDbCircle
 10
1743.2221614715399
 20
4275.8113660581594
 40
0.19999998809909
100
AcDbArc
 50
-89.99998201396527
 51
0.0
  0
ARC
  5
27F
100
AcDbEntity
  8
0
  6
CONTINUOUS
 62
             7
100
AcDbCircle
 10
1744.8221675750401
 20
4275.8113660581594
 40
0.19999998810026
100
AcDbArc
 50
179.99996402780025
 51
-89.99999931709569
  0
ARC
  5
27E
100
AcDbEntity
  8
0
  6
CONTINUOUS
 62
             7
100
AcDbCircle
 10
1744.8221675750401
 20
4281.4113569028586
 40
0.19999998810273
100
AcDbArc
 50
89.99998201403039
 51
179.99996402727913
  0
ARC
  5
27D
100
AcDbEntity
  8
0
  6
CONTINUOUS
 62
             7
100
AcDbCircle
 10
1750.4221584197401
 20
4267.111353851059
 40
0.19999998809909
100
AcDbArc
 50
-89.99998201403039
 51
0.0
  0
ARC
  5
27C
100
AcDbEntity
  8
0
  6
CONTINUOUS
 62
             7
100
AcDbCircle
 10
1750.4221584197401
 20
4272.7113446958601
 40
0.19999998809999
100
AcDbArc
 50
0.0
 51
89.99998201403039
  0
ARC
  5
27B
100
AcDbEntity
  8
0
  6
CONTINUOUS
 62
             7
100
AcDbCircle
 10
1752.02217978204
 20
4267.111353851059
 40
0.19999998810003
100
AcDbArc
 50
179.99996402780025
 51
-89.99999931677
  0
ARC
  5
27A
100
AcDbEntity
  8
0
  6
CONTINUOUS
 62
             7
100
AcDbCircle
 10
1752.02217978204
 20
4272.7113446958601
 40
0.19999998810091
100
AcDbArc
 50
89.99998201429095
 51
179.99996402832136
  0
ARC
  5
279
100
AcDbEntity
  8
0
  6
CONTINUOUS
 62
             7
100
AcDbCircle
 10
1750.4221584197401
 20
4275.8113660581594
 40
0.19999998809909
100
AcDbArc
 50
-89.99998201403039
 51
0.0
  0
ARC
  5
278
100
AcDbEntity
  8
0
  6
CONTINUOUS
 62
             7
100
AcDbCircle
 10
1750.4221584197401
 20
4281.4113569028586
 40
0.19999998809999
100
AcDbArc
 50
0.0
 51
89.99998201403039
  0
ARC
  5
277
100
AcDbEntity
  8
0
  6
CONTINUOUS
 62
             7
100
AcDbCircle
 10
1752.02217978204
 20
4275.8113660581594
 40
0.19999998810003
100
AcDbArc
 50
179.99996402780025
 51
-89.99999931677
  0
ARC
  5
276
100
AcDbEntity
  8
0
  6
CONTINUOUS
 62
             7
100
AcDbCircle
 10
1752.02217978204
 20
4281.4113569028586
 40
0.19999998810273
100
AcDbArc
 50
89.99998201429095
 51
179.99996402727913
  0
ARC
  5
275
100
AcDbEntity
  8
0
  6
CONTINUOUS
 62
             7
100
AcDbCircle
 10
1757.6221706267399
 20
4267.111353851059
 40
0.19999998809909
100
AcDbArc
 50
-89.99998201396527
 51
0.0
  0
ARC
  5
274
100
AcDbEntity
  8
0
  6
CONTINUOUS
 62
             7
100
AcDbCircle
 10
1757.6221706267399
 20
4272.7113446958601
 40
0.19999998809999
100
AcDbArc
 50
0.0
 51
89.99998201396527
  0
ARC
  5
273
100
AcDbEntity
  8
0
  6
CONTINUOUS
 62
             7
100
AcDbCircle
 10
1757.6221706267399
 20
4275.8113660581594
 40
0.19999998809909
100
AcDbArc
 50
-89.99998201396527
 51
0.0
  0
ARC
  5
272
100
AcDbEntity
  8
0
  6
CONTINUOUS
 62
             7
100
AcDbCircle
 10
1757.6221706267399
 20
4281.4113569028586
 40
0.19999998809999
100
AcDbArc
 50
0.0
 51
89.99998201396527
  0
ARC
  5
271
100
AcDbEntity
  8
0
  6
CONTINUOUS
 62
             7
100
AcDbCircle
 10
1805.02217978204
 20
4272.9613752134601
 40
2.0000000000001
100
AcDbArc
 50
89.99998201394027
 51
179.99996402780238
  0
ARC
  5
270
100
AcDbEntity
  8
0
  6
CONTINUOUS
 62
             7
100
AcDbCircle
 10
1815.52217978204
 20
4281.7613782651597
 40
2.0000000000001
100
AcDbArc
 50
89.99998201394027
 51
-179.99998133068425
  0
ARC
  5
26F
100
AcDbEntity
  8
0
  6
CONTINUOUS
 62
             7
100
AcDbCircle
 10
1823.42218893734
 20
4267.2613782651597
 40
0.99999999999942
100
AcDbArc
 50
-53.13011202509145
 51
0.0
  0
ARC
  5
26E
100
AcDbEntity
  8
1
  6
CONTINUOUS
 62
             7
100
AcDbCircle
 10
1731.52217978204
 20
4252.7613782651597
 40
2.0
100
AcDbArc
 50
-90.0
 51
90.0
  0
ARC
  5
26D
100
AcDbEntity
  8
1
  6
CONTINUOUS
 62
             7
100
AcDbCircle
 10
1756.52217978204
 20
4252.7613782651597
 40
2.0
100
AcDbArc
 50
90.0
 51
-90.0
  0
ARC
  5
26C
100
AcDbEntity
  8
1
  6
CONTINUOUS
 62
             7
100
AcDbCircle
 10
1756.52217978204
 20
4252.7613782651597
 40
2.60000000000029
100
AcDbArc
 50
129.71513723183386
 51
-129.71513723183386
  0
ARC
  5
26B
100
AcDbEntity
  8
1
  6
CONTINUOUS
 62
             7
100
AcDbCircle
 10
1731.52217978204
 20
4252.7613782651597
 40
2.60000000000087
100
AcDbArc
 50
-50.28486276815072
 51
50.28486276815072
  0
ARC
  5
26A
100
AcDbEntity
  8
1
  6
CONTINUOUS
 62
             7
100
AcDbCircle
 10
1731.52217978204
 20
4252.7613782651597
 40
1.5
100
AcDbArc
 50
-90.0
 51
90.0
  0
ARC
  5
269
100
AcDbEntity
  8
1
  6
CONTINUOUS
 62
             7
100
AcDbCircle
 10
1756.52217978204
 20
4252.7613782651597
 40
1.5
100
AcDbArc
 50
90.0
 51
-90.0
  0
LINE
  5
268
100
AcDbEntity
  8
1
  6
CONTINUOUS
 62
             7
100
AcDbLine
 10
1824.02217978204
 20
4235.1113843686589
 11
1824.02217978204
 21
4247.9613782651604
  0
LINE
  5
267
100
AcDbEntity
  8
1
  6
CONTINUOUS
 62
             7
100
AcDbLine
 10
1824.02217978204
 20
4270.4113721616604
 11
1824.02217978204
 21
4257.561378265159
  0
LINE
  5
266
100
AcDbEntity
  8
1
  6
CONTINUOUS
 62
             7
100
AcDbLine
 10
1819.02217978204
 20
4260.7613782651597
 11
1819.02217978204
 21
4254.7613782651597
  0
LINE
  5
265
100
AcDbEntity
  8
1
  6
CONTINUOUS
 62
             7
100
AcDbLine
 10
1819.02217978204
 20
4244.7613782651597
 11
1819.02217978204
 21
4250.7613782651597
  0
LINE
  5
264
100
AcDbEntity
  8
1
  6
CONTINUOUS
 62
             7
100
AcDbLine
 10
1810.02217978204
 20
4240.7613782651597
 11
1810.02217978204
 21
4250.7613782651597
  0
LINE
  5
263
100
AcDbEntity
  8
1
  6
CONTINUOUS
 62
             7
100
AcDbLine
 10
1810.02217978204
 20
4264.7613630063597
 11
1810.02217978204
 21
4254.7613782651597
  0
LINE
  5
262
100
AcDbEntity
  8
1
  6
CONTINUOUS
 62
             7
100
AcDbLine
 10
1803.02217978204
 20
4272.9613764691267
 11
1803.02217978204
 21
4254.7613782651597
  0
LINE
  5
261
100
AcDbEntity
  8
1
  6
CONTINUOUS
 62
             7
100
AcDbLine
 10
1803.02217978204
 20
4232.5613825726259
 11
1803.02217978204
 21
4250.7613782651597
  0
LINE
  5
260
100
AcDbEntity
  8
0
  6
DOTTED
 62
             7
100
AcDbLine
 10
1824.02217978204
 20
4270.2613630063597
 11
1825.02217978204
 21
4270.2613630063597
  0
LINE
  5
25F
100
AcDbEntity
  8
0
  6
DOTTED
 62
             7
100
AcDbLine
 10
1825.02217978204
 20
4267.0613813169603
 11
1825.02217978204
 21
4270.2613782651597
  0
LINE
  5
25E
100
AcDbEntity
  8
0
  6
DOTTED
 62
             7
100
AcDbLine
 10
1824.02217978204
 20
4235.2613782651597
 11
1825.02217978204
 21
4235.2613782651597
  0
LINE
  5
25D
100
AcDbEntity
  8
0
  6
DOTTED
 62
             7
100
AcDbLine
 10
1825.02217978204
 20
4235.2613782651597
 11
1825.02217978204
 21
4238.46137521336
  0
LINE
  5
25C
100
AcDbEntity
  8
0
  6
DOTTED
 62
             7
100
AcDbLine
 10
1825.8221980926401
 20
4239.2613630063597
 11
1830.52217978204
 21
4239.2613630063597
  0
LINE
  5
25B
100
AcDbEntity
  8
0
  6
DOTTED
 62
             7
100
AcDbLine
 10
1824.8221980926401
 20
4240.2613630063597
 11
1829.52217978204
 21
4240.2613630063597
  0
LINE
  5
25A
100
AcDbEntity
  8
0
  6
DOTTED
 62
             7
100
AcDbLine
 10
1830.3221828338401
 20
4241.0613813169603
 11
1830.3221828338401
 21
4264.46137521336
  0
LINE
  5
259
100
AcDbEntity
  8
0
  6
DOTTED
 62
             7
100
AcDbLine
 10
1831.3221828338401
 20
4240.0613813169603
 11
1831.3221828338401
 21
4265.46137521336
  0
LINE
  5
258
100
AcDbEntity
  8
0
  6
DOTTED
 62
             7
100
AcDbLine
 10
1825.8221980926401
 20
4266.2613630063597
 11
1830.52217978204
 21
4266.2613630063597
  0
LINE
  5
257
100
AcDbEntity
  8
0
  6
DOTTED
 62
             7
100
AcDbLine
 10
1824.8221980926401
 20
4265.2613630063597
 11
1829.52217978204
 21
4265.2613630063597
  0
LINE
  5
256
100
AcDbEntity
  8
0
  6
CONTINUOUS
 62
             7
100
AcDbLine
 10
1824.02217978204
 20
4235.1113843686589
 11
1828.02217978204
 21
4235.1113843686589
  0
LINE
  5
255
100
AcDbEntity
  8
0
  6
CONTINUOUS
 62
             7
100
AcDbLine
 10
1757.8221675750401
 20
4261.7613630063597
 11
1757.8221675750401
 21
4264.532801605058
  0
LINE
  5
254
100
AcDbEntity
  8
0
  6
CONTINUOUS
 62
             7
100
AcDbLine
 10
1755.02217978204
 20
4261.7613630063597
 11
1755.02217978204
 21
4263.9994611509601
  0
LINE
  5
253
100
AcDbEntity
  8
0
  6
CONTINUOUS
 62
             7
100
AcDbLine
 10
1733.02217978204
 20
4263.9994611509601
 11
1733.02217978204
 21
4261.7613630063597
  0
LINE
  5
252
100
AcDbEntity
  8
0
  6
CONTINUOUS
 62
             7
100
AcDbLine
 10
1730.2221767303399
 20
4264.532801605058
 11
1730.2221767303399
 21
4261.7613630063597
  0
LINE
  5
251
100
AcDbEntity
  8
0
  6
CONTINUOUS
 62
             7
100
AcDbLine
 10
1739.02217978204
 20
4240.2613782651597
 11
1739.02217978204
 21
4265.2613630063597
  0
LINE
  5
250
100
AcDbEntity
  8
0
  6
CONTINUOUS
 62
             7
100
AcDbLine
 10
1740.2221767303399
 20
4239.2613782651597
 11
1740.2221767303399
 21
4266.2613630063597
  0
LINE
  5
24F
100
AcDbEntity
  8
0
  6
CONTINUOUS
 62
             7
100
AcDbLine
 10
1735.8221675750401
 20
4241.0386304624581
 11
1735.8221675750401
 21
4264.4841108091596
  0
LINE
  5
24E
100
AcDbEntity
  8
0
  6
CONTINUOUS
 62
             7
100
AcDbLine
 10
1749.02216452324
 20
4265.2613630063597
 11
1749.02216452324
 21
4240.2613782651597
  0
LINE
  5
24D
100
AcDbEntity
  8
0
  6
CONTINUOUS
 62
             7
100
AcDbLine
 10
1752.2221767303399
 20
4264.4841108091596
 11
1752.2221767303399
 21
4241.0386304624581
  0
LINE
  5
24C
100
AcDbEntity
  8
0
  6
CONTINUOUS
 62
             7
100
AcDbLine
 10
1747.8221675750401
 20
4266.2613630063597
 11
1747.8221675750401
 21
4239.2613782651597
  0
LINE
  5
24B
100
AcDbEntity
  8
0
  6
CONTINUOUS
 62
             7
100
AcDbLine
 10
1744.6221706267399
 20
4283.7613782651597
 11
1744.6221706267399
 21
4247.5963239438597
  0
LINE
  5
24A
100
AcDbEntity
  8
0
  6
CONTINUOUS
 62
             7
100
AcDbLine
 10
1743.42217367854
 20
4283.7613782651597
 11
1743.42217367854
 21
4247.5963239438597
  0
LINE
  5
249
100
AcDbEntity
  8
0
  6
CONTINUOUS
 62
             7
100
AcDbLine
 10
1759.02217978204
 20
4254.861369109859
 11
1759.02217978204
 21
4283.7613782651597
  0
LINE
  5
248
100
AcDbEntity
  8
0
  6
CONTINUOUS
 62
             7
100
AcDbLine
 10
1729.02217978204
 20
4283.7613782651597
 11
1729.02217978204
 21
4254.861369109859
  0
LINE
  5
247
100
AcDbEntity
  8
0
  6
CONTINUOUS
 62
             7
100
AcDbLine
 10
1739.77217978204
 20
4236.9613904721582
 11
1736.2221767303399
 21
4236.9613904721582
  0
LINE
  5
246
100
AcDbEntity
  8
0
  6
CONTINUOUS
 62
             7
100
AcDbLine
 10
1739.0079711595399
 20
4225.4971756334589
 11
1741.83638744634
 21
4228.3255919201611
  0
LINE
  5
245
100
AcDbEntity
  8
0
  6
CONTINUOUS
 62
             7
100
AcDbLine
 10
1743.42217367854
 20
4223.2613782651597
 11
1737.42217367854
 21
4223.2613782651597
  0
LINE
  5
244
100
AcDbEntity
  8
0
  6
CONTINUOUS
 62
             7
100
AcDbLine
 10
1737.6221706267399
 20
4229.9113874204586
 11
1743.2221614715399
 21
4229.9113874204586
  0
LINE
  5
243
100
AcDbEntity
  8
0
  6
CONTINUOUS
 62
             7
100
AcDbLine
 10
1737.6221706267399
 20
4223.9113874204586
 11
1743.2221614715399
 21
4223.9113874204586
  0
LINE
  5
242
100
AcDbEntity
  8
0
  6
CONTINUOUS
 62
             7
100
AcDbLine
 10
1743.42217367854
 20
4222.2613782651597
 11
1737.42217367854
 21
4222.2613782651597
  0
LINE
  5
241
100
AcDbEntity
  8
0
  6
CONTINUOUS
 62
             7
100
AcDbLine
 10
1757.8221675750401
 20
4239.2613782651597
 11
1730.2221767303399
 21
4239.2613782651597
  0
LINE
  5
240
100
AcDbEntity
  8
0
  6
CONTINUOUS
 62
             7
100
AcDbLine
 10
1729.02217978204
 20
4221.7613782651597
 11
1743.42217367854
 21
4221.7613782651597
  0
LINE
  5
23F
100
AcDbEntity
  8
0
  6
CONTINUOUS
 62
             7
100
AcDbLine
 10
1759.02217978204
 20
4230.5613813169593
 11
1729.02217978204
 21
4230.5613813169593
  0
LINE
  5
23E
100
AcDbEntity
  8
0
  6
CONTINUOUS
 62
             7
100
AcDbLine
 10
1737.2221736706399
 20
4240.2613753583601
 11
1736.2221833143401
 21
4239.261385086359
  0
LINE
  5
23D
100
AcDbEntity
  8
0
  6
CONTINUOUS
 62
             7
100
AcDbLine
 10
1729.02217978204
 20
4250.6613721616586
 11
1729.02217978204
 21
4221.7613782651597
  0
LINE
  5
23C
100
AcDbEntity
  8
0
  6
CONTINUOUS
 62
             7
100
AcDbLine
 10
1735.8221852833401
 20
4241.0386408760596
 11
1730.2221840408399
 21
4239.9719740374594
  0
LINE
  5
23B
100
AcDbEntity
  8
0
  6
CONTINUOUS
 62
             7
100
AcDbLine
 10
1731.8079894111399
 20
4225.4971540542601
 11
1734.6364164874401
 21
4228.3255811306581
  0
LINE
  5
23A
100
AcDbEntity
  8
0
  6
CONTINUOUS
 62
             7
100
AcDbLine
 10
1730.2221767303399
 20
4222.7613782651597
 11
1733.7221767303399
 21
4222.7613782651597
  0
LINE
  5
239
100
AcDbEntity
  8
0
  6
CONTINUOUS
 62
             7
100
AcDbLine
 10
1734.63637332914
 20
4237.0256184193604
 11
1731.8079462527401
 21
4234.1971913430598
  0
LINE
  5
238
100
AcDbEntity
  8
0
  6
CONTINUOUS
 62
             7
100
AcDbLine
 10
1736.2221767303399
 20
4231.9613904721582
 11
1730.2221767303399
 21
4231.9613904721582
  0
LINE
  5
237
100
AcDbEntity
  8
0
  6
CONTINUOUS
 62
             7
100
AcDbLine
 10
1736.2221767303399
 20
4223.2613782651597
 11
1730.2221767303399
 21
4223.2613782651597
  0
LINE
  5
236
100
AcDbEntity
  8
0
  6
CONTINUOUS
 62
             7
100
AcDbLine
 10
1736.02217978204
 20
4232.6113996274589
 11
1730.42217367854
 21
4232.6113996274589
  0
LINE
  5
235
100
AcDbEntity
  8
0
  6
CONTINUOUS
 62
             7
100
AcDbLine
 10
1736.02217978204
 20
4238.6113996274589
 11
1730.42217367854
 21
4238.6113996274589
  0
LINE
  5
234
100
AcDbEntity
  8
0
  6
CONTINUOUS
 62
             7
100
AcDbLine
 10
1736.02217978204
 20
4223.9113874204586
 11
1730.42217367854
 21
4223.9113874204586
  0
LINE
  5
233
100
AcDbEntity
  8
0
  6
CONTINUOUS
 62
             7
100
AcDbLine
 10
1736.02217978204
 20
4229.9113874204586
 11
1730.42217367854
 21
4229.9113874204586
  0
LINE
  5
232
100
AcDbEntity
  8
0
  6
CONTINUOUS
 62
             7
100
AcDbLine
 10
1736.2221767303399
 20
4231.0613813169593
 11
1730.2221767303399
 21
4231.0613813169593
  0
LINE
  5
231
100
AcDbEntity
  8
0
  6
CONTINUOUS
 62
             7
100
AcDbLine
 10
1736.2221767303399
 20
4222.2613782651597
 11
1730.2221767303399
 21
4222.2613782651597
  0
LINE
  5
230
100
AcDbEntity
  8
0
  6
CONTINUOUS
 62
             7
100
AcDbLine
 10
1730.2221767303399
 20
4229.7113904721582
 11
1730.2221767303399
 21
4224.1113996274589
  0
LINE
  5
22F
100
AcDbEntity
  8
0
  6
CONTINUOUS
 62
             7
100
AcDbLine
 10
1730.2221767303399
 20
4239.9719648130585
 11
1730.2221767303399
 21
4221.7613782651597
  0
LINE
  5
22E
100
AcDbEntity
  8
0
  6
CONTINUOUS
 62
             7
100
AcDbLine
 10
1729.02217978204
 20
4223.7613782651597
 11
1730.2221767303399
 21
4223.7613782651597
  0
LINE
  5
22D
100
AcDbEntity
  8
0
  6
CONTINUOUS
 62
             7
100
AcDbLine
 10
1730.2221767303399
 20
4227.9114026792586
 11
1730.6604396697401
 21
4227.9114026792586
  0
LINE
  5
22C
100
AcDbEntity
  8
0
  6
CONTINUOUS
 62
             7
100
AcDbLine
 10
1731.3471982614401
 20
4224.2863998719604
 11
1730.5972028600399
 21
4225.0363952733596
  0
LINE
  5
22B
100
AcDbEntity
  8
0
  6
CONTINUOUS
 62
             7
100
AcDbLine
 10
1730.6604396697401
 20
4225.9114026792586
 11
1730.2221767303399
 21
4225.9114026792586
  0
LINE
  5
22A
100
AcDbEntity
  8
0
  6
CONTINUOUS
 62
             7
100
AcDbLine
 10
1730.2221767303399
 20
4238.4113874204586
 11
1730.2221767303399
 21
4232.8114118344592
  0
LINE
  5
229
100
AcDbEntity
  8
0
  6
CONTINUOUS
 62
             7
100
AcDbLine
 10
1731.34720905104
 20
4232.9864047919591
 11
1730.5972028600399
 21
4233.7364109829614
  0
LINE
  5
228
100
AcDbEntity
  8
0
  6
CONTINUOUS
 62
             7
100
AcDbLine
 10
1730.5972028600399
 20
4228.7863830699598
 11
1731.34720905104
 21
4229.5363892608593
  0
LINE
  5
227
100
AcDbEntity
  8
0
  6
CONTINUOUS
 62
             7
100
AcDbLine
 10
1730.5972028600399
 20
4237.4863987794588
 11
1731.34720905104
 21
4238.2364049704584
  0
LINE
  5
226
100
AcDbEntity
  8
0
  6
CONTINUOUS
 62
             7
100
AcDbLine
 10
1730.2221767303399
 20
4236.6114148862589
 11
1730.6604396697401
 21
4236.6114148862589
  0
LINE
  5
225
100
AcDbEntity
  8
0
  6
CONTINUOUS
 62
             7
100
AcDbLine
 10
1730.6604396697401
 20
4234.6114148862589
 11
1730.2221767303399
 21
4234.6114148862589
  0
LINE
  5
224
100
AcDbEntity
  8
0
  6
CONTINUOUS
 62
             7
100
AcDbLine
 10
1737.42217367854
 20
4229.7113904721582
 11
1737.42217367854
 21
4224.1113996274589
  0
LINE
  5
223
100
AcDbEntity
  8
0
  6
CONTINUOUS
 62
             7
100
AcDbLine
 10
1736.2221767303399
 20
4229.7113904721582
 11
1736.2221767303399
 21
4224.1113996274589
  0
LINE
  5
222
100
AcDbEntity
  8
0
  6
CONTINUOUS
 62
             7
100
AcDbLine
 10
1737.42217367854
 20
4232.4613904721582
 11
1737.42217367854
 21
4221.7613782651597
  0
LINE
  5
221
100
AcDbEntity
  8
0
  6
CONTINUOUS
 62
             7
100
AcDbLine
 10
1736.2221767303399
 20
4239.2613782651597
 11
1736.2221767303399
 21
4221.7613782651597
  0
LINE
  5
220
100
AcDbEntity
  8
0
  6
CONTINUOUS
 62
             7
100
AcDbLine
 10
1735.8472030385401
 20
4225.0363952733596
 11
1735.0971968475401
 21
4224.2863890823601
  0
LINE
  5
21F
100
AcDbEntity
  8
0
  6
CONTINUOUS
 62
             7
100
AcDbLine
 10
1733.7221767303399
 20
4223.2613782651597
 11
1733.7221767303399
 21
4222.7613782651597
  0
LINE
  5
21E
100
AcDbEntity
  8
0
  6
CONTINUOUS
 62
             7
100
AcDbLine
 10
1733.9293097183399
 20
4226.2042608233596
 11
1732.5150961802401
 21
4227.6184743615586
  0
LINE
  5
21D
100
AcDbEntity
  8
0
  6
CONTINUOUS
 62
             7
100
AcDbLine
 10
1732.2221767303399
 20
4224.3496656186589
 11
1732.2221767303399
 21
4223.9114026792586
  0
LINE
  5
21C
100
AcDbEntity
  8
0
  6
CONTINUOUS
 62
             7
100
AcDbLine
 10
1734.2222225066389
 20
4224.3497266538589
 11
1734.2222225066389
 21
4223.9114637143603
  0
LINE
  5
21B
100
AcDbEntity
  8
0
  6
CONTINUOUS
 62
             7
100
AcDbLine
 10
1738.6221858855399
 20
4221.7613782651597
 11
1738.6221858855399
 21
4219.7613782651597
  0
LINE
  5
21A
100
AcDbEntity
  8
0
  6
CONTINUOUS
 62
             7
100
AcDbLine
 10
1737.8604213592389
 20
4225.9114026792586
 11
1737.4221584197401
 21
4225.9114026792586
  0
LINE
  5
219
100
AcDbEntity
  8
0
  6
CONTINUOUS
 62
             7
100
AcDbLine
 10
1737.4221584197401
 20
4227.9114026792586
 11
1737.8604213592389
 21
4227.9114026792586
  0
LINE
  5
218
100
AcDbEntity
  8
0
  6
CONTINUOUS
 62
             7
100
AcDbLine
 10
1736.2222225066389
 20
4227.9114637143603
 11
1735.7839595672399
 21
4227.9114637143603
  0
LINE
  5
217
100
AcDbEntity
  8
0
  6
CONTINUOUS
 62
             7
100
AcDbLine
 10
1735.78388327324
 20
4225.9113569028586
 11
1736.22214621274
 21
4225.9113569028586
  0
LINE
  5
216
100
AcDbEntity
  8
0
  6
CONTINUOUS
 62
             7
100
AcDbLine
 10
1739.4221584197401
 20
4224.3496656186589
 11
1739.4221584197401
 21
4223.9114026792586
  0
LINE
  5
215
100
AcDbEntity
  8
0
  6
CONTINUOUS
 62
             7
100
AcDbLine
 10
1738.54716922024
 20
4224.2863890823601
 11
1737.7971846084399
 21
4225.036373694159
  0
LINE
  5
214
100
AcDbEntity
  8
0
  6
CONTINUOUS
 62
             7
100
AcDbLine
 10
1735.0971968475401
 20
4238.2364049704584
 11
1735.8472030385401
 21
4237.4863987794588
  0
LINE
  5
213
100
AcDbEntity
  8
0
  6
CONTINUOUS
 62
             7
100
AcDbLine
 10
1735.8472030385401
 20
4233.7364109829614
 11
1735.0971968475401
 21
4232.9864047919591
  0
LINE
  5
212
100
AcDbEntity
  8
0
  6
CONTINUOUS
 62
             7
100
AcDbLine
 10
1735.0971968475401
 20
4229.5363892608593
 11
1735.8471922489391
 21
4228.786393859561
  0
LINE
  5
211
100
AcDbEntity
  8
0
  6
CONTINUOUS
 62
             7
100
AcDbLine
 10
1732.2221767303399
 20
4233.0496778257593
 11
1732.2221767303399
 21
4232.6114148862589
  0
LINE
  5
210
100
AcDbEntity
  8
0
  6
CONTINUOUS
 62
             7
100
AcDbLine
 10
1732.2221767303399
 20
4229.9114026792586
 11
1732.2221767303399
 21
4229.4731397397582
  0
LINE
  5
20F
100
AcDbEntity
  8
0
  6
CONTINUOUS
 62
             7
100
AcDbLine
 10
1734.2222225066389
 20
4233.0497388608592
 11
1734.2222225066389
 21
4232.6114759214588
  0
LINE
  5
20E
100
AcDbEntity
  8
0
  6
CONTINUOUS
 62
             7
100
AcDbLine
 10
1734.22214621274
 20
4229.9113569028586
 11
1734.22214621274
 21
4229.4730939634601
  0
LINE
  5
20D
100
AcDbEntity
  8
0
  6
CONTINUOUS
 62
             7
100
AcDbLine
 10
1732.5150638114401
 20
4236.3185008606588
 11
1733.9292665600401
 21
4234.9042981121593
  0
LINE
  5
20C
100
AcDbEntity
  8
0
  6
CONTINUOUS
 62
             7
100
AcDbLine
 10
1732.2221767303399
 20
4238.6113996274589
 11
1732.2221767303399
 21
4238.1731366880585
  0
LINE
  5
20B
100
AcDbEntity
  8
0
  6
CONTINUOUS
 62
             7
100
AcDbLine
 10
1734.22214621274
 20
4238.6113385923591
 11
1734.22214621274
 21
4238.1730756528586
  0
LINE
  5
20A
100
AcDbEntity
  8
0
  6
CONTINUOUS
 62
             7
100
AcDbLine
 10
1736.2221767303399
 20
4238.4113874204586
 11
1736.2221767303399
 21
4232.8114118344592
  0
LINE
  5
209
100
AcDbEntity
  8
0
  6
CONTINUOUS
 62
             7
100
AcDbLine
 10
1739.02217978204
 20
4235.9614057309582
 11
1739.02217978204
 21
4230.5613813169593
  0
LINE
  5
208
100
AcDbEntity
  8
0
  6
CONTINUOUS
 62
             7
100
AcDbLine
 10
1739.02217978204
 20
4232.4613904721582
 11
1737.42217367854
 21
4232.4613904721582
  0
LINE
  5
207
100
AcDbEntity
  8
0
  6
CONTINUOUS
 62
             7
100
AcDbLine
 10
1739.02217978204
 20
4231.9613904721582
 11
1737.42217367854
 21
4231.9613904721582
  0
LINE
  5
206
100
AcDbEntity
  8
0
  6
CONTINUOUS
 62
             7
100
AcDbLine
 10
1739.4221584197401
 20
4229.9114026792586
 11
1739.4221584197401
 21
4229.4731397397582
  0
LINE
  5
205
100
AcDbEntity
  8
0
  6
CONTINUOUS
 62
             7
100
AcDbLine
 10
1737.7971846084399
 20
4228.7863830699598
 11
1738.5471800098401
 21
4229.5363784713581
  0
LINE
  5
204
100
AcDbEntity
  8
0
  6
CONTINUOUS
 62
             7
100
AcDbLine
 10
1739.02217978204
 20
4235.9614057309582
 11
1737.42217367854
 21
4235.9614057309582
  0
LINE
  5
203
100
AcDbEntity
  8
0
  6
CONTINUOUS
 62
             7
100
AcDbLine
 10
1737.42217367854
 20
4239.2613782651597
 11
1737.42217367854
 21
4235.9614057309582
  0
LINE
  5
202
100
AcDbEntity
  8
0
  6
CONTINUOUS
 62
             7
100
AcDbLine
 10
1736.2222225066389
 20
4236.6114759214588
 11
1735.7839595672399
 21
4236.6114759214588
  0
LINE
  5
201
100
AcDbEntity
  8
0
  6
CONTINUOUS
 62
             7
100
AcDbLine
 10
1735.78388327324
 20
4234.611369109859
 11
1736.22214621274
 21
4234.611369109859
  0
LINE
  5
200
100
AcDbEntity
  8
0
  6
CONTINUOUS
 62
             7
100
AcDbLine
 10
1730.2221767303399
 20
4261.7613630063597
 11
1733.02217978204
 21
4261.7613630063597
  0
LINE
  5
1FF
100
AcDbEntity
  8
0
  6
CONTINUOUS
 62
             7
100
AcDbLine
 10
1730.2221767303399
 20
4262.4613752134601
 11
1733.02217978204
 21
4262.4613752134601
  0
LINE
  5
1FE
100
AcDbEntity
  8
0
  6
CONTINUOUS
 62
             7
100
AcDbLine
 10
1733.86573660934
 20
4241.6839629525593
 11
1729.0221852135401
 21
4240.7613817903593
  0
LINE
  5
1FD
100
AcDbEntity
  8
0
  6
CONTINUOUS
 62
             7
100
AcDbLine
 10
1730.2221767303399
 20
4243.7613782651597
 11
1733.02217978204
 21
4243.7613782651597
  0
LINE
  5
1FC
100
AcDbEntity
  8
0
  6
CONTINUOUS
 62
             7
100
AcDbLine
 10
1730.2221767303399
 20
4243.0613660581594
 11
1733.02217978204
 21
4243.0613660581594
  0
LINE
  5
1FB
100
AcDbEntity
  8
0
  6
CONTINUOUS
 62
             7
100
AcDbLine
 10
1730.2221767303399
 20
4243.7613782651597
 11
1730.2221767303399
 21
4240.9899396665596
  0
LINE
  5
1FA
100
AcDbEntity
  8
0
  6
CONTINUOUS
 62
             7
100
AcDbLine
 10
1729.02217978204
 20
4250.6613721616586
 11
1731.52217978204
 21
4250.6613721616586
  0
LINE
  5
1F9
100
AcDbEntity
  8
0
  6
CONTINUOUS
 62
             7
100
AcDbLine
 10
1729.02217978204
 20
4254.861369109859
 11
1731.52217978204
 21
4254.861369109859
  0
LINE
  5
1F8
100
AcDbEntity
  8
0
  6
CONTINUOUS
 62
             7
100
AcDbLine
 10
1734.27217978204
 20
4250.2618665464588
 11
1734.27217978204
 21
4242.1751203305603
  0
LINE
  5
1F7
100
AcDbEntity
  8
0
  6
CONTINUOUS
 62
             7
100
AcDbLine
 10
1732.92217367854
 20
4245.7613782651597
 11
1732.92217367854
 21
4247.7613782651597
  0
LINE
  5
1F6
100
AcDbEntity
  8
0
  6
CONTINUOUS
 62
             7
100
AcDbLine
 10
1733.52217978204
 20
4244.7613782651597
 11
1733.52217978204
 21
4248.7613782651597
  0
LINE
  5
1F5
100
AcDbEntity
  8
0
  6
CONTINUOUS
 62
             7
100
AcDbLine
 10
1732.52217978204
 20
4244.7613782651597
 11
1732.52217978204
 21
4248.7613782651597
  0
LINE
  5
1F4
100
AcDbEntity
  8
0
  6
CONTINUOUS
 62
             7
100
AcDbLine
 10
1732.8221675750401
 20
4244.7613782651597
 11
1732.8221675750401
 21
4245.7613782651597
  0
LINE
  5
1F3
100
AcDbEntity
  8
0
  6
CONTINUOUS
 62
             7
100
AcDbLine
 10
1732.8221675750401
 20
4245.7613782651597
 11
1732.92217367854
 21
4245.7613782651597
  0
LINE
  5
1F2
100
AcDbEntity
  8
0
  6
CONTINUOUS
 62
             7
100
AcDbLine
 10
1733.02217978204
 20
4243.7613782651597
 11
1733.02217978204
 21
4241.5232801206594
  0
LINE
  5
1F1
100
AcDbEntity
  8
0
  6
CONTINUOUS
 62
             7
100
AcDbLine
 10
1732.52217978204
 20
4244.7613782651597
 11
1733.52217978204
 21
4244.7613782651597
  0
LINE
  5
1F0
100
AcDbEntity
  8
0
  6
CONTINUOUS
 62
             7
100
AcDbLine
 10
1732.8221675750401
 20
4247.7613782651597
 11
1732.92217367854
 21
4247.7613782651597
  0
LINE
  5
1EF
100
AcDbEntity
  8
0
  6
CONTINUOUS
 62
             7
100
AcDbLine
 10
1732.8221675750401
 20
4247.7613782651597
 11
1732.8221675750401
 21
4248.7613782651597
  0
LINE
  5
1EE
100
AcDbEntity
  8
0
  6
CONTINUOUS
 62
             7
100
AcDbLine
 10
1732.52217978204
 20
4248.7613782651597
 11
1733.52217978204
 21
4248.7613782651597
  0
LINE
  5
1ED
100
AcDbEntity
  8
0
  6
CONTINUOUS
 62
             7
100
AcDbLine
 10
1739.02217978204
 20
4240.2613782651597
 11
1737.2221767303399
 21
4240.2613782651597
  0
LINE
  5
1EC
100
AcDbEntity
  8
0
  6
CONTINUOUS
 62
             7
100
AcDbLine
 10
1735.8221675750401
 20
4243.4113721616586
 11
1739.02217978204
 21
4243.4113721616586
  0
LINE
  5
1EB
100
AcDbEntity
  8
0
  6
CONTINUOUS
 62
             7
100
AcDbLine
 10
1735.8221675750401
 20
4245.3113660581594
 11
1739.02217978204
 21
4245.3113660581594
  0
LINE
  5
1EA
100
AcDbEntity
  8
0
  6
CONTINUOUS
 62
             7
100
AcDbLine
 10
1735.8221675750401
 20
4243.9113721616586
 11
1739.02217978204
 21
4243.9113721616586
  0
LINE
  5
1E9
100
AcDbEntity
  8
0
  6
CONTINUOUS
 62
             7
100
AcDbLine
 10
1735.8221675750401
 20
4244.8113660581594
 11
1739.02217978204
 21
4244.8113660581594
  0
LINE
  5
1E8
100
AcDbEntity
  8
0
  6
CONTINUOUS
 62
             7
100
AcDbLine
 10
1735.8221675750401
 20
4251.7113752134601
 11
1739.02217978204
 21
4251.7113752134601
  0
LINE
  5
1E7
100
AcDbEntity
  8
0
  6
CONTINUOUS
 62
             7
100
AcDbLine
 10
1735.8221675750401
 20
4249.8113660581594
 11
1739.02217978204
 21
4249.8113660581594
  0
LINE
  5
1E6
100
AcDbEntity
  8
0
  6
CONTINUOUS
 62
             7
100
AcDbLine
 10
1735.8221675750401
 20
4250.3113660581594
 11
1739.02217978204
 21
4250.3113660581594
  0
LINE
  5
1E5
100
AcDbEntity
  8
0
  6
CONTINUOUS
 62
             7
100
AcDbLine
 10
1735.8221675750401
 20
4251.2113752134601
 11
1739.02217978204
 21
4251.2113752134601
  0
LINE
  5
1E4
100
AcDbEntity
  8
0
  6
CONTINUOUS
 62
             7
100
AcDbLine
 10
1734.27217978204
 20
4263.3476209409591
 11
1734.27217978204
 21
4255.2608747251588
  0
LINE
  5
1E3
100
AcDbEntity
  8
0
  6
CONTINUOUS
 62
             7
100
AcDbLine
 10
1732.8221675750401
 20
4256.7613782651597
 11
1732.8221675750401
 21
4257.7613782651597
  0
LINE
  5
1E2
100
AcDbEntity
  8
0
  6
CONTINUOUS
 62
             7
100
AcDbLine
 10
1733.52217978204
 20
4256.7613782651597
 11
1733.52217978204
 21
4260.7613782651597
  0
LINE
  5
1E1
100
AcDbEntity
  8
0
  6
CONTINUOUS
 62
             7
100
AcDbLine
 10
1732.52217978204
 20
4256.7613782651597
 11
1732.52217978204
 21
4260.7613782651597
  0
LINE
  5
1E0
100
AcDbEntity
  8
0
  6
CONTINUOUS
 62
             7
100
AcDbLine
 10
1733.52217978204
 20
4256.7613782651597
 11
1732.52217978204
 21
4256.7613782651597
  0
LINE
  5
1DF
100
AcDbEntity
  8
0
  6
CONTINUOUS
 62
             7
100
AcDbLine
 10
1732.8221675750401
 20
4259.7613782651597
 11
1732.8221675750401
 21
4260.7613782651597
  0
LINE
  5
1DE
100
AcDbEntity
  8
0
  6
CONTINUOUS
 62
             7
100
AcDbLine
 10
1732.92217367854
 20
4259.7613782651597
 11
1732.8221675750401
 21
4259.7613782651597
  0
LINE
  5
1DD
100
AcDbEntity
  8
0
  6
CONTINUOUS
 62
             7
100
AcDbLine
 10
1732.92217367854
 20
4257.7613782651597
 11
1732.8221675750401
 21
4257.7613782651597
  0
LINE
  5
1DC
100
AcDbEntity
  8
0
  6
CONTINUOUS
 62
             7
100
AcDbLine
 10
1732.92217367854
 20
4257.7613782651597
 11
1732.92217367854
 21
4259.7613782651597
  0
LINE
  5
1DB
100
AcDbEntity
  8
0
  6
CONTINUOUS
 62
             7
100
AcDbLine
 10
1733.52217978204
 20
4260.7613782651597
 11
1732.52217978204
 21
4260.7613782651597
  0
LINE
  5
1DA
100
AcDbEntity
  8
0
  6
CONTINUOUS
 62
             7
100
AcDbLine
 10
1735.8221675750401
 20
4257.5113630063597
 11
1739.02217978204
 21
4257.5113630063597
  0
LINE
  5
1D9
100
AcDbEntity
  8
0
  6
CONTINUOUS
 62
             7
100
AcDbLine
 10
1735.8221675750401
 20
4256.111369109859
 11
1739.02217978204
 21
4256.111369109859
  0
LINE
  5
1D8
100
AcDbEntity
  8
0
  6
CONTINUOUS
 62
             7
100
AcDbLine
 10
1735.8221675750401
 20
4256.611369109859
 11
1739.02217978204
 21
4256.611369109859
  0
LINE
  5
1D7
100
AcDbEntity
  8
0
  6
CONTINUOUS
 62
             7
100
AcDbLine
 10
1735.8221675750401
 20
4258.0113630063597
 11
1739.02217978204
 21
4258.0113630063597
  0
LINE
  5
1D6
100
AcDbEntity
  8
0
  6
CONTINUOUS
 62
             7
100
AcDbLine
 10
1735.8221675750401
 20
4260.2113752134601
 11
1739.02217978204
 21
4260.2113752134601
  0
LINE
  5
1D5
100
AcDbEntity
  8
0
  6
CONTINUOUS
 62
             7
100
AcDbLine
 10
1735.8221675750401
 20
4262.111369109859
 11
1739.02217978204
 21
4262.111369109859
  0
LINE
  5
1D4
100
AcDbEntity
  8
0
  6
CONTINUOUS
 62
             7
100
AcDbLine
 10
1735.8221675750401
 20
4260.7113752134601
 11
1739.02217978204
 21
4260.7113752134601
  0
LINE
  5
1D3
100
AcDbEntity
  8
0
  6
CONTINUOUS
 62
             7
100
AcDbLine
 10
1735.8221675750401
 20
4261.611369109859
 11
1739.02217978204
 21
4261.611369109859
  0
LINE
  5
1D2
100
AcDbEntity
  8
0
  6
CONTINUOUS
 62
             7
100
AcDbLine
 10
1755.52217978204
 20
4260.7613782651597
 11
1754.52217978204
 21
4260.7613782651597
  0
LINE
  5
1D1
100
AcDbEntity
  8
0
  6
CONTINUOUS
 62
             7
100
AcDbLine
 10
1755.52217978204
 20
4256.7613782651597
 11
1754.52217978204
 21
4256.7613782651597
  0
LINE
  5
1D0
100
AcDbEntity
  8
0
  6
CONTINUOUS
 62
             7
100
AcDbLine
 10
1754.52217978204
 20
4248.7613782651597
 11
1755.52217978204
 21
4248.7613782651597
  0
LINE
  5
1CF
100
AcDbEntity
  8
0
  6
CONTINUOUS
 62
             7
100
AcDbLine
 10
1757.8221744116399
 20
4239.9719607318593
 11
1752.2221731692391
 21
4241.0386275704604
  0
LINE
  5
1CE
100
AcDbEntity
  8
0
  6
CONTINUOUS
 62
             7
100
AcDbLine
 10
1754.1150292871389
 20
4236.3184779328594
 11
1755.5292428253399
 21
4234.9042643946586
  0
LINE
  5
1CD
100
AcDbEntity
  8
0
  6
CONTINUOUS
 62
             7
100
AcDbLine
 10
1757.6221706267399
 20
4238.6113996274589
 11
1752.02217978204
 21
4238.6113996274589
  0
LINE
  5
1CC
100
AcDbEntity
  8
0
  6
CONTINUOUS
 62
             7
100
AcDbLine
 10
1754.52217978204
 20
4244.7613782651597
 11
1755.52217978204
 21
4244.7613782651597
  0
LINE
  5
1CB
100
AcDbEntity
  8
0
  6
CONTINUOUS
 62
             7
100
AcDbLine
 10
1759.0221582496399
 20
4240.7613713398596
 11
1754.1786218431389
 21
4241.6839496469593
  0
LINE
  5
1CA
100
AcDbEntity
  8
0
  6
CONTINUOUS
 62
             7
100
AcDbLine
 10
1757.8221675750401
 20
4231.9613904721582
 11
1751.8221675750401
 21
4231.9613904721582
  0
LINE
  5
1C9
100
AcDbEntity
  8
0
  6
CONTINUOUS
 62
             7
100
AcDbLine
 10
1757.8221675750401
 20
4223.2613782651597
 11
1751.8221675750401
 21
4223.2613782651597
  0
LINE
  5
1C8
100
AcDbEntity
  8
0
  6
CONTINUOUS
 62
             7
100
AcDbLine
 10
1757.6221706267399
 20
4232.6113996274589
 11
1752.02217978204
 21
4232.6113996274589
  0
LINE
  5
1C7
100
AcDbEntity
  8
0
  6
CONTINUOUS
 62
             7
100
AcDbLine
 10
1754.11503063584
 20
4227.618463571961
 11
1755.5292441740401
 21
4226.2042500337584
  0
LINE
  5
1C6
100
AcDbEntity
  8
0
  6
CONTINUOUS
 62
             7
100
AcDbLine
 10
1756.2363495944401
 20
4228.3255689923599
 11
1753.4079238668401
 21
4225.4971432646589
  0
LINE
  5
1C5
100
AcDbEntity
  8
0
  6
CONTINUOUS
 62
             7
100
AcDbLine
 10
1757.6221706267399
 20
4223.9113874204586
 11
1752.02217978204
 21
4223.9113874204586
  0
LINE
  5
1C4
100
AcDbEntity
  8
0
  6
CONTINUOUS
 62
             7
100
AcDbLine
 10
1757.6221706267399
 20
4229.9113874204586
 11
1752.02217978204
 21
4229.9113874204586
  0
LINE
  5
1C3
100
AcDbEntity
  8
0
  6
CONTINUOUS
 62
             7
100
AcDbLine
 10
1751.8221675750401
 20
4222.7613782651597
 11
1755.3221675750401
 21
4222.7613782651597
  0
LINE
  5
1C2
100
AcDbEntity
  8
0
  6
CONTINUOUS
 62
             7
100
AcDbLine
 10
1757.8221675750401
 20
4231.0613813169593
 11
1751.8221675750401
 21
4231.0613813169593
  0
LINE
  5
1C1
100
AcDbEntity
  8
0
  6
CONTINUOUS
 62
             7
100
AcDbLine
 10
1757.8221675750401
 20
4222.2613782651597
 11
1751.8221675750401
 21
4222.2613782651597
  0
LINE
  5
1C0
100
AcDbEntity
  8
0
  6
CONTINUOUS
 62
             7
100
AcDbLine
 10
1756.2363495944401
 20
4237.0255847018589
 11
1753.4079225181399
 21
4234.1971576255592
  0
LINE
  5
1BF
100
AcDbEntity
  8
0
  6
CONTINUOUS
 62
             7
100
AcDbLine
 10
1744.6221706267399
 20
4221.7613782651597
 11
1759.02217978204
 21
4221.7613782651597
  0
LINE
  5
1BE
100
AcDbEntity
  8
0
  6
CONTINUOUS
 62
             7
100
AcDbLine
 10
1750.822176418139
 20
4240.2613743032589
 11
1751.8221667744399
 21
4239.2613840312579
  0
LINE
  5
1BD
100
AcDbEntity
  8
0
  6
CONTINUOUS
 62
             7
100
AcDbLine
 10
1744.6221706267399
 20
4242.1264142759601
 11
1744.6221706267399
 21
4239.2613782651597
  0
LINE
  5
1BC
100
AcDbEntity
  8
0
  6
CONTINUOUS
 62
             7
100
AcDbLine
 10
1743.42217367854
 20
4242.1264142759601
 11
1743.42217367854
 21
4239.2613782651597
  0
LINE
  5
1BB
100
AcDbEntity
  8
0
  6
CONTINUOUS
 62
             7
100
AcDbLine
 10
1750.6221706267399
 20
4223.2613782651597
 11
1744.6221706267399
 21
4223.2613782651597
  0
LINE
  5
1BA
100
AcDbEntity
  8
0
  6
CONTINUOUS
 62
             7
100
AcDbLine
 10
1746.91504888744
 20
4227.6184851511598
 11
1748.3292624256401
 21
4226.204271612959
  0
LINE
  5
1B9
100
AcDbEntity
  8
0
  6
CONTINUOUS
 62
             7
100
AcDbLine
 10
1746.2079529079399
 20
4225.4971756334589
 11
1749.03636919474
 21
4228.3255919201611
  0
LINE
  5
1B8
100
AcDbEntity
  8
0
  6
CONTINUOUS
 62
             7
100
AcDbLine
 10
1744.8221675750401
 20
4229.9113874204586
 11
1750.4221584197401
 21
4229.9113874204586
  0
LINE
  5
1B7
100
AcDbEntity
  8
0
  6
CONTINUOUS
 62
             7
100
AcDbLine
 10
1744.8221675750401
 20
4223.9113874204586
 11
1750.4221584197401
 21
4223.9113874204586
  0
LINE
  5
1B6
100
AcDbEntity
  8
0
  6
CONTINUOUS
 62
             7
100
AcDbLine
 10
1750.6221706267399
 20
4222.2613782651597
 11
1744.6221706267399
 21
4222.2613782651597
  0
LINE
  5
1B5
100
AcDbEntity
  8
0
  6
CONTINUOUS
 62
             7
100
AcDbLine
 10
1739.6221858855399
 20
4218.7613782651597
 11
1748.42217367854
 21
4218.7613782651597
  0
LINE
  5
1B4
100
AcDbEntity
  8
0
  6
CONTINUOUS
 62
             7
100
AcDbLine
 10
1748.27217978204
 20
4231.9613904721582
 11
1739.77217978204
 21
4231.9613904721582
  0
LINE
  5
1B3
100
AcDbEntity
  8
0
  6
CONTINUOUS
 62
             7
100
AcDbLine
 10
1744.6221706267399
 20
4229.7113904721582
 11
1744.6221706267399
 21
4224.1113996274589
  0
LINE
  5
1B2
100
AcDbEntity
  8
0
  6
CONTINUOUS
 62
             7
100
AcDbLine
 10
1743.42217367854
 20
4229.7113904721582
 11
1743.42217367854
 21
4224.1113996274589
  0
LINE
  5
1B1
100
AcDbEntity
  8
0
  6
CONTINUOUS
 62
             7
100
AcDbLine
 10
1743.42217367854
 20
4230.5613813169593
 11
1743.42217367854
 21
4219.7613782651597
  0
LINE
  5
1B0
100
AcDbEntity
  8
0
  6
CONTINUOUS
 62
             7
100
AcDbLine
 10
1744.6221706267399
 20
4230.5613813169593
 11
1744.6221706267399
 21
4219.7613782651597
  0
LINE
  5
1AF
100
AcDbEntity
  8
0
  6
CONTINUOUS
 62
             7
100
AcDbLine
 10
1741.02217978204
 20
4220.2613782651597
 11
1743.42217367854
 21
4220.2613782651597
  0
LINE
  5
1AE
100
AcDbEntity
  8
0
  6
CONTINUOUS
 62
             7
100
AcDbLine
 10
1742.9838802215399
 20
4225.9113416440587
 11
1743.4221431609401
 21
4225.9113416440587
  0
LINE
  5
1AD
100
AcDbEntity
  8
0
  6
CONTINUOUS
 62
             7
100
AcDbLine
 10
1743.42221945494
 20
4227.9114331967603
 11
1742.9839565154391
 21
4227.9114331967603
  0
LINE
  5
1AC
100
AcDbEntity
  8
0
  6
CONTINUOUS
 62
             7
100
AcDbLine
 10
1741.02217978204
 20
4221.7613782651597
 11
1741.02217978204
 21
4220.2613782651597
  0
LINE
  5
1AB
100
AcDbEntity
  8
0
  6
CONTINUOUS
 62
             7
100
AcDbLine
 10
1741.42221945494
 20
4224.3496961362589
 11
1741.42221945494
 21
4223.9114331967603
  0
LINE
  5
1AA
100
AcDbEntity
  8
0
  6
CONTINUOUS
 62
             7
100
AcDbLine
 10
1739.7150779286401
 20
4227.618495940761
 11
1741.129280677239
 21
4226.2042931921596
  0
LINE
  5
1A9
100
AcDbEntity
  8
0
  6
CONTINUOUS
 62
             7
100
AcDbLine
 10
1743.04717399744
 20
4225.0363844837584
 11
1742.297178596039
 21
4224.2863890823601
  0
LINE
  5
1A8
100
AcDbEntity
  8
0
  6
CONTINUOUS
 62
             7
100
AcDbLine
 10
1744.6221706267399
 20
4220.2613782651597
 11
1747.02217978204
 21
4220.2613782651597
  0
LINE
  5
1A7
100
AcDbEntity
  8
0
  6
CONTINUOUS
 62
             7
100
AcDbLine
 10
1743.42217367854
 20
4219.7613782651597
 11
1744.6221706267399
 21
4219.7613782651597
  0
LINE
  5
1A6
100
AcDbEntity
  8
0
  6
CONTINUOUS
 62
             7
100
AcDbLine
 10
1747.02217978204
 20
4221.7613782651597
 11
1747.02217978204
 21
4220.2613782651597
  0
LINE
  5
1A5
100
AcDbEntity
  8
0
  6
CONTINUOUS
 62
             7
100
AcDbLine
 10
1745.7471725478399
 20
4224.2863890823601
 11
1744.9971663568399
 21
4225.0363952733596
  0
LINE
  5
1A4
100
AcDbEntity
  8
0
  6
CONTINUOUS
 62
             7
100
AcDbLine
 10
1745.0604183074399
 20
4225.9114026792586
 11
1744.6221553680391
 21
4225.9114026792586
  0
LINE
  5
1A3
100
AcDbEntity
  8
0
  6
CONTINUOUS
 62
             7
100
AcDbLine
 10
1744.6221553680391
 20
4227.9114026792586
 11
1745.0604183074399
 21
4227.9114026792586
  0
LINE
  5
1A2
100
AcDbEntity
  8
0
  6
CONTINUOUS
 62
             7
100
AcDbLine
 10
1746.6221553680391
 20
4224.3496656186589
 11
1746.6221553680391
 21
4223.9114026792586
  0
LINE
  5
1A1
100
AcDbEntity
  8
0
  6
CONTINUOUS
 62
             7
100
AcDbLine
 10
1739.77217978204
 20
4236.9613904721582
 11
1739.77217978204
 21
4231.9613904721582
  0
LINE
  5
1A0
100
AcDbEntity
  8
0
  6
CONTINUOUS
 62
             7
100
AcDbLine
 10
1741.4221431609401
 20
4229.9113416440587
 11
1741.4221431609401
 21
4229.4730787046601
  0
LINE
  5
19F
100
AcDbEntity
  8
0
  6
CONTINUOUS
 62
             7
100
AcDbLine
 10
1742.297178596039
 20
4229.5363676817587
 11
1743.04716320784
 21
4228.7863830699598
  0
LINE
  5
19E
100
AcDbEntity
  8
0
  6
CONTINUOUS
 62
             7
100
AcDbLine
 10
1744.9971663568399
 20
4228.7863830699598
 11
1745.7471617582401
 21
4229.5363784713581
  0
LINE
  5
19D
100
AcDbEntity
  8
0
  6
CONTINUOUS
 62
             7
100
AcDbLine
 10
1746.6221553680391
 20
4229.9114026792586
 11
1746.6221553680391
 21
4229.4731397397582
  0
LINE
  5
19C
100
AcDbEntity
  8
0
  6
CONTINUOUS
 62
             7
100
AcDbLine
 10
1751.8221675750401
 20
4229.7113904721582
 11
1751.8221675750401
 21
4224.1113996274589
  0
LINE
  5
19B
100
AcDbEntity
  8
0
  6
CONTINUOUS
 62
             7
100
AcDbLine
 10
1751.8221675750401
 20
4221.7613782651597
 11
1751.8221675750401
 21
4239.2613782651597
  0
LINE
  5
19A
100
AcDbEntity
  8
0
  6
CONTINUOUS
 62
             7
100
AcDbLine
 10
1750.6221706267399
 20
4229.7113904721582
 11
1750.6221706267399
 21
4224.1113996274589
  0
LINE
  5
199
100
AcDbEntity
  8
0
  6
CONTINUOUS
 62
             7
100
AcDbLine
 10
1750.6221706267399
 20
4221.7613782651597
 11
1750.6221706267399
 21
4232.4613904721582
  0
LINE
  5
198
100
AcDbEntity
  8
0
  6
CONTINUOUS
 62
             7
100
AcDbLine
 10
1749.42217367854
 20
4221.7613782651597
 11
1749.42217367854
 21
4219.7613782651597
  0
LINE
  5
197
100
AcDbEntity
  8
0
  6
CONTINUOUS
 62
             7
100
AcDbLine
 10
1748.6222164031401
 20
4224.3496961362589
 11
1748.6222164031401
 21
4223.9114331967603
  0
LINE
  5
196
100
AcDbEntity
  8
0
  6
CONTINUOUS
 62
             7
100
AcDbLine
 10
1750.24715574584
 20
4225.0363844837584
 11
1749.4971603444401
 21
4224.2863890823601
  0
LINE
  5
195
100
AcDbEntity
  8
0
  6
CONTINUOUS
 62
             7
100
AcDbLine
 10
1750.1838771697401
 20
4225.9113569028586
 11
1750.6221401092389
 21
4225.9113569028586
  0
LINE
  5
194
100
AcDbEntity
  8
0
  6
CONTINUOUS
 62
             7
100
AcDbLine
 10
1750.6222164031401
 20
4227.9114331967603
 11
1750.18395346374
 21
4227.9114331967603
  0
LINE
  5
193
100
AcDbEntity
  8
0
  6
CONTINUOUS
 62
             7
100
AcDbLine
 10
1751.8221675750401
 20
4227.9114026792586
 11
1752.26043051444
 21
4227.9114026792586
  0
LINE
  5
192
100
AcDbEntity
  8
0
  6
CONTINUOUS
 62
             7
100
AcDbLine
 10
1752.26043051444
 20
4225.9114026792586
 11
1751.8221675750401
 21
4225.9114026792586
  0
LINE
  5
191
100
AcDbEntity
  8
0
  6
CONTINUOUS
 62
             7
100
AcDbLine
 10
1752.9471542962399
 20
4224.2863890823601
 11
1752.1971481052401
 21
4225.0363952733596
  0
LINE
  5
190
100
AcDbEntity
  8
0
  6
CONTINUOUS
 62
             7
100
AcDbLine
 10
1753.8221675750401
 20
4224.3496656186589
 11
1753.8221675750401
 21
4223.9114026792586
  0
LINE
  5
18F
100
AcDbEntity
  8
0
  6
CONTINUOUS
 62
             7
100
AcDbLine
 10
1751.8221675750401
 20
4236.9613904721582
 11
1748.27217978204
 21
4236.9613904721582
  0
LINE
  5
18E
100
AcDbEntity
  8
0
  6
CONTINUOUS
 62
             7
100
AcDbLine
 10
1749.02216452324
 20
4235.9614057309582
 11
1749.02216452324
 21
4230.5613813169593
  0
LINE
  5
18D
100
AcDbEntity
  8
0
  6
CONTINUOUS
 62
             7
100
AcDbLine
 10
1748.27217978204
 20
4236.9613904721582
 11
1748.27217978204
 21
4231.9613904721582
  0
LINE
  5
18C
100
AcDbEntity
  8
0
  6
CONTINUOUS
 62
             7
100
AcDbLine
 10
1750.6221706267399
 20
4232.4613904721582
 11
1749.02216452324
 21
4232.4613904721582
  0
LINE
  5
18B
100
AcDbEntity
  8
0
  6
CONTINUOUS
 62
             7
100
AcDbLine
 10
1750.6221706267399
 20
4231.9613904721582
 11
1749.02216452324
 21
4231.9613904721582
  0
LINE
  5
18A
100
AcDbEntity
  8
0
  6
CONTINUOUS
 62
             7
100
AcDbLine
 10
1748.6221401092389
 20
4229.9113569028586
 11
1748.6221401092389
 21
4229.4730939634601
  0
LINE
  5
189
100
AcDbEntity
  8
0
  6
CONTINUOUS
 62
             7
100
AcDbLine
 10
1749.4971495548391
 20
4229.5363784713581
 11
1750.24715574584
 21
4228.7863722803586
  0
LINE
  5
188
100
AcDbEntity
  8
0
  6
CONTINUOUS
 62
             7
100
AcDbLine
 10
1750.6221706267399
 20
4235.9614057309582
 11
1749.02216452324
 21
4235.9614057309582
  0
LINE
  5
187
100
AcDbEntity
  8
0
  6
CONTINUOUS
 62
             7
100
AcDbLine
 10
1750.6221706267399
 20
4239.2613782651597
 11
1750.6221706267399
 21
4235.9614057309582
  0
LINE
  5
186
100
AcDbEntity
  8
0
  6
CONTINUOUS
 62
             7
100
AcDbLine
 10
1751.8221675750401
 20
4238.4113874204586
 11
1751.8221675750401
 21
4232.8114118344592
  0
LINE
  5
185
100
AcDbEntity
  8
0
  6
CONTINUOUS
 62
             7
100
AcDbLine
 10
1752.94715294754
 20
4232.9864034432603
 11
1752.19714675654
 21
4233.7364096342599
  0
LINE
  5
184
100
AcDbEntity
  8
0
  6
CONTINUOUS
 62
             7
100
AcDbLine
 10
1752.1971481052401
 20
4228.7863830699598
 11
1752.94715294754
 21
4229.5363879121587
  0
LINE
  5
183
100
AcDbEntity
  8
0
  6
CONTINUOUS
 62
             7
100
AcDbLine
 10
1753.8221675750401
 20
4233.0496778257593
 11
1753.8221675750401
 21
4232.6114148862589
  0
LINE
  5
182
100
AcDbEntity
  8
0
  6
CONTINUOUS
 62
             7
100
AcDbLine
 10
1753.8221675750401
 20
4229.9114026792586
 11
1753.8221675750401
 21
4229.4731397397582
  0
LINE
  5
181
100
AcDbEntity
  8
0
  6
CONTINUOUS
 62
             7
100
AcDbLine
 10
1751.8221675750401
 20
4236.6114148862589
 11
1752.26043051444
 21
4236.6114148862589
  0
LINE
  5
180
100
AcDbEntity
  8
0
  6
CONTINUOUS
 62
             7
100
AcDbLine
 10
1752.26043051444
 20
4234.6114148862589
 11
1751.8221675750401
 21
4234.6114148862589
  0
LINE
  5
17F
100
AcDbEntity
  8
0
  6
CONTINUOUS
 62
             7
100
AcDbLine
 10
1752.19714675654
 20
4237.4863974307582
 11
1752.94715294754
 21
4238.2364036217596
  0
LINE
  5
17E
100
AcDbEntity
  8
0
  6
CONTINUOUS
 62
             7
100
AcDbLine
 10
1753.8221675750401
 20
4238.6113996274589
 11
1753.8221675750401
 21
4238.1731366880585
  0
LINE
  5
17D
100
AcDbEntity
  8
0
  6
CONTINUOUS
 62
             7
100
AcDbLine
 10
1744.6221706267399
 20
4258.0113630063597
 11
1747.8221675750401
 21
4258.0113630063597
  0
LINE
  5
17C
100
AcDbEntity
  8
0
  6
CONTINUOUS
 62
             7
100
AcDbLine
 10
1744.6221706267399
 20
4257.5113630063597
 11
1747.8221675750401
 21
4257.5113630063597
  0
LINE
  5
17B
100
AcDbEntity
  8
0
  6
CONTINUOUS
 62
             7
100
AcDbLine
 10
1744.6221706267399
 20
4260.2113752134601
 11
1747.8221675750401
 21
4260.2113752134601
  0
LINE
  5
17A
100
AcDbEntity
  8
0
  6
CONTINUOUS
 62
             7
100
AcDbLine
 10
1744.6221706267399
 20
4262.111369109859
 11
1747.8221675750401
 21
4262.111369109859
  0
LINE
  5
179
100
AcDbEntity
  8
0
  6
CONTINUOUS
 62
             7
100
AcDbLine
 10
1744.6221706267399
 20
4260.7113752134601
 11
1747.8221675750401
 21
4260.7113752134601
  0
LINE
  5
178
100
AcDbEntity
  8
0
  6
CONTINUOUS
 62
             7
100
AcDbLine
 10
1744.6221706267399
 20
4261.611369109859
 11
1747.8221675750401
 21
4261.611369109859
  0
LINE
  5
177
100
AcDbEntity
  8
0
  6
CONTINUOUS
 62
             7
100
AcDbLine
 10
1744.6221706267399
 20
4249.8113660581594
 11
1747.8221675750401
 21
4249.8113660581594
  0
LINE
  5
176
100
AcDbEntity
  8
0
  6
CONTINUOUS
 62
             7
100
AcDbLine
 10
1744.6221706267399
 20
4251.7113752134601
 11
1747.8221675750401
 21
4251.7113752134601
  0
LINE
  5
175
100
AcDbEntity
  8
0
  6
CONTINUOUS
 62
             7
100
AcDbLine
 10
1744.6221706267399
 20
4250.3113660581594
 11
1747.8221675750401
 21
4250.3113660581594
  0
LINE
  5
174
100
AcDbEntity
  8
0
  6
CONTINUOUS
 62
             7
100
AcDbLine
 10
1744.6221706267399
 20
4251.2113752134601
 11
1747.8221675750401
 21
4251.2113752134601
  0
LINE
  5
173
100
AcDbEntity
  8
0
  6
CONTINUOUS
 62
             7
100
AcDbLine
 10
1744.6221706267399
 20
4256.111369109859
 11
1747.8221675750401
 21
4256.111369109859
  0
LINE
  5
172
100
AcDbEntity
  8
0
  6
CONTINUOUS
 62
             7
100
AcDbLine
 10
1744.6221706267399
 20
4256.611369109859
 11
1747.8221675750401
 21
4256.611369109859
  0
LINE
  5
171
100
AcDbEntity
  8
0
  6
CONTINUOUS
 62
             7
100
AcDbLine
 10
1740.2221767303399
 20
4249.8113660581594
 11
1743.42217367854
 21
4249.8113660581594
  0
LINE
  5
170
100
AcDbEntity
  8
0
  6
CONTINUOUS
 62
             7
100
AcDbLine
 10
1740.2221767303399
 20
4251.7113752134601
 11
1743.42217367854
 21
4251.7113752134601
  0
LINE
  5
16F
100
AcDbEntity
  8
0
  6
CONTINUOUS
 62
             7
100
AcDbLine
 10
1740.2221767303399
 20
4250.3113660581594
 11
1743.42217367854
 21
4250.3113660581594
  0
LINE
  5
16E
100
AcDbEntity
  8
0
  6
CONTINUOUS
 62
             7
100
AcDbLine
 10
1740.2221767303399
 20
4251.2113752134601
 11
1743.42217367854
 21
4251.2113752134601
  0
LINE
  5
16D
100
AcDbEntity
  8
0
  6
CONTINUOUS
 62
             7
100
AcDbLine
 10
1740.2221767303399
 20
4258.0113630063597
 11
1743.42217367854
 21
4258.0113630063597
  0
LINE
  5
16C
100
AcDbEntity
  8
0
  6
CONTINUOUS
 62
             7
100
AcDbLine
 10
1740.2221767303399
 20
4257.5113630063597
 11
1743.42217367854
 21
4257.5113630063597
  0
LINE
  5
16B
100
AcDbEntity
  8
0
  6
CONTINUOUS
 62
             7
100
AcDbLine
 10
1740.2221767303399
 20
4260.2113752134601
 11
1743.42217367854
 21
4260.2113752134601
  0
LINE
  5
16A
100
AcDbEntity
  8
0
  6
CONTINUOUS
 62
             7
100
AcDbLine
 10
1740.2221767303399
 20
4262.111369109859
 11
1743.42217367854
 21
4262.111369109859
  0
LINE
  5
169
100
AcDbEntity
  8
0
  6
CONTINUOUS
 62
             7
100
AcDbLine
 10
1740.2221767303399
 20
4260.7113752134601
 11
1743.42217367854
 21
4260.7113752134601
  0
LINE
  5
168
100
AcDbEntity
  8
0
  6
CONTINUOUS
 62
             7
100
AcDbLine
 10
1740.2221767303399
 20
4261.611369109859
 11
1743.42217367854
 21
4261.611369109859
  0
LINE
  5
167
100
AcDbEntity
  8
0
  6
CONTINUOUS
 62
             7
100
AcDbLine
 10
1740.2221767303399
 20
4256.111369109859
 11
1743.42217367854
 21
4256.111369109859
  0
LINE
  5
166
100
AcDbEntity
  8
0
  6
CONTINUOUS
 62
             7
100
AcDbLine
 10
1740.2221767303399
 20
4256.611369109859
 11
1743.42217367854
 21
4256.611369109859
  0
LINE
  5
165
100
AcDbEntity
  8
0
  6
CONTINUOUS
 62
             7
100
AcDbLine
 10
1749.02217978204
 20
4249.8113660581594
 11
1752.2221767303399
 21
4249.8113660581594
  0
LINE
  5
164
100
AcDbEntity
  8
0
  6
CONTINUOUS
 62
             7
100
AcDbLine
 10
1749.02217978204
 20
4251.7113752134601
 11
1752.2221767303399
 21
4251.7113752134601
  0
LINE
  5
163
100
AcDbEntity
  8
0
  6
CONTINUOUS
 62
             7
100
AcDbLine
 10
1749.02217978204
 20
4250.3113660581594
 11
1752.2221767303399
 21
4250.3113660581594
  0
LINE
  5
162
100
AcDbEntity
  8
0
  6
CONTINUOUS
 62
             7
100
AcDbLine
 10
1749.02217978204
 20
4251.2113752134601
 11
1752.2221767303399
 21
4251.2113752134601
  0
LINE
  5
161
100
AcDbEntity
  8
0
  6
CONTINUOUS
 62
             7
100
AcDbLine
 10
1749.02217978204
 20
4243.4113721616586
 11
1752.2221767303399
 21
4243.4113721616586
  0
LINE
  5
160
100
AcDbEntity
  8
0
  6
CONTINUOUS
 62
             7
100
AcDbLine
 10
1749.02217978204
 20
4245.3113660581594
 11
1752.2221767303399
 21
4245.3113660581594
  0
LINE
  5
15F
100
AcDbEntity
  8
0
  6
CONTINUOUS
 62
             7
100
AcDbLine
 10
1749.02217978204
 20
4243.9113721616586
 11
1752.2221767303399
 21
4243.9113721616586
  0
LINE
  5
15E
100
AcDbEntity
  8
0
  6
CONTINUOUS
 62
             7
100
AcDbLine
 10
1749.02217978204
 20
4244.8113660581594
 11
1752.2221767303399
 21
4244.8113660581594
  0
LINE
  5
15D
100
AcDbEntity
  8
0
  6
CONTINUOUS
 62
             7
100
AcDbLine
 10
1750.8221675750401
 20
4240.2613782651597
 11
1749.02216452324
 21
4240.2613782651597
  0
LINE
  5
15C
100
AcDbEntity
  8
0
  6
CONTINUOUS
 62
             7
100
AcDbLine
 10
1753.77217978204
 20
4242.1751203305603
 11
1753.77217978204
 21
4250.2618665464588
  0
LINE
  5
15B
100
AcDbEntity
  8
0
  6
CONTINUOUS
 62
             7
100
AcDbLine
 10
1754.52217978204
 20
4248.7613782651597
 11
1754.52217978204
 21
4244.7613782651597
  0
LINE
  5
15A
100
AcDbEntity
  8
0
  6
CONTINUOUS
 62
             7
100
AcDbLine
 10
1749.02217978204
 20
4258.0113630063597
 11
1752.2221767303399
 21
4258.0113630063597
  0
LINE
  5
159
100
AcDbEntity
  8
0
  6
CONTINUOUS
 62
             7
100
AcDbLine
 10
1749.02217978204
 20
4257.5113630063597
 11
1752.2221767303399
 21
4257.5113630063597
  0
LINE
  5
158
100
AcDbEntity
  8
0
  6
CONTINUOUS
 62
             7
100
AcDbLine
 10
1749.02217978204
 20
4260.2113752134601
 11
1752.2221767303399
 21
4260.2113752134601
  0
LINE
  5
157
100
AcDbEntity
  8
0
  6
CONTINUOUS
 62
             7
100
AcDbLine
 10
1749.02217978204
 20
4262.111369109859
 11
1752.2221767303399
 21
4262.111369109859
  0
LINE
  5
156
100
AcDbEntity
  8
0
  6
CONTINUOUS
 62
             7
100
AcDbLine
 10
1749.02217978204
 20
4260.7113752134601
 11
1752.2221767303399
 21
4260.7113752134601
  0
LINE
  5
155
100
AcDbEntity
  8
0
  6
CONTINUOUS
 62
             7
100
AcDbLine
 10
1749.02217978204
 20
4261.611369109859
 11
1752.2221767303399
 21
4261.611369109859
  0
LINE
  5
154
100
AcDbEntity
  8
0
  6
CONTINUOUS
 62
             7
100
AcDbLine
 10
1749.02217978204
 20
4256.111369109859
 11
1752.2221767303399
 21
4256.111369109859
  0
LINE
  5
153
100
AcDbEntity
  8
0
  6
CONTINUOUS
 62
             7
100
AcDbLine
 10
1749.02217978204
 20
4256.611369109859
 11
1752.2221767303399
 21
4256.611369109859
  0
LINE
  5
152
100
AcDbEntity
  8
0
  6
CONTINUOUS
 62
             7
100
AcDbLine
 10
1753.77217978204
 20
4255.2608747251588
 11
1753.77217978204
 21
4263.3476209409591
  0
LINE
  5
151
100
AcDbEntity
  8
0
  6
CONTINUOUS
 62
             7
100
AcDbLine
 10
1754.52217978204
 20
4260.7613782651597
 11
1754.52217978204
 21
4256.7613782651597
  0
LINE
  5
150
100
AcDbEntity
  8
0
  6
CONTINUOUS
 62
             7
100
AcDbLine
 10
1759.02217978204
 20
4221.7613782651597
 11
1759.02217978204
 21
4250.6613721616586
  0
LINE
  5
14F
100
AcDbEntity
  8
0
  6
CONTINUOUS
 62
             7
100
AcDbLine
 10
1757.8221675750401
 20
4229.7113904721582
 11
1757.8221675750401
 21
4224.1113996274589
  0
LINE
  5
14E
100
AcDbEntity
  8
0
  6
CONTINUOUS
 62
             7
100
AcDbLine
 10
1757.8221675750401
 20
4221.7613782651597
 11
1757.8221675750401
 21
4239.9719648130585
  0
LINE
  5
14D
100
AcDbEntity
  8
0
  6
CONTINUOUS
 62
             7
100
AcDbLine
 10
1755.3221675750401
 20
4223.2613782651597
 11
1755.3221675750401
 21
4222.7613782651597
  0
LINE
  5
14C
100
AcDbEntity
  8
0
  6
CONTINUOUS
 62
             7
100
AcDbLine
 10
1757.4471469351399
 20
4225.036393924659
 11
1756.6971420928401
 21
4224.2863890823601
  0
LINE
  5
14B
100
AcDbEntity
  8
0
  6
CONTINUOUS
 62
             7
100
AcDbLine
 10
1755.82221335144
 20
4224.3497113950589
 11
1755.82221335144
 21
4223.9114484555603
  0
LINE
  5
14A
100
AcDbEntity
  8
0
  6
CONTINUOUS
 62
             7
100
AcDbLine
 10
1757.82221335144
 20
4227.9114484555603
 11
1757.3839504119401
 21
4227.9114484555603
  0
LINE
  5
149
100
AcDbEntity
  8
0
  6
CONTINUOUS
 62
             7
100
AcDbLine
 10
1757.3838741180391
 20
4225.9113721616586
 11
1757.8221370574399
 21
4225.9113721616586
  0
LINE
  5
148
100
AcDbEntity
  8
0
  6
CONTINUOUS
 62
             7
100
AcDbLine
 10
1757.8221675750401
 20
4238.4113874204586
 11
1757.8221675750401
 21
4232.8114118344592
  0
LINE
  5
147
100
AcDbEntity
  8
0
  6
CONTINUOUS
 62
             7
100
AcDbLine
 10
1757.4471469351399
 20
4233.7364096342599
 11
1756.6971407441399
 21
4232.9864034432603
  0
LINE
  5
146
100
AcDbEntity
  8
0
  6
CONTINUOUS
 62
             7
100
AcDbLine
 10
1756.6971407441399
 20
4229.5363879121587
 11
1757.4471469351399
 21
4228.7863817212592
  0
LINE
  5
145
100
AcDbEntity
  8
0
  6
CONTINUOUS
 62
             7
100
AcDbLine
 10
1755.82221335144
 20
4233.0497236020592
 11
1755.82221335144
 21
4232.6114606626588
  0
LINE
  5
144
100
AcDbEntity
  8
0
  6
CONTINUOUS
 62
             7
100
AcDbLine
 10
1755.8221370574399
 20
4229.9113721616586
 11
1755.8221370574399
 21
4229.4731092221582
  0
LINE
  5
143
100
AcDbEntity
  8
0
  6
CONTINUOUS
 62
             7
100
AcDbLine
 10
1756.6971407441399
 20
4238.2364036217596
 11
1757.4471469351399
 21
4237.4863974307582
  0
LINE
  5
142
100
AcDbEntity
  8
0
  6
CONTINUOUS
 62
             7
100
AcDbLine
 10
1755.8221370574399
 20
4238.611353851059
 11
1755.8221370574399
 21
4238.1730756528586
  0
LINE
  5
141
100
AcDbEntity
  8
0
  6
CONTINUOUS
 62
             7
100
AcDbLine
 10
1757.82222861014
 20
4236.6114606626588
 11
1757.3839504119401
 21
4236.6114606626588
  0
LINE
  5
140
100
AcDbEntity
  8
0
  6
CONTINUOUS
 62
             7
100
AcDbLine
 10
1757.3838741180391
 20
4234.6113843686589
 11
1757.8221370574399
 21
4234.6113843686589
  0
LINE
  5
13F
100
AcDbEntity
  8
0
  6
CONTINUOUS
 62
             7
100
AcDbLine
 10
1756.52217978204
 20
4250.6613721616586
 11
1759.02217978204
 21
4250.6613721616586
  0
LINE
  5
13E
100
AcDbEntity
  8
0
  6
CONTINUOUS
 62
             7
100
AcDbLine
 10
1755.1221706267399
 20
4247.7613782651597
 11
1755.1221706267399
 21
4245.7613782651597
  0
LINE
  5
13D
100
AcDbEntity
  8
0
  6
CONTINUOUS
 62
             7
100
AcDbLine
 10
1755.52217978204
 20
4248.7613782651597
 11
1755.52217978204
 21
4244.7613782651597
  0
LINE
  5
13C
100
AcDbEntity
  8
0
  6
CONTINUOUS
 62
             7
100
AcDbLine
 10
1755.02217978204
 20
4243.7613782651597
 11
1757.8221675750401
 21
4243.7613782651597
  0
LINE
  5
13B
100
AcDbEntity
  8
0
  6
CONTINUOUS
 62
             7
100
AcDbLine
 10
1755.02217978204
 20
4243.0613660581594
 11
1757.8221675750401
 21
4243.0613660581594
  0
LINE
  5
13A
100
AcDbEntity
  8
0
  6
CONTINUOUS
 62
             7
100
AcDbLine
 10
1755.2221767303399
 20
4245.7613782651597
 11
1755.2221767303399
 21
4244.7613782651597
  0
LINE
  5
139
100
AcDbEntity
  8
0
  6
CONTINUOUS
 62
             7
100
AcDbLine
 10
1755.1221706267399
 20
4245.7613782651597
 11
1755.2221767303399
 21
4245.7613782651597
  0
LINE
  5
138
100
AcDbEntity
  8
0
  6
CONTINUOUS
 62
             7
100
AcDbLine
 10
1755.02217978204
 20
4241.5232801206594
 11
1755.02217978204
 21
4243.7613782651597
  0
LINE
  5
137
100
AcDbEntity
  8
0
  6
CONTINUOUS
 62
             7
100
AcDbLine
 10
1757.8221675750401
 20
4240.9899396665596
 11
1757.8221675750401
 21
4243.7613782651597
  0
LINE
  5
136
100
AcDbEntity
  8
0
  6
CONTINUOUS
 62
             7
100
AcDbLine
 10
1755.1221706267399
 20
4247.7613782651597
 11
1755.2221767303399
 21
4247.7613782651597
  0
LINE
  5
135
100
AcDbEntity
  8
0
  6
CONTINUOUS
 62
             7
100
AcDbLine
 10
1755.2221767303399
 20
4248.7613782651597
 11
1755.2221767303399
 21
4247.7613782651597
  0
LINE
  5
134
100
AcDbEntity
  8
0
  6
CONTINUOUS
 62
             7
100
AcDbLine
 10
1756.52217978204
 20
4254.861369109859
 11
1759.02217978204
 21
4254.861369109859
  0
LINE
  5
133
100
AcDbEntity
  8
0
  6
CONTINUOUS
 62
             7
100
AcDbLine
 10
1755.2221767303399
 20
4257.7613782651597
 11
1755.2221767303399
 21
4256.7613782651597
  0
LINE
  5
132
100
AcDbEntity
  8
0
  6
CONTINUOUS
 62
             7
100
AcDbLine
 10
1755.52217978204
 20
4260.7613782651597
 11
1755.52217978204
 21
4256.7613782651597
  0
LINE
  5
131
100
AcDbEntity
  8
0
  6
CONTINUOUS
 62
             7
100
AcDbLine
 10
1755.02217978204
 20
4261.7613630063597
 11
1757.8221675750401
 21
4261.7613630063597
  0
LINE
  5
130
100
AcDbEntity
  8
0
  6
CONTINUOUS
 62
             7
100
AcDbLine
 10
1755.02217978204
 20
4262.4613752134601
 11
1757.8221675750401
 21
4262.4613752134601
  0
LINE
  5
12F
100
AcDbEntity
  8
0
  6
CONTINUOUS
 62
             7
100
AcDbLine
 10
1755.2221767303399
 20
4260.7613782651597
 11
1755.2221767303399
 21
4259.7613782651597
  0
LINE
  5
12E
100
AcDbEntity
  8
0
  6
CONTINUOUS
 62
             7
100
AcDbLine
 10
1755.2221767303399
 20
4259.7613782651597
 11
1755.1221706267399
 21
4259.7613782651597
  0
LINE
  5
12D
100
AcDbEntity
  8
0
  6
CONTINUOUS
 62
             7
100
AcDbLine
 10
1755.2221767303399
 20
4257.7613782651597
 11
1755.1221706267399
 21
4257.7613782651597
  0
LINE
  5
12C
100
AcDbEntity
  8
0
  6
CONTINUOUS
 62
             7
100
AcDbLine
 10
1755.1221706267399
 20
4259.7613782651597
 11
1755.1221706267399
 21
4257.7613782651597
  0
LINE
  5
12B
100
AcDbEntity
  8
0
  6
CONTINUOUS
 62
             7
100
AcDbLine
 10
1810.02217978204
 20
4241.7613782651597
 11
1803.02217978204
 21
4241.7613782651597
  0
LINE
  5
12A
100
AcDbEntity
  8
0
  6
CONTINUOUS
 62
             7
100
AcDbLine
 10
1810.02217978204
 20
4240.7613782651597
 11
1803.02217978204
 21
4240.7613782651597
  0
LINE
  5
129
100
AcDbEntity
  8
0
  6
CONTINUOUS
 62
             7
100
AcDbLine
 10
1803.02217978204
 20
4250.2618665464588
 11
1810.02217978204
 21
4250.2618665464588
  0
LINE
  5
128
100
AcDbEntity
  8
0
  6
CONTINUOUS
 62
             7
100
AcDbLine
 10
1803.02217978204
 20
4255.2608747251588
 11
1810.02217978204
 21
4255.2608747251588
  0
LINE
  5
127
100
AcDbEntity
  8
0
  6
CONTINUOUS
 62
             7
100
AcDbLine
 10
1805.02217978204
 20
4230.5613813169593
 11
1813.52217978204
 21
4230.5613813169593
  0
LINE
  5
126
100
AcDbEntity
  8
0
  6
CONTINUOUS
 62
             7
100
AcDbLine
 10
1819.02217978204
 20
4260.7613782651597
 11
1824.02217978204
 21
4260.7613782651597
  0
LINE
  5
125
100
AcDbEntity
  8
0
  6
CONTINUOUS
 62
             7
100
AcDbLine
 10
1819.02217978204
 20
4259.7613782651597
 11
1824.02217978204
 21
4259.7613782651597
  0
LINE
  5
124
100
AcDbEntity
  8
0
  6
CONTINUOUS
 62
             7
100
AcDbLine
 10
1819.02217978204
 20
4257.7613782651597
 11
1824.02217978204
 21
4257.7613782651597
  0
LINE
  5
123
100
AcDbEntity
  8
0
  6
CONTINUOUS
 62
             7
100
AcDbLine
 10
1819.02217978204
 20
4260.7613782651597
 11
1824.02217978204
 21
4260.7613782651597
  0
LINE
  5
122
100
AcDbEntity
  8
0
  6
CONTINUOUS
 62
             7
100
AcDbLine
 10
1824.02217978204
 20
4247.7613782651597
 11
1819.02217978204
 21
4247.7613782651597
  0
LINE
  5
121
100
AcDbEntity
  8
0
  6
CONTINUOUS
 62
             7
100
AcDbLine
 10
1819.02217978204
 20
4244.7613782651597
 11
1824.02217978204
 21
4244.7613782651597
  0
LINE
  5
120
100
AcDbEntity
  8
0
  6
CONTINUOUS
 62
             7
100
AcDbLine
 10
1824.02217978204
 20
4245.7613782651597
 11
1819.02217978204
 21
4245.7613782651597
  0
LINE
  5
11F
100
AcDbEntity
  8
0
  6
CONTINUOUS
 62
             7
100
AcDbLine
 10
1819.02217978204
 20
4244.7613782651597
 11
1824.02217978204
 21
4244.7613782651597
  0
LINE
  5
11E
100
AcDbEntity
  8
0
  6
CONTINUOUS
 62
             7
100
AcDbLine
 10
1815.52217978204
 20
4221.7613782651597
 11
1828.02217978204
 21
4221.7613782651597
  0
LINE
  5
11D
100
AcDbEntity
  8
0
  6
CONTINUOUS
 62
             7
100
AcDbLine
 10
1811.52216452324
 20
4221.7613782651597
 11
1813.52217978204
 21
4221.7613782651597
  0
LINE
  5
11C
100
AcDbEntity
  8
0
  6
CONTINUOUS
 62
             7
100
AcDbLine
 10
1809.52217978204
 20
4223.7613782651597
 11
1809.52217978204
 21
4230.5613813169593
  0
LINE
  5
11B
100
AcDbEntity
  8
0
  6
CONTINUOUS
 62
             7
100
AcDbLine
 10
1809.52216828514
 20
4223.7612841489599
 11
1811.52215607844
 21
4221.7612892749594
  0
LINE
  5
11A
100
AcDbEntity
  8
0
  6
CONTINUOUS
 62
             7
100
AcDbLine
 10
1813.52217978204
 20
4221.7613782651597
 11
1813.52217978204
 21
4230.5613813169593
  0
LINE
  5
119
100
AcDbEntity
  8
0
  6
CONTINUOUS
 62
             7
100
AcDbLine
 10
1810.02217978204
 20
4250.6613721616586
 11
1819.02217978204
 21
4250.6613721616586
  0
LINE
  5
118
100
AcDbEntity
  8
0
  6
CONTINUOUS
 62
             7
100
AcDbLine
 10
1810.02217978204
 20
4254.861369109859
 11
1819.02217978204
 21
4254.861369109859
  0
LINE
  5
117
100
AcDbEntity
  8
0
  6
CONTINUOUS
 62
             7
100
AcDbLine
 10
1828.02217978204
 20
4218.7613782651597
 11
1828.02217978204
 21
4235.1113843686589
  0
LINE
  5
116
100
AcDbEntity
  8
0
  6
CONTINUOUS
 62
             7
100
AcDbLine
 10
1824.02217978204
 20
4221.2613782651597
 11
1828.02217978204
 21
4221.2613782651597
  0
LINE
  5
115
100
AcDbEntity
  8
0
  6
CONTINUOUS
 62
             7
100
AcDbLine
 10
1824.02217978204
 20
4218.7613782651597
 11
1828.02217978204
 21
4218.7613782651597
  0
LINE
  5
114
100
AcDbEntity
  8
0
  6
CONTINUOUS
 62
             7
100
AcDbLine
 10
1824.02217978204
 20
4218.7613782651597
 11
1824.02217978204
 21
4221.7613782651597
  0
LINE
  5
113
100
AcDbEntity
  8
0
  6
CONTINUOUS
 62
             7
100
AcDbLine
 10
1826.02217978204
 20
4218.7613782651597
 11
1826.02217978204
 21
4221.2613782651597
  0
LINE
  5
112
100
AcDbEntity
  8
0
  6
CONTINUOUS
 62
             7
100
AcDbLine
 10
1824.02217978204
 20
4235.3113813169593
 11
1825.42218893734
 21
4235.3113813169593
  0
LINE
  5
111
100
AcDbEntity
  8
0
  6
CONTINUOUS
 62
             7
100
AcDbLine
 10
1824.02217978204
 20
4235.1113843686589
 11
1828.02217978204
 21
4235.1113843686589
  0
LINE
  5
110
100
AcDbEntity
  8
0
  6
CONTINUOUS
 62
             7
100
AcDbLine
 10
1827.7941716298401
 20
4235.1111816859584
 11
1826.1221694195399
 21
4237.311184724359
  0
LINE
  5
10F
100
AcDbEntity
  8
0
  6
CONTINUOUS
 62
             7
100
AcDbLine
 10
1825.42228115184
 20
4235.3112584071596
 11
1825.1567302962401
 21
4237.081598759959
  0
LINE
  5
10E
100
AcDbEntity
  8
0
  6
CONTINUOUS
 62
             7
100
AcDbLine
 10
1825.3544246551401
 20
4237.3113813169593
 11
1826.1221858855399
 21
4237.3113813169593
  0
LINE
  5
10D
100
AcDbEntity
  8
0
  6
CONTINUOUS
 62
             7
100
AcDbLine
 10
1737.42217367854
 20
4283.2613782651597
 11
1743.42217367854
 21
4283.2613782651597
  0
LINE
  5
10C
100
AcDbEntity
  8
0
  6
CONTINUOUS
 62
             7
100
AcDbLine
 10
1737.42217367854
 20
4282.2613782651597
 11
1743.42217367854
 21
4282.2613782651597
  0
LINE
  5
10B
100
AcDbEntity
  8
0
  6
CONTINUOUS
 62
             7
100
AcDbLine
 10
1737.6221706267399
 20
4281.611369109859
 11
1743.2221614715399
 21
4281.611369109859
  0
LINE
  5
10A
100
AcDbEntity
  8
0
  6
CONTINUOUS
 62
             7
100
AcDbLine
 10
1739.0079590212399
 20
4277.197116957158
 11
1741.8363860976399
 21
4280.0255440335604
  0
LINE
  5
109
100
AcDbEntity
  8
0
  6
CONTINUOUS
 62
             7
100
AcDbLine
 10
1739.0079590212399
 20
4268.4971228267596
 11
1741.83637530804
 21
4271.3255391135599
  0
LINE
  5
108
100
AcDbEntity
  8
0
  6
CONTINUOUS
 62
             7
100
AcDbLine
 10
1737.42217367854
 20
4274.4613752134601
 11
1743.42217367854
 21
4274.4613752134601
  0
LINE
  5
107
100
AcDbEntity
  8
0
  6
CONTINUOUS
 62
             7
100
AcDbLine
 10
1737.42217367854
 20
4273.5613660581594
 11
1743.42217367854
 21
4273.5613660581594
  0
LINE
  5
106
100
AcDbEntity
  8
0
  6
CONTINUOUS
 62
             7
100
AcDbLine
 10
1737.42217367854
 20
4266.2613630063597
 11
1743.42217367854
 21
4266.2613630063597
  0
LINE
  5
105
100
AcDbEntity
  8
0
  6
CONTINUOUS
 62
             7
100
AcDbLine
 10
1737.6221706267399
 20
4272.9113569028586
 11
1743.2221614715399
 21
4272.9113569028586
  0
LINE
  5
104
100
AcDbEntity
  8
0
  6
CONTINUOUS
 62
             7
100
AcDbLine
 10
1737.6221706267399
 20
4266.9113569028586
 11
1743.2221614715399
 21
4266.9113569028586
  0
LINE
  5
103
100
AcDbEntity
  8
0
  6
CONTINUOUS
 62
             7
100
AcDbLine
 10
1737.6221706267399
 20
4275.611369109859
 11
1743.2221614715399
 21
4275.611369109859
  0
LINE
  5
102
100
AcDbEntity
  8
0
  6
CONTINUOUS
 62
             7
100
AcDbLine
 10
1729.02217978204
 20
4274.9613752134601
 11
1759.02217978204
 21
4274.9613752134601
  0
LINE
  5
101
100
AcDbEntity
  8
0
  6
CONTINUOUS
 62
             7
100
AcDbLine
 10
1729.02217978204
 20
4283.7613782651597
 11
1759.02217978204
 21
4283.7613782651597
  0
LINE
  5
100
100
AcDbEntity
  8
0
  6
CONTINUOUS
 62
             7
100
AcDbLine
 10
1731.8079664832401
 20
4277.1971277467592
 11
1734.63639355954
 21
4280.0255548230589
  0
LINE
  5
FF
100
AcDbEntity
  8
0
  6
CONTINUOUS
 62
             7
100
AcDbLine
 10
1733.8657399020401
 20
4263.8387744171587
 11
1729.0221885062399
 21
4264.7613555794587
  0
LINE
  5
FE
100
AcDbEntity
  8
0
  6
CONTINUOUS
 62
             7
100
AcDbLine
 10
1731.8079664832401
 20
4268.4971120371602
 11
1734.63639355954
 21
4271.3255391135599
  0
LINE
  5
FD
100
AcDbEntity
  8
0
  6
CONTINUOUS
 62
             7
100
AcDbLine
 10
1730.2221767303399
 20
4274.4613752134601
 11
1736.2221767303399
 21
4274.4613752134601
  0
LINE
  5
FC
100
AcDbEntity
  8
0
  6
CONTINUOUS
 62
             7
100
AcDbLine
 10
1730.2221767303399
 20
4283.2613782651597
 11
1736.2221767303399
 21
4283.2613782651597
  0
LINE
  5
FB
100
AcDbEntity
  8
0
  6
CONTINUOUS
 62
             7
100
AcDbLine
 10
1730.2221767303399
 20
4266.2613630063597
 11
1736.2221767303399
 21
4266.2613630063597
  0
LINE
  5
FA
100
AcDbEntity
  8
0
  6
CONTINUOUS
 62
             7
100
AcDbLine
 10
1730.2221767303399
 20
4273.5613660581594
 11
1736.2221767303399
 21
4273.5613660581594
  0
LINE
  5
F9
100
AcDbEntity
  8
0
  6
CONTINUOUS
 62
             7
100
AcDbLine
 10
1730.2221767303399
 20
4282.2613782651597
 11
1736.2221767303399
 21
4282.2613782651597
  0
LINE
  5
F8
100
AcDbEntity
  8
0
  6
CONTINUOUS
 62
             7
100
AcDbLine
 10
1735.8221885760399
 20
4264.4840964936584
 11
1730.22218733354
 21
4265.5507633322586
  0
LINE
  5
F7
100
AcDbEntity
  8
0
  6
CONTINUOUS
 62
             7
100
AcDbLine
 10
1730.42217367854
 20
4272.9113569028586
 11
1736.02217978204
 21
4272.9113569028586
  0
LINE
  5
F6
100
AcDbEntity
  8
0
  6
CONTINUOUS
 62
             7
100
AcDbLine
 10
1730.42217367854
 20
4266.9113569028586
 11
1736.02217978204
 21
4266.9113569028586
  0
LINE
  5
F5
100
AcDbEntity
  8
0
  6
CONTINUOUS
 62
             7
100
AcDbLine
 10
1730.42217367854
 20
4281.611369109859
 11
1736.02217978204
 21
4281.611369109859
  0
LINE
  5
F4
100
AcDbEntity
  8
0
  6
CONTINUOUS
 62
             7
100
AcDbLine
 10
1730.42217367854
 20
4275.611369109859
 11
1736.02217978204
 21
4275.611369109859
  0
LINE
  5
F3
100
AcDbEntity
  8
0
  6
CONTINUOUS
 62
             7
100
AcDbLine
 10
1730.2221767303399
 20
4283.7613782651597
 11
1730.2221767303399
 21
4265.5507764585591
  0
LINE
  5
F2
100
AcDbEntity
  8
0
  6
CONTINUOUS
 62
             7
100
AcDbLine
 10
1730.2221767303399
 20
4272.7113446958601
 11
1730.2221767303399
 21
4267.111353851059
  0
LINE
  5
F1
100
AcDbEntity
  8
0
  6
CONTINUOUS
 62
             7
100
AcDbLine
 10
1731.3471861231401
 20
4267.2863254860604
 11
1730.5971799321401
 21
4268.036331677059
  0
LINE
  5
F0
100
AcDbEntity
  8
0
  6
CONTINUOUS
 62
             7
100
AcDbLine
 10
1730.6604396697401
 20
4268.9113416440587
 11
1730.2221767303399
 21
4268.9113416440587
  0
LINE
  5
EF
100
AcDbEntity
  8
0
  6
CONTINUOUS
 62
             7
100
AcDbLine
 10
1730.5971799321401
 20
4271.7863194736592
 11
1731.3471861231401
 21
4272.5363256646588
  0
LINE
  5
EE
100
AcDbEntity
  8
0
  6
CONTINUOUS
 62
             7
100
AcDbLine
 10
1730.2221767303399
 20
4270.9113416440587
 11
1730.6604396697401
 21
4270.9113416440587
  0
LINE
  5
ED
100
AcDbEntity
  8
0
  6
CONTINUOUS
 62
             7
100
AcDbLine
 10
1730.2221767303399
 20
4281.4113569028586
 11
1730.2221767303399
 21
4275.8113660581594
  0
LINE
  5
EC
100
AcDbEntity
  8
0
  6
CONTINUOUS
 62
             7
100
AcDbLine
 10
1730.5971799321401
 20
4280.4863351832601
 11
1731.3471861231401
 21
4281.2363413742596
  0
LINE
  5
EB
100
AcDbEntity
  8
0
  6
CONTINUOUS
 62
             7
100
AcDbLine
 10
1731.3471861231401
 20
4275.9863411956603
 11
1730.5971799321401
 21
4276.7363473866599
  0
LINE
  5
EA
100
AcDbEntity
  8
0
  6
CONTINUOUS
 62
             7
100
AcDbLine
 10
1730.6604396697401
 20
4277.611353851059
 11
1730.2221767303399
 21
4277.611353851059
  0
LINE
  5
E9
100
AcDbEntity
  8
0
  6
CONTINUOUS
 62
             7
100
AcDbLine
 10
1730.2221767303399
 20
4279.611353851059
 11
1730.6604396697401
 21
4279.611353851059
  0
LINE
  5
E8
100
AcDbEntity
  8
0
  6
CONTINUOUS
 62
             7
100
AcDbLine
 10
1729.02217978204
 20
4281.7613782651597
 11
1730.2221767303399
 21
4281.7613782651597
  0
LINE
  5
E7
100
AcDbEntity
  8
0
  6
CONTINUOUS
 62
             7
100
AcDbLine
 10
1736.2221767303399
 20
4283.7613782651597
 11
1736.2221767303399
 21
4266.2613630063597
  0
LINE
  5
E6
100
AcDbEntity
  8
0
  6
CONTINUOUS
 62
             7
100
AcDbLine
 10
1737.42217367854
 20
4283.7613782651597
 11
1737.42217367854
 21
4266.2613630063597
  0
LINE
  5
E5
100
AcDbEntity
  8
0
  6
CONTINUOUS
 62
             7
100
AcDbLine
 10
1735.8471801106391
 20
4268.036331677059
 11
1735.09717391974
 21
4267.2863254860604
  0
LINE
  5
E4
100
AcDbEntity
  8
0
  6
CONTINUOUS
 62
             7
100
AcDbLine
 10
1735.09717391974
 20
4272.5363256646588
 11
1735.8471801106391
 21
4271.7863194736592
  0
LINE
  5
E3
100
AcDbEntity
  8
0
  6
CONTINUOUS
 62
             7
100
AcDbLine
 10
1732.2221767303399
 20
4267.3496045835591
 11
1732.2221767303399
 21
4266.9113416440587
  0
LINE
  5
E2
100
AcDbEntity
  8
0
  6
CONTINUOUS
 62
             7
100
AcDbLine
 10
1734.2222377654391
 20
4267.349650359859
 11
1734.2222377654391
 21
4266.9113874204586
  0
LINE
  5
E1
100
AcDbEntity
  8
0
  6
CONTINUOUS
 62
             7
100
AcDbLine
 10
1732.5150732523391
 20
4270.6184323444604
 11
1733.9292867905399
 21
4269.2042188062578
  0
LINE
  5
E0
100
AcDbEntity
  8
0
  6
CONTINUOUS
 62
             7
100
AcDbLine
 10
1732.2221767303399
 20
4272.9113416440587
 11
1732.2221767303399
 21
4272.4730787046601
  0
LINE
  5
DF
100
AcDbEntity
  8
0
  6
CONTINUOUS
 62
             7
100
AcDbLine
 10
1734.22213095394
 20
4272.9112653501588
 11
1734.22213095394
 21
4272.4730024106602
  0
LINE
  5
DE
100
AcDbEntity
  8
0
  6
CONTINUOUS
 62
             7
100
AcDbLine
 10
1737.42217367854
 20
4272.7113446958601
 11
1737.42217367854
 21
4267.111353851059
  0
LINE
  5
DD
100
AcDbEntity
  8
0
  6
CONTINUOUS
 62
             7
100
AcDbLine
 10
1736.2221767303399
 20
4272.7113446958601
 11
1736.2221767303399
 21
4267.111353851059
  0
LINE
  5
DC
100
AcDbEntity
  8
0
  6
CONTINUOUS
 62
             7
100
AcDbLine
 10
1737.8604213592389
 20
4268.9113416440587
 11
1737.4221584197401
 21
4268.9113416440587
  0
LINE
  5
DB
100
AcDbEntity
  8
0
  6
CONTINUOUS
 62
             7
100
AcDbLine
 10
1737.2221767303399
 20
4265.2613630063597
 11
1739.02217978204
 21
4265.2613630063597
  0
LINE
  5
DA
100
AcDbEntity
  8
0
  6
CONTINUOUS
 62
             7
100
AcDbLine
 10
1736.2221721553401
 20
4266.2613592266598
 11
1737.2221733011399
 21
4265.2613581650594
  0
LINE
  5
D9
100
AcDbEntity
  8
0
  6
CONTINUOUS
 62
             7
100
AcDbLine
 10
1735.78386801444
 20
4268.9112653501588
 11
1736.22213095394
 21
4268.9112653501588
  0
LINE
  5
D8
100
AcDbEntity
  8
0
  6
CONTINUOUS
 62
             7
100
AcDbLine
 10
1739.4221584197401
 20
4267.3496045835591
 11
1739.4221584197401
 21
4266.9113416440587
  0
LINE
  5
D7
100
AcDbEntity
  8
0
  6
CONTINUOUS
 62
             7
100
AcDbLine
 10
1738.5471678715401
 20
4267.2863254860604
 11
1737.7971616805389
 21
4268.036331677059
  0
LINE
  5
D6
100
AcDbEntity
  8
0
  6
CONTINUOUS
 62
             7
100
AcDbLine
 10
1737.4221584197401
 20
4270.9113416440587
 11
1737.8604213592389
 21
4270.9113416440587
  0
LINE
  5
D5
100
AcDbEntity
  8
0
  6
CONTINUOUS
 62
             7
100
AcDbLine
 10
1736.2222377654391
 20
4270.9113721616586
 11
1735.7839748260401
 21
4270.9113721616586
  0
LINE
  5
D4
100
AcDbEntity
  8
0
  6
CONTINUOUS
 62
             7
100
AcDbLine
 10
1739.4221584197401
 20
4272.9113416440587
 11
1739.4221584197401
 21
4272.4730787046601
  0
LINE
  5
D3
100
AcDbEntity
  8
0
  6
CONTINUOUS
 62
             7
100
AcDbLine
 10
1737.7971724701399
 20
4271.7863302632604
 11
1738.5471678715401
 21
4272.5363256646588
  0
LINE
  5
D2
100
AcDbEntity
  8
0
  6
CONTINUOUS
 62
             7
100
AcDbLine
 10
1732.7221767303399
 20
4282.7613782651597
 11
1736.2221767303399
 21
4282.7613782651597
  0
LINE
  5
D1
100
AcDbEntity
  8
0
  6
CONTINUOUS
 62
             7
100
AcDbLine
 10
1735.8471801106391
 20
4276.7363473866599
 11
1735.09717391974
 21
4275.9863411956603
  0
LINE
  5
D0
100
AcDbEntity
  8
0
  6
CONTINUOUS
 62
             7
100
AcDbLine
 10
1735.09717391974
 20
4281.2363413742596
 11
1735.8471801106391
 21
4280.4863351832601
  0
LINE
  5
CF
100
AcDbEntity
  8
0
  6
CONTINUOUS
 62
             7
100
AcDbLine
 10
1732.5150732523391
 20
4279.3184480540594
 11
1733.9292867905399
 21
4277.9042345158587
  0
LINE
  5
CE
100
AcDbEntity
  8
0
  6
CONTINUOUS
 62
             7
100
AcDbLine
 10
1732.2221767303399
 20
4276.0496167905594
 11
1732.2221767303399
 21
4275.611353851059
  0
LINE
  5
CD
100
AcDbEntity
  8
0
  6
CONTINUOUS
 62
             7
100
AcDbLine
 10
1734.2222377654391
 20
4276.0496473081594
 11
1734.2222377654391
 21
4275.6113843686589
  0
LINE
  5
CC
100
AcDbEntity
  8
0
  6
CONTINUOUS
 62
             7
100
AcDbLine
 10
1732.7221767303399
 20
4282.7613782651597
 11
1732.7221767303399
 21
4282.2613782651597
  0
LINE
  5
CB
100
AcDbEntity
  8
0
  6
CONTINUOUS
 62
             7
100
AcDbLine
 10
1732.2221767303399
 20
4281.611353851059
 11
1732.2221767303399
 21
4281.1730909116586
  0
LINE
  5
CA
100
AcDbEntity
  8
0
  6
CONTINUOUS
 62
             7
100
AcDbLine
 10
1734.22213095394
 20
4281.6112775571592
 11
1734.22213095394
 21
4281.1730146176587
  0
LINE
  5
C9
100
AcDbEntity
  8
0
  6
CONTINUOUS
 62
             7
100
AcDbLine
 10
1737.42217367854
 20
4281.4113569028586
 11
1737.42217367854
 21
4275.8113660581594
  0
LINE
  5
C8
100
AcDbEntity
  8
0
  6
CONTINUOUS
 62
             7
100
AcDbLine
 10
1737.7971724701399
 20
4280.4863459728604
 11
1738.5471678715401
 21
4281.2363413742596
  0
LINE
  5
C7
100
AcDbEntity
  8
0
  6
CONTINUOUS
 62
             7
100
AcDbLine
 10
1736.2221767303399
 20
4281.4113569028586
 11
1736.2221767303399
 21
4275.8113660581594
  0
LINE
  5
C6
100
AcDbEntity
  8
0
  6
CONTINUOUS
 62
             7
100
AcDbLine
 10
1737.8604213592389
 20
4277.611353851059
 11
1737.4221584197401
 21
4277.611353851059
  0
LINE
  5
C5
100
AcDbEntity
  8
0
  6
CONTINUOUS
 62
             7
100
AcDbLine
 10
1737.4221584197401
 20
4279.611353851059
 11
1737.8604213592389
 21
4279.611353851059
  0
LINE
  5
C4
100
AcDbEntity
  8
0
  6
CONTINUOUS
 62
             7
100
AcDbLine
 10
1735.78386801444
 20
4277.6112775571592
 11
1736.22213095394
 21
4277.6112775571592
  0
LINE
  5
C3
100
AcDbEntity
  8
0
  6
CONTINUOUS
 62
             7
100
AcDbLine
 10
1736.2222377654391
 20
4279.6113843686589
 11
1735.7839748260401
 21
4279.6113843686589
  0
LINE
  5
C2
100
AcDbEntity
  8
0
  6
CONTINUOUS
 62
             7
100
AcDbLine
 10
1739.4221584197401
 20
4276.0496167905594
 11
1739.4221584197401
 21
4275.611353851059
  0
LINE
  5
C1
100
AcDbEntity
  8
0
  6
CONTINUOUS
 62
             7
100
AcDbLine
 10
1738.5471678715401
 20
4275.9863411956603
 11
1737.7971724701399
 21
4276.7363365970587
  0
LINE
  5
C0
100
AcDbEntity
  8
0
  6
CONTINUOUS
 62
             7
100
AcDbLine
 10
1739.4221584197401
 20
4281.611353851059
 11
1739.4221584197401
 21
4281.1730909116586
  0
LINE
  5
BF
100
AcDbEntity
  8
0
  6
CONTINUOUS
 62
             7
100
AcDbLine
 10
1754.3221675750401
 20
4282.7613782651597
 11
1757.8221675750401
 21
4282.7613782651597
  0
LINE
  5
BE
100
AcDbEntity
  8
0
  6
CONTINUOUS
 62
             7
100
AcDbLine
 10
1751.8221675750401
 20
4283.2613782651597
 11
1757.8221675750401
 21
4283.2613782651597
  0
LINE
  5
BD
100
AcDbEntity
  8
0
  6
CONTINUOUS
 62
             7
100
AcDbLine
 10
1751.8221675750401
 20
4282.2613782651597
 11
1757.8221675750401
 21
4282.2613782651597
  0
LINE
  5
BC
100
AcDbEntity
  8
0
  6
CONTINUOUS
 62
             7
100
AcDbLine
 10
1752.02217978204
 20
4281.611369109859
 11
1757.6221706267399
 21
4281.611369109859
  0
LINE
  5
BB
100
AcDbEntity
  8
0
  6
CONTINUOUS
 62
             7
100
AcDbLine
 10
1751.8221675750401
 20
4274.4613752134601
 11
1757.8221675750401
 21
4274.4613752134601
  0
LINE
  5
BA
100
AcDbEntity
  8
0
  6
CONTINUOUS
 62
             7
100
AcDbLine
 10
1751.8221675750401
 20
4273.5613660581594
 11
1757.8221675750401
 21
4273.5613660581594
  0
LINE
  5
B9
100
AcDbEntity
  8
0
  6
CONTINUOUS
 62
             7
100
AcDbLine
 10
1754.1150616559389
 20
4270.6184323444604
 11
1755.5292751941399
 21
4269.2042188062578
  0
LINE
  5
B8
100
AcDbEntity
  8
0
  6
CONTINUOUS
 62
             7
100
AcDbLine
 10
1752.02217978204
 20
4272.9113569028586
 11
1757.6221706267399
 21
4272.9113569028586
  0
LINE
  5
B7
100
AcDbEntity
  8
0
  6
CONTINUOUS
 62
             7
100
AcDbLine
 10
1754.1150522150399
 20
4279.3184386131588
 11
1755.52926575324
 21
4277.904225074958
  0
LINE
  5
B6
100
AcDbEntity
  8
0
  6
CONTINUOUS
 62
             7
100
AcDbLine
 10
1753.40794544594
 20
4277.1971183058586
 11
1756.2363725223399
 21
4280.0255453822601
  0
LINE
  5
B5
100
AcDbEntity
  8
0
  6
CONTINUOUS
 62
             7
100
AcDbLine
 10
1752.02217978204
 20
4275.611369109859
 11
1757.6221706267399
 21
4275.611369109859
  0
LINE
  5
B4
100
AcDbEntity
  8
0
  6
CONTINUOUS
 62
             7
100
AcDbLine
 10
1751.8221675750401
 20
4266.2613630063597
 11
1757.8221675750401
 21
4266.2613630063597
  0
LINE
  5
B3
100
AcDbEntity
  8
0
  6
CONTINUOUS
 62
             7
100
AcDbLine
 10
1757.82217397404
 20
4265.5507616485584
 11
1752.2221727316401
 21
4264.4840948099582
  0
LINE
  5
B2
100
AcDbEntity
  8
0
  6
CONTINUOUS
 62
             7
100
AcDbLine
 10
1752.02217978204
 20
4266.9113569028586
 11
1757.6221706267399
 21
4266.9113569028586
  0
LINE
  5
B1
100
AcDbEntity
  8
0
  6
CONTINUOUS
 62
             7
100
AcDbLine
 10
1753.4079548868399
 20
4268.4971120371602
 11
1756.2363725223399
 21
4271.3255296726593
  0
LINE
  5
B0
100
AcDbEntity
  8
0
  6
CONTINUOUS
 62
             7
100
AcDbLine
 10
1759.0221578120399
 20
4264.7613510406582
 11
1754.1786214055401
 21
4263.8387727334584
  0
LINE
  5
AF
100
AcDbEntity
  8
0
  6
CONTINUOUS
 62
             7
100
AcDbLine
 10
1744.6221706267399
 20
4283.2613782651597
 11
1750.6221706267399
 21
4283.2613782651597
  0
LINE
  5
AE
100
AcDbEntity
  8
0
  6
CONTINUOUS
 62
             7
100
AcDbLine
 10
1744.6221706267399
 20
4282.2613782651597
 11
1750.6221706267399
 21
4282.2613782651597
  0
LINE
  5
AD
100
AcDbEntity
  8
0
  6
CONTINUOUS
 62
             7
100
AcDbLine
 10
1744.8221675750401
 20
4281.611369109859
 11
1750.4221584197401
 21
4281.611369109859
  0
LINE
  5
AC
100
AcDbEntity
  8
0
  6
CONTINUOUS
 62
             7
100
AcDbLine
 10
1744.6221706267399
 20
4274.4613752134601
 11
1750.6221706267399
 21
4274.4613752134601
  0
LINE
  5
AB
100
AcDbEntity
  8
0
  6
CONTINUOUS
 62
             7
100
AcDbLine
 10
1744.6221706267399
 20
4273.5613660581594
 11
1750.6221706267399
 21
4273.5613660581594
  0
LINE
  5
AA
100
AcDbEntity
  8
0
  6
CONTINUOUS
 62
             7
100
AcDbLine
 10
1746.9150583283399
 20
4270.6184323444604
 11
1748.3292718665391
 21
4269.2042188062578
  0
LINE
  5
A9
100
AcDbEntity
  8
0
  6
CONTINUOUS
 62
             7
100
AcDbLine
 10
1744.8221675750401
 20
4272.9113569028586
 11
1750.4221584197401
 21
4272.9113569028586
  0
LINE
  5
A8
100
AcDbEntity
  8
0
  6
CONTINUOUS
 62
             7
100
AcDbLine
 10
1746.9150583283399
 20
4279.3184480540594
 11
1748.3292718665391
 21
4277.9042345158587
  0
LINE
  5
A7
100
AcDbEntity
  8
0
  6
CONTINUOUS
 62
             7
100
AcDbLine
 10
1746.20795155924
 20
4277.1971277467592
 11
1749.03636919474
 21
4280.0255453822601
  0
LINE
  5
A6
100
AcDbEntity
  8
0
  6
CONTINUOUS
 62
             7
100
AcDbLine
 10
1744.8221675750401
 20
4275.611369109859
 11
1750.4221584197401
 21
4275.611369109859
  0
LINE
  5
A5
100
AcDbEntity
  8
0
  6
CONTINUOUS
 62
             7
100
AcDbLine
 10
1744.6221706267399
 20
4266.2613630063597
 11
1750.6221706267399
 21
4266.2613630063597
  0
LINE
  5
A4
100
AcDbEntity
  8
0
  6
CONTINUOUS
 62
             7
100
AcDbLine
 10
1744.8221675750401
 20
4266.9113569028586
 11
1750.4221584197401
 21
4266.9113569028586
  0
LINE
  5
A3
100
AcDbEntity
  8
0
  6
CONTINUOUS
 62
             7
100
AcDbLine
 10
1746.20795155924
 20
4268.4971120371602
 11
1749.0363786356399
 21
4271.3255391135599
  0
LINE
  5
A2
100
AcDbEntity
  8
0
  6
CONTINUOUS
 62
             7
100
AcDbLine
 10
1742.98386496274
 20
4268.9112806089588
 11
1743.4221279021399
 21
4268.9112806089588
  0
LINE
  5
A1
100
AcDbEntity
  8
0
  6
CONTINUOUS
 62
             7
100
AcDbLine
 10
1743.42223471374
 20
4270.9113721616586
 11
1742.9839717742391
 21
4270.9113721616586
  0
LINE
  5
A0
100
AcDbEntity
  8
0
  6
CONTINUOUS
 62
             7
100
AcDbLine
 10
1741.42223471374
 20
4267.349650359859
 11
1741.42223471374
 21
4266.9113874204586
  0
LINE
  5
9F
100
AcDbEntity
  8
0
  6
CONTINUOUS
 62
             7
100
AcDbLine
 10
1743.04716185914
 20
4268.036331677059
 11
1742.297166457739
 21
4267.2863362756589
  0
LINE
  5
9E
100
AcDbEntity
  8
0
  6
CONTINUOUS
 62
             7
100
AcDbLine
 10
1741.4221279021399
 20
4272.9112806089588
 11
1741.4221279021399
 21
4272.4730176694602
  0
LINE
  5
9D
100
AcDbEntity
  8
0
  6
CONTINUOUS
 62
             7
100
AcDbLine
 10
1739.7150657903401
 20
4270.618443134058
 11
1741.12927932854
 21
4269.204229595859
  0
LINE
  5
9C
100
AcDbEntity
  8
0
  6
CONTINUOUS
 62
             7
100
AcDbLine
 10
1742.297166457739
 20
4272.53633645426
 11
1743.0471726487399
 21
4271.7863302632604
  0
LINE
  5
9B
100
AcDbEntity
  8
0
  6
CONTINUOUS
 62
             7
100
AcDbLine
 10
1743.42217367854
 20
4272.7113446958601
 11
1743.42217367854
 21
4267.111353851059
  0
LINE
  5
9A
100
AcDbEntity
  8
0
  6
CONTINUOUS
 62
             7
100
AcDbLine
 10
1744.6221706267399
 20
4272.7113446958601
 11
1744.6221706267399
 21
4267.111353851059
  0
LINE
  5
99
100
AcDbEntity
  8
0
  6
CONTINUOUS
 62
             7
100
AcDbLine
 10
1745.747160409539
 20
4267.2863362756589
 11
1744.99716500814
 21
4268.036331677059
  0
LINE
  5
98
100
AcDbEntity
  8
0
  6
CONTINUOUS
 62
             7
100
AcDbLine
 10
1745.0604183074399
 20
4268.9113416440587
 11
1744.6221553680391
 21
4268.9113416440587
  0
LINE
  5
97
100
AcDbEntity
  8
0
  6
CONTINUOUS
 62
             7
100
AcDbLine
 10
1746.6221553680391
 20
4267.3496045835591
 11
1746.6221553680391
 21
4266.9113416440587
  0
LINE
  5
96
100
AcDbEntity
  8
0
  6
CONTINUOUS
 62
             7
100
AcDbLine
 10
1744.99716500814
 20
4271.786341052858
 11
1745.747160409539
 21
4272.53633645426
  0
LINE
  5
95
100
AcDbEntity
  8
0
  6
CONTINUOUS
 62
             7
100
AcDbLine
 10
1744.6221553680391
 20
4270.9113416440587
 11
1745.0604183074399
 21
4270.9113416440587
  0
LINE
  5
94
100
AcDbEntity
  8
0
  6
CONTINUOUS
 62
             7
100
AcDbLine
 10
1746.6221553680391
 20
4272.9113416440587
 11
1746.6221553680391
 21
4272.4730787046601
  0
LINE
  5
93
100
AcDbEntity
  8
0
  6
CONTINUOUS
 62
             7
100
AcDbLine
 10
1742.98386496274
 20
4277.6112928159591
 11
1743.4221279021399
 21
4277.6112928159591
  0
LINE
  5
92
100
AcDbEntity
  8
0
  6
CONTINUOUS
 62
             7
100
AcDbLine
 10
1743.42223471374
 20
4279.6113843686589
 11
1742.9839717742391
 21
4279.6113843686589
  0
LINE
  5
91
100
AcDbEntity
  8
0
  6
CONTINUOUS
 62
             7
100
AcDbLine
 10
1742.29717724734
 20
4281.2363413742596
 11
1743.0471726487399
 21
4280.4863459728604
  0
LINE
  5
90
100
AcDbEntity
  8
0
  6
CONTINUOUS
 62
             7
100
AcDbLine
 10
1741.42223471374
 20
4276.0496473081594
 11
1741.42223471374
 21
4275.6113843686589
  0
LINE
  5
8F
100
AcDbEntity
  8
0
  6
CONTINUOUS
 62
             7
100
AcDbLine
 10
1739.7150657903401
 20
4279.31843726446
 11
1741.12927932854
 21
4277.9042237262593
  0
LINE
  5
8E
100
AcDbEntity
  8
0
  6
CONTINUOUS
 62
             7
100
AcDbLine
 10
1743.04716185914
 20
4276.7363473866599
 11
1742.297166457739
 21
4275.9863519852579
  0
LINE
  5
8D
100
AcDbEntity
  8
0
  6
CONTINUOUS
 62
             7
100
AcDbLine
 10
1741.4221279021399
 20
4281.6112928159591
 11
1741.4221279021399
 21
4281.1730298764587
  0
LINE
  5
8C
100
AcDbEntity
  8
0
  6
CONTINUOUS
 62
             7
100
AcDbLine
 10
1744.6221706267399
 20
4281.4113569028586
 11
1744.6221706267399
 21
4275.8113660581594
  0
LINE
  5
8B
100
AcDbEntity
  8
0
  6
CONTINUOUS
 62
             7
100
AcDbLine
 10
1744.99716500814
 20
4280.4863351832601
 11
1745.74717119914
 21
4281.2363413742596
  0
LINE
  5
8A
100
AcDbEntity
  8
0
  6
CONTINUOUS
 62
             7
100
AcDbLine
 10
1743.42217367854
 20
4281.4113569028586
 11
1743.42217367854
 21
4275.8113660581594
  0
LINE
  5
89
100
AcDbEntity
  8
0
  6
CONTINUOUS
 62
             7
100
AcDbLine
 10
1745.74717119914
 20
4275.9863411956603
 11
1744.99716500814
 21
4276.7363473866599
  0
LINE
  5
88
100
AcDbEntity
  8
0
  6
CONTINUOUS
 62
             7
100
AcDbLine
 10
1745.0604183074399
 20
4277.611353851059
 11
1744.6221553680391
 21
4277.611353851059
  0
LINE
  5
87
100
AcDbEntity
  8
0
  6
CONTINUOUS
 62
             7
100
AcDbLine
 10
1744.6221553680391
 20
4279.611353851059
 11
1745.0604183074399
 21
4279.611353851059
  0
LINE
  5
86
100
AcDbEntity
  8
0
  6
CONTINUOUS
 62
             7
100
AcDbLine
 10
1746.6221553680391
 20
4276.0496167905594
 11
1746.6221553680391
 21
4275.611353851059
  0
LINE
  5
85
100
AcDbEntity
  8
0
  6
CONTINUOUS
 62
             7
100
AcDbLine
 10
1746.6221553680391
 20
4281.611353851059
 11
1746.6221553680391
 21
4281.1730909116586
  0
LINE
  5
84
100
AcDbEntity
  8
0
  6
CONTINUOUS
 62
             7
100
AcDbLine
 10
1751.8221675750401
 20
4266.2613630063597
 11
1751.8221675750401
 21
4283.7613782651597
  0
LINE
  5
83
100
AcDbEntity
  8
0
  6
CONTINUOUS
 62
             7
100
AcDbLine
 10
1750.6221706267399
 20
4283.7613782651597
 11
1750.6221706267399
 21
4266.2613630063597
  0
LINE
  5
82
100
AcDbEntity
  8
0
  6
CONTINUOUS
 62
             7
100
AcDbLine
 10
1751.82217456174
 20
4266.2613569099594
 11
1750.82217274144
 21
4265.2613551740587
  0
LINE
  5
81
100
AcDbEntity
  8
0
  6
CONTINUOUS
 62
             7
100
AcDbLine
 10
1750.6221706267399
 20
4272.7113446958601
 11
1750.6221706267399
 21
4267.111353851059
  0
LINE
  5
80
100
AcDbEntity
  8
0
  6
CONTINUOUS
 62
             7
100
AcDbLine
 10
1749.02216452324
 20
4265.2613630063597
 11
1750.8221675750401
 21
4265.2613630063597
  0
LINE
  5
7F
100
AcDbEntity
  8
0
  6
CONTINUOUS
 62
             7
100
AcDbLine
 10
1748.6222316619401
 20
4267.349650359859
 11
1748.6222316619401
 21
4266.9113874204586
  0
LINE
  5
7E
100
AcDbEntity
  8
0
  6
CONTINUOUS
 62
             7
100
AcDbLine
 10
1750.2471651867399
 20
4268.036331677059
 11
1749.4971697853391
 21
4267.2863362756589
  0
LINE
  5
7D
100
AcDbEntity
  8
0
  6
CONTINUOUS
 62
             7
100
AcDbLine
 10
1750.1838619109401
 20
4268.9112806089588
 11
1750.6221248504389
 21
4268.9112806089588
  0
LINE
  5
7C
100
AcDbEntity
  8
0
  6
CONTINUOUS
 62
             7
100
AcDbLine
 10
1748.6221248504389
 20
4272.9112806089588
 11
1748.6221248504389
 21
4272.4730176694602
  0
LINE
  5
7B
100
AcDbEntity
  8
0
  6
CONTINUOUS
 62
             7
100
AcDbLine
 10
1749.4971589957399
 20
4272.5363256646588
 11
1750.2471543971401
 21
4271.7863302632604
  0
LINE
  5
7A
100
AcDbEntity
  8
0
  6
CONTINUOUS
 62
             7
100
AcDbLine
 10
1750.6222316619401
 20
4270.9113569028586
 11
1750.1839687224401
 21
4270.9113569028586
  0
LINE
  5
79
100
AcDbEntity
  8
0
  6
CONTINUOUS
 62
             7
100
AcDbLine
 10
1751.8221675750401
 20
4272.7113446958601
 11
1751.8221675750401
 21
4267.111353851059
  0
LINE
  5
78
100
AcDbEntity
  8
0
  6
CONTINUOUS
 62
             7
100
AcDbLine
 10
1752.26043051444
 20
4268.9113416440587
 11
1751.8221675750401
 21
4268.9113416440587
  0
LINE
  5
77
100
AcDbEntity
  8
0
  6
CONTINUOUS
 62
             7
100
AcDbLine
 10
1752.9471745267399
 20
4267.2863254860604
 11
1752.1971683357399
 21
4268.036331677059
  0
LINE
  5
76
100
AcDbEntity
  8
0
  6
CONTINUOUS
 62
             7
100
AcDbLine
 10
1753.8221675750401
 20
4267.3496045835591
 11
1753.8221675750401
 21
4266.9113416440587
  0
LINE
  5
75
100
AcDbEntity
  8
0
  6
CONTINUOUS
 62
             7
100
AcDbLine
 10
1751.8221675750401
 20
4270.9113416440587
 11
1752.26043051444
 21
4270.9113416440587
  0
LINE
  5
74
100
AcDbEntity
  8
0
  6
CONTINUOUS
 62
             7
100
AcDbLine
 10
1752.1971683357399
 20
4271.7863194736592
 11
1752.9471745267399
 21
4272.5363256646588
  0
LINE
  5
73
100
AcDbEntity
  8
0
  6
CONTINUOUS
 62
             7
100
AcDbLine
 10
1753.8221675750401
 20
4272.9113416440587
 11
1753.8221675750401
 21
4272.4730787046601
  0
LINE
  5
72
100
AcDbEntity
  8
0
  6
CONTINUOUS
 62
             7
100
AcDbLine
 10
1750.6221706267399
 20
4281.4113569028586
 11
1750.6221706267399
 21
4275.8113660581594
  0
LINE
  5
71
100
AcDbEntity
  8
0
  6
CONTINUOUS
 62
             7
100
AcDbLine
 10
1749.4971495548391
 20
4281.236331933359
 11
1750.24715574584
 21
4280.4863257423594
  0
LINE
  5
70
100
AcDbEntity
  8
0
  6
CONTINUOUS
 62
             7
100
AcDbLine
 10
1748.6222316619401
 20
4276.0496473081594
 11
1748.6222316619401
 21
4275.611369109859
  0
LINE
  5
6F
100
AcDbEntity
  8
0
  6
CONTINUOUS
 62
             7
100
AcDbLine
 10
1750.2471651867399
 20
4276.7363473866599
 11
1749.4971589957399
 21
4275.9863411956603
  0
LINE
  5
6E
100
AcDbEntity
  8
0
  6
CONTINUOUS
 62
             7
100
AcDbLine
 10
1750.1838619109401
 20
4277.6112928159591
 11
1750.6221248504389
 21
4277.6112928159591
  0
LINE
  5
6D
100
AcDbEntity
  8
0
  6
CONTINUOUS
 62
             7
100
AcDbLine
 10
1750.6222316619401
 20
4279.611369109859
 11
1750.1839687224401
 21
4279.611369109859
  0
LINE
  5
6C
100
AcDbEntity
  8
0
  6
CONTINUOUS
 62
             7
100
AcDbLine
 10
1748.6221248504389
 20
4281.6112928159591
 11
1748.6221248504389
 21
4281.1730298764587
  0
LINE
  5
6B
100
AcDbEntity
  8
0
  6
CONTINUOUS
 62
             7
100
AcDbLine
 10
1751.8221675750401
 20
4281.4113569028586
 11
1751.8221675750401
 21
4275.8113660581594
  0
LINE
  5
6A
100
AcDbEntity
  8
0
  6
CONTINUOUS
 62
             7
100
AcDbLine
 10
1752.19715889484
 20
4280.4863257423594
 11
1752.94716508584
 21
4281.236331933359
  0
LINE
  5
69
100
AcDbEntity
  8
0
  6
CONTINUOUS
 62
             7
100
AcDbLine
 10
1752.26043051444
 20
4277.611353851059
 11
1751.8221675750401
 21
4277.611353851059
  0
LINE
  5
68
100
AcDbEntity
  8
0
  6
CONTINUOUS
 62
             7
100
AcDbLine
 10
1751.8221675750401
 20
4279.611353851059
 11
1752.26043051444
 21
4279.611353851059
  0
LINE
  5
67
100
AcDbEntity
  8
0
  6
CONTINUOUS
 62
             7
100
AcDbLine
 10
1752.94716508584
 20
4275.9863317547597
 11
1752.19715889484
 21
4276.7363379457593
  0
LINE
  5
66
100
AcDbEntity
  8
0
  6
CONTINUOUS
 62
             7
100
AcDbLine
 10
1753.8221675750401
 20
4276.0496167905594
 11
1753.8221675750401
 21
4275.611353851059
  0
LINE
  5
65
100
AcDbEntity
  8
0
  6
CONTINUOUS
 62
             7
100
AcDbLine
 10
1754.3221675750401
 20
4282.7613782651597
 11
1754.3221675750401
 21
4282.2613782651597
  0
LINE
  5
64
100
AcDbEntity
  8
0
  6
CONTINUOUS
 62
             7
100
AcDbLine
 10
1753.8221675750401
 20
4281.611353851059
 11
1753.8221675750401
 21
4281.1730909116586
  0
LINE
  5
63
100
AcDbEntity
  8
0
  6
CONTINUOUS
 62
             7
100
AcDbLine
 10
1757.8221675750401
 20
4265.5507764585591
 11
1757.8221675750401
 21
4283.7613782651597
  0
LINE
  5
62
100
AcDbEntity
  8
0
  6
CONTINUOUS
 62
             7
100
AcDbLine
 10
1757.8221675750401
 20
4272.7113446958601
 11
1757.8221675750401
 21
4267.111353851059
  0
LINE
  5
61
100
AcDbEntity
  8
0
  6
CONTINUOUS
 62
             7
100
AcDbLine
 10
1757.447168514339
 20
4268.036331677059
 11
1756.6971623233401
 21
4267.2863254860604
  0
LINE
  5
60
100
AcDbEntity
  8
0
  6
CONTINUOUS
 62
             7
100
AcDbLine
 10
1755.82222861014
 20
4267.349635101059
 11
1755.82222861014
 21
4266.9113721616586
  0
LINE
  5
5F
100
AcDbEntity
  8
0
  6
CONTINUOUS
 62
             7
100
AcDbLine
 10
1757.3838741180391
 20
4268.9112806089588
 11
1757.8221370574399
 21
4268.9112806089588
  0
LINE
  5
5E
100
AcDbEntity
  8
0
  6
CONTINUOUS
 62
             7
100
AcDbLine
 10
1756.6971528824399
 20
4272.5363162237581
 11
1757.4471590734399
 21
4271.7863100327586
  0
LINE
  5
5D
100
AcDbEntity
  8
0
  6
CONTINUOUS
 62
             7
100
AcDbLine
 10
1755.8221370574399
 20
4272.9112806089588
 11
1755.8221370574399
 21
4272.4730176694602
  0
LINE
  5
5C
100
AcDbEntity
  8
0
  6
CONTINUOUS
 62
             7
100
AcDbLine
 10
1757.82222861014
 20
4270.9113569028586
 11
1757.3839656707401
 21
4270.9113569028586
  0
LINE
  5
5B
100
AcDbEntity
  8
0
  6
CONTINUOUS
 62
             7
100
AcDbLine
 10
1757.8221675750401
 20
4281.4113569028586
 11
1757.8221675750401
 21
4275.8113660581594
  0
LINE
  5
5A
100
AcDbEntity
  8
0
  6
CONTINUOUS
 62
             7
100
AcDbLine
 10
1756.6971528824399
 20
4281.236331933359
 11
1757.4471590734399
 21
4280.4863257423594
  0
LINE
  5
59
100
AcDbEntity
  8
0
  6
CONTINUOUS
 62
             7
100
AcDbLine
 10
1757.4471590734399
 20
4276.7363379457593
 11
1756.6971528824399
 21
4275.9863317547597
  0
LINE
  5
58
100
AcDbEntity
  8
0
  6
CONTINUOUS
 62
             7
100
AcDbLine
 10
1755.82222861014
 20
4276.0496320493594
 11
1755.82222861014
 21
4275.611369109859
  0
LINE
  5
57
100
AcDbEntity
  8
0
  6
CONTINUOUS
 62
             7
100
AcDbLine
 10
1757.3838588592389
 20
4277.6112928159591
 11
1757.82212179864
 21
4277.6112928159591
  0
LINE
  5
56
100
AcDbEntity
  8
0
  6
CONTINUOUS
 62
             7
100
AcDbLine
 10
1757.82222861014
 20
4279.611369109859
 11
1757.3839656707401
 21
4279.611369109859
  0
LINE
  5
55
100
AcDbEntity
  8
0
  6
CONTINUOUS
 62
             7
100
AcDbLine
 10
1755.82212179864
 20
4281.6112928159591
 11
1755.82212179864
 21
4281.1730298764587
  0
LINE
  5
54
100
AcDbEntity
  8
0
  6
CONTINUOUS
 62
             7
100
AcDbLine
 10
1803.02217978204
 20
4263.7613630063597
 11
1810.02217978204
 21
4263.7613630063597
  0
LINE
  5
53
100
AcDbEntity
  8
0
  6
CONTINUOUS
 62
             7
100
AcDbLine
 10
1803.02217978204
 20
4264.7613630063597
 11
1810.02217978204
 21
4264.7613630063597
  0
LINE
  5
52
100
AcDbEntity
  8
0
  6
CONTINUOUS
 62
             7
100
AcDbLine
 10
1805.02217978204
 20
4274.9613752134601
 11
1813.52217978204
 21
4274.9613752134601
  0
LINE
  5
51
100
AcDbEntity
  8
0
  6
CONTINUOUS
 62
             7
100
AcDbLine
 10
1828.02217978204
 20
4283.7613782651597
 11
1811.52217978204
 21
4283.7613782651597
  0
LINE
  5
50
100
AcDbEntity
  8
0
  6
CONTINUOUS
 62
             7
100
AcDbLine
 10
1809.52217978204
 20
4274.9613752134601
 11
1809.52217978204
 21
4281.7613782651597
  0
LINE
  5
4F
100
AcDbEntity
  8
0
  6
CONTINUOUS
 62
             7
100
AcDbLine
 10
1811.52216872244
 20
4283.7612795665582
 11
1809.5221630589399
 21
4281.7612809837601
  0
LINE
  5
4E
100
AcDbEntity
  8
0
  6
CONTINUOUS
 62
             7
100
AcDbLine
 10
1813.52217978204
 20
4274.9613752134601
 11
1813.52217978204
 21
4281.7613782651597
  0
LINE
  5
4D
100
AcDbEntity
  8
0
  6
CONTINUOUS
 62
             7
100
AcDbLine
 10
1828.02217978204
 20
4270.4113721616586
 11
1828.02217978204
 21
4283.7613782651597
  0
LINE
  5
4C
100
AcDbEntity
  8
0
  6
CONTINUOUS
 62
             7
100
AcDbLine
 10
1824.02217978204
 20
4270.4113721616586
 11
1828.02217978204
 21
4270.4113721616586
  0
LINE
  5
4B
100
AcDbEntity
  8
0
  6
CONTINUOUS
 62
             7
100
AcDbLine
 10
1824.02217978204
 20
4270.4113721616586
 11
1828.02217978204
 21
4270.4113721616586
  0
LINE
  5
4A
100
AcDbEntity
  8
0
  6
CONTINUOUS
 62
             7
100
AcDbLine
 10
1824.4221665825389
 20
4267.2613018662587
 11
1824.0221673941401
 21
4268.7612984295602
  0
LINE
  5
49
100
AcDbEntity
  8
0
  6
CONTINUOUS
 62
             7
100
AcDbLine
 10
1826.5218381125401
 20
4268.9114553375593
 11
1828.02183970494
 21
4270.4114569299591
  0
LINE
  5
48
100
AcDbEntity
  8
0
  6
CONTINUOUS
 62
             7
100
AcDbLine
 10
1825.1221751937401
 20
4270.4112702889588
 11
1825.3221751512399
 21
4268.9112697058581
  0
LINE
  5
47
100
AcDbEntity
  8
0
  6
CONTINUOUS
 62
             7
100
AcDbLine
 10
1825.3221828338401
 20
4268.9113721616586
 11
1826.52217978204
 21
4268.9113721616586
  0
LINE
  5
46
100
AcDbEntity
  8
1
  6
CONTINUOUS
 62
             7
100
AcDbLine
 10
1731.52217978204
 20
4254.7613782651597
 11
1729.02217978204
 21
4254.7613782651597
  0
LINE
  5
45
100
AcDbEntity
  8
1
  6
CONTINUOUS
 62
             7
100
AcDbLine
 10
1731.52217978204
 20
4250.7613782651597
 11
1729.02217978204
 21
4250.7613782651597
  0
LINE
  5
44
100
AcDbEntity
  8
1
  6
CONTINUOUS
 62
             7
100
AcDbLine
 10
1759.02217978204
 20
4250.7613782651597
 11
1756.52217978204
 21
4250.7613782651597
  0
LINE
  5
43
100
AcDbEntity
  8
1
  6
CONTINUOUS
 62
             7
100
AcDbLine
 10
1759.02217978204
 20
4254.7613782651597
 11
1756.52217978204
 21
4254.7613782651597
  0
LINE
  5
42
100
AcDbEntity
  8
1
  6
CONTINUOUS
 62
             7
100
AcDbLine
 10
1754.8608550094559
 20
4250.7613782651597
 11
1756.52217978204
 21
4250.7613782651597
  0
LINE
  5
41
100
AcDbEntity
  8
1
  6
CONTINUOUS
 62
             7
100
AcDbLine
 10
1754.8608550094559
 20
4254.7613782651597
 11
1756.52217978204
 21
4254.7613782651597
  0
LINE
  5
40
100
AcDbEntity
  8
1
  6
CONTINUOUS
 62
             7
100
AcDbLine
 10
1759.02217978204
 20
4254.7613782651597
 11
1759.02217978204
 21
4250.7613782651597
  0
LINE
  5
3F
100
AcDbEntity
  8
1
  6
CONTINUOUS
 62
             7
100
AcDbLine
 10
1729.02217978204
 20
4250.7613782651597
 11
1729.02217978204
 21
4254.7613782651597
  0
LINE
  5
3E
100
AcDbEntity
  8
1
  6
CONTINUOUS
 62
             7
100
AcDbLine
 10
1731.52217978204
 20
4254.7613782651597
 11
1733.183504554625
 21
4254.7613782651597
  0
LINE
  5
3D
100
AcDbEntity
  8
1
  6
CONTINUOUS
 62
             7
100
AcDbLine
 10
1731.52217978204
 20
4250.7613782651597
 11
1733.183504554625
 21
4250.7613782651597
  0
LINE
  5
3C
100
AcDbEntity
  8
1
  6
CONTINUOUS
 62
             7
100
AcDbLine
 10
1825.52217978204
 20
4247.9613782651604
 11
1825.52217978204
 21
4257.561378265159
  0
LINE
  5
3B
100
AcDbEntity
  8
1
  6
CONTINUOUS
 62
             7
100
AcDbLine
 10
1819.1221797820399
 20
4254.7613782651597
 11
1799.422179782041
 21
4254.7613782651597
  0
LINE
  5
3A
100
AcDbEntity
  8
1
  6
CONTINUOUS
 62
             7
100
AcDbLine
 10
1799.422179782041
 20
4250.7613782651597
 11
1819.1221797820399
 21
4250.7613782651597
  0
LINE
  5
39
100
AcDbEntity
  8
1
  6
CONTINUOUS
 62
             7
100
AcDbLine
 10
1798.922179782041
 20
4251.2613782651597
 11
1798.922179782041
 21
4254.2613782651597
  0
LINE
  5
38
100
AcDbEntity
  8
1
  6
CONTINUOUS
 62
             7
100
AcDbLine
 10
1819.1221797820399
 20
4250.7613782651597
 11
1819.1221797820399
 21
4247.9613782651604
  0
LINE
  5
37
100
AcDbEntity
  8
1
  6
CONTINUOUS
 62
             7
100
AcDbLine
 10
1819.1221797820399
 20
4257.561378265159
 11
1819.1221797820399
 21
4254.7613782651597
  0
LINE
  5
36
100
AcDbEntity
  8
1
  6
CONTINUOUS
 62
             7
100
AcDbLine
 10
1825.52217978204
 20
4257.561378265159
 11
1819.1221797820399
 21
4257.561378265159
  0
LINE
  5
35
100
AcDbEntity
  8
1
  6
CONTINUOUS
 62
             7
100
AcDbLine
 10
1819.1221797820399
 20
4247.9613782651604
 11
1825.52217978204
 21
4247.9613782651604
  0
LINE
  5
34
100
AcDbEntity
  8
1
  6
CONTINUOUS
 62
             7
100
AcDbLine
 10
1798.922179782041
 20
4254.2613782651597
 11
1799.422179782041
 21
4254.7613782651597
  0
LINE
  5
33
100
AcDbEntity
  8
1
  6
CONTINUOUS
 62
             7
100
AcDbLine
 10
1798.922179782041
 20
4251.2613782651597
 11
1799.422179782041
 21
4250.7613782651597
  0
LINE
  5
32
100
AcDbEntity
  8
1
  6
CONTINUOUS
 62
             7
100
AcDbLine
 10
1799.422179782041
 20
4250.7613782651597
 11
1799.422179782041
 21
4254.7613782651597
  0
LINE
  5
31
100
AcDbEntity
  8
1
  6
CONTINUOUS
 62
             7
100
AcDbLine
 10
1758.52217978204
 20
4251.2613782651597
 11
1756.52217978204
 21
4251.2613782651597
  0
LINE
  5
30
100
AcDbEntity
  8
1
  6
CONTINUOUS
 62
             7
100
AcDbLine
 10
1758.52217978204
 20
4251.2613782651597
 11
1758.52217978204
 21
4254.2613782651597
  0
LINE
  5
2F
100
AcDbEntity
  8
1
  6
CONTINUOUS
 62
             7
100
AcDbLine
 10
1758.52217978204
 20
4254.2613782651597
 11
1756.52217978204
 21
4254.2613782651597
  0
LINE
  5
2E
100
AcDbEntity
  8
1
  6
CONTINUOUS
 62
             7
100
AcDbLine
 10
1758.52217978204
 20
4254.2613782651597
 11
1759.02217978204
 21
4254.7613782651597
  0
LINE
  5
2D
100
AcDbEntity
  8
1
  6
CONTINUOUS
 62
             7
100
AcDbLine
 10
1758.52217978204
 20
4251.2613782651597
 11
1759.02217978204
 21
4250.7613782651597
  0
LINE
  5
2C
100
AcDbEntity
  8
1
  6
CONTINUOUS
 62
             7
100
AcDbLine
 10
1729.52217978204
 20
4251.2613782651597
 11
1729.02217978204
 21
4250.7613782651597
  0
LINE
  5
2B
100
AcDbEntity
  8
1
  6
CONTINUOUS
 62
             7
100
AcDbLine
 10
1729.52217978204
 20
4251.2613782651597
 11
1731.52217978204
 21
4251.2613782651597
  0
LINE
  5
2A
100
AcDbEntity
  8
1
  6
CONTINUOUS
 62
             7
100
AcDbLine
 10
1731.52217978204
 20
4254.2613782651597
 11
1729.52217978204
 21
4254.2613782651597
  0
LINE
  5
29
100
AcDbEntity
  8
1
  6
CONTINUOUS
 62
             7
100
AcDbLine
 10
1729.52217978204
 20
4254.2613782651597
 11
1729.52217978204
 21
4251.2613782651597
  0
LINE
  5
28
100
AcDbEntity
  8
1
  6
CONTINUOUS
 62
             7
100
AcDbLine
 10
1729.52217978204
 20
4254.2613782651597
 11
1729.02217978204
 21
4254.7613782651597
  0
ENDSEC
  0
SECTION
  2
OBJECTS
  0
DICTIONARY
  5
19
100
AcDbDictionary
  3
ACAD_GROUP
350
1A
  3
ACAD_MLINESTYLE
350
1B
  0
DICTIONARY
  5
1A
102
{ACAD_REACTORS
330
19
102
}
100
AcDbDictionary
  0
DICTIONARY
  5
1B
102
{ACAD_REACTORS
330
19
102
}
100
AcDbDictionary
  3
STANDARD
350
1C
  0
MLINESTYLE
  5
1C
102
{ACAD_REACTORS
330
1B
102
}
100
AcDbMlineStyle
  2
STANDARD
 70
             0
  3

 62
             0
 51
90.0
 52
90.0
 71
             2
 49
0.5
 62
           256
  6
BYLAYER
 49
-0.5
 62
           256
  6
BYLAYER
  0
ENDSEC
  0
EOF
