  0
SECTION
  2
HEADER
  9
$ACADVER
  1
AC1014
  9
$ACADMAINTVER
 70
             0
  9
$DWGCODEPAGE
  3
ANSI_1252
  9
$INSBASE
 10
0.0
 20
0.0
 30
0.0
  9
$EXTMIN
 10
1.00000000000000E+20
 20
1.00000000000000E+20
 30
1.00000000000000E+20
  9
$EXTMAX
 10
-1.00000000000000E+20
 20
-1.00000000000000E+20
 30
-1.00000000000000E+20
  9
$LIMMIN
 10
0.0
 20
0.0
  9
$LIMMAX
 10
0.0
 20
0.0
  9
$ORTHOMODE
 70
             0
  9
$REGENMODE
 70
             1
  9
$FILLMODE
 70
             1
  9
$QTEXTMODE
 70
             0
  9
$MIRRTEXT
 70
             1
  9
$DRAGMODE
 70
             2
  9
$LTSCALE
 40
1.0
  9
$OSMODE
 70
             0
  9
$ATTMODE
 70
             1
  9
$TEXTSIZE
 40
0.2
  9
$TRACEWID
 40
0.05
  9
$TEXTSTYLE
  7
STANDARD
  9
$CLAYER
  8
0
  9
$CELTYPE
  6
CONTINUOUS
  9
$CECOLOR
 62
           256
  9
$CELTSCALE
 40
1.0
  9
$DELOBJ
 70
             1
  9
$DISPSILH
 70
             0
  9
$DIMSCALE
 40
1.0
  9
$DIMASZ
 40
0.18
  9
$DIMEXO
 40
0.0625
  9
$DIMDLI
 40
0.38
  9
$DIMRND
 40
0.0
  9
$DIMDLE
 40
0.0
  9
$DIMEXE
 40
0.18
  9
$DIMTP
 40
0.0
  9
$DIMTM
 40
0.0
  9
$DIMTXT
 40
0.18
  9
$DIMCEN
 40
0.09
  9
$DIMTSZ
 40
0.0
  9
$DIMTOL
 70
             0
  9
$DIMLIM
 70
             0
  9
$DIMTIH
 70
             1
  9
$DIMTOH
 70
             1
  9
$DIMSE1
 70
             0
  9
$DIMSE2
 70
             0
  9
$DIMTAD
 70
             0
  9
$DIMZIN
 70
             0
  9
$DIMBLK
  1

  9
$DIMASO
 70
             1
  9
$DIMSHO
 70
             1
  9
$DIMPOST
  1

  9
$DIMAPOST
  1

  9
$DIMALT
 70
             0
  9
$DIMALTD
 70
             2
  9
$DIMALTF
 40
25.4
  9
$DIMLFAC
 40
1.0
  9
$DIMTOFL
 70
             0
  9
$DIMTVP
 40
0.0
  9
$DIMTIX
 70
             0
  9
$DIMSOXD
 70
             0
  9
$DIMSAH
 70
             0
  9
$DIMBLK1
  1

  9
$DIMBLK2
  1

  9
$DIMSTYLE
  2
STANDARD
  9
$DIMCLRD
 70
             0
  9
$DIMCLRE
 70
             0
  9
$DIMCLRT
 70
             0
  9
$DIMTFAC
 40
1.0
  9
$DIMGAP
 40
0.09
  9
$DIMJUST
 70
             0
  9
$DIMSD1
 70
             0
  9
$DIMSD2
 70
             0
  9
$DIMTOLJ
 70
             1
  9
$DIMTZIN
 70
             0
  9
$DIMALTZ
 70
             0
  9
$DIMALTTZ
 70
             0
  9
$DIMFIT
 70
             3
  9
$DIMUPT
 70
             0
  9
$DIMUNIT
 70
             2
  9
$DIMDEC
 70
             4
  9
$DIMTDEC
 70
             4
  9
$DIMALTU
 70
             2
  9
$DIMALTTD
 70
             2
  9
$DIMTXSTY
  7
STANDARD
  9
$DIMAUNIT
 70
             0
  9
$LUNITS
 70
             2
  9
$LUPREC
 70
             4
  9
$SKETCHINC
 40
0.1
  9
$FILLETRAD
 40
0.0
  9
$AUNITS
 70
             0
  9
$AUPREC
 70
             0
  9
$MENU
  1
acad
  9
$ELEVATION
 40
0.0
  9
$PELEVATION
 40
0.0
  9
$THICKNESS
 40
0.0
  9
$LIMCHECK
 70
             0
  9
$BLIPMODE
 70
             1
  9
$CHAMFERA
 40
0.0
  9
$CHAMFERB
 40
0.0
  9
$CHAMFERC
 40
0.0
  9
$CHAMFERD
 40
0.0
  9
$SKPOLY
 70
             0
  9
$TDCREATE
 40
0.000000000
  9
$TDUPDATE
 40
0.000000000
  9
$TDINDWG
 40
0.0000000000
  9
$TDUSRTIMER
 40
0.0000000000
  9
$USRTIMER
 70
             1
  9
$ANGBASE
 50
0.0
  9
$ANGDIR
 70
             0
  9
$PDMODE
 70
             0
  9
$PDSIZE
 40
0.0
  9
$PLINEWID
 40
0.0
  9
$COORDS
 70
             0
  9
$SPLFRAME
 70
             0
  9
$SPLINETYPE
 70
             6
  9
$SPLINESEGS
 70
             8
  9
$ATTDIA
 70
             0
  9
$ATTREQ
 70
             1
  9
$HANDLING
 70
             1
  9
$HANDSEED
  5
379
  9
$SURFTAB1
 70
             6
  9
$SURFTAB2
 70
             6
  9
$SURFTYPE
 70
             6
  9
$SURFU
 70
             6
  9
$SURFV
 70
             6
  9
$UCSNAME
  2

  9
$UCSORG
 10
0.0
 20
0.0
 30
0.0
  9
$UCSXDIR
 10
1.0
 20
0.0
 30
0.0
  9
$UCSYDIR
 10
0.0
 20
1.0
 30
0.0
  9
$PUCSNAME
  2

  9
$PUCSORG
 10
0.0
 20
0.0
 30
0.0
  9
$PUCSXDIR
 10
1.0
 20
0.0
 30
0.0
  9
$PUCSYDIR
 10
0.0
 20
1.0
 30
0.0
  9
$USERI1
 70
             0
  9
$USERI2
 70
             0
  9
$USERI3
 70
             0
  9
$USERI4
 70
             0
  9
$USERI5
 70
             0
  9
$USERR1
 40
11.6
  9
$USERR2
 40
0.0
  9
$USERR3
 40
0.0
  9
$USERR4
 40
0.0
  9
$USERR5
 40
0.0
  9
$WORLDVIEW
 70
             1
  9
$SHADEDGE
 70
             3
  9
$SHADEDIF
 70
            70
  9
$TILEMODE
 70
             1
  9
$MAXACTVP
 70
            16
  9
$PINSBASE
 10
0.0
 20
0.0
 30
0.0
  9
$PLIMCHECK
 70
             0
  9
$PEXTMIN
 10
1.00000000000000E+20
 20
1.00000000000000E+20
 30
1.00000000000000E+20
  9
$PEXTMAX
 10
-1.00000000000000E+20
 20
-1.00000000000000E+20
 30
-1.00000000000000E+20
  9
$PLIMMIN
 10
0.0
 20
0.0
  9
$PLIMMAX
 10
12.0
 20
9.0
  9
$UNITMODE
 70
             0
  9
$VISRETAIN
 70
             0
  9
$PLINEGEN
 70
             1
  9
$PSLTSCALE
 70
             0
  9
$TREEDEPTH
 70
          3020
  9
$PICKSTYLE
 70
             1
  9
$CMLSTYLE
  2
STANDARD
  9
$CMLJUST
 70
             0
  9
$CMLSCALE
 40
1.0
  9
$PROXYGRAPHICS
 70
             0
  9
$MEASUREMENT
 70
             1
  0
ENDSEC
  0
SECTION
  2
CLASSES
  0
CLASS
  1
LWPOLYLINE
  2
AcDbPolyline
  3
"AutoCAD"
 90
        0
280
             0
281
             1
  0
CLASS
  1
IMAGE
  2
AcDbRasterImage
  3
ISM
 90
      127
280
             0
281
             1
  0
CLASS
  1
OLE2FRAME
  2
AcDbOle2Frame
  3
""
 90
        0
280
             0
281
             1
  0
CLASS
  1
HATCH
  2
AcDbHatch
  3
"ACAD_SEDONA"
 90
        0
280
             0
281
             1
  0
CLASS
  1
DICTIONARYVAR
  2
AcDbDictionaryVar
  3
"AutoCAD"
 90
        0
280
             0
281
             0
  0
CLASS
  1
RASTERVARIABLES
  2
AcDbRasterVariables
  3
ISM
 90
        0
280
             0
281
             0
  0
CLASS
  1
IMAGEDEF
  2
AcDbRasterImageDef
  3
ISM
 90
        0
280
             0
281
             0
  0
CLASS
  1
IMAGEDEF_REACTOR
  2
AcDbRasterImageDefReactor
  3
ISM
 90
        1
280
             0
281
             0
  0
CLASS
  1
IDBUFFER
  2
AcDbIdBuffer
  3
"Acad"
 90
        0
280
             0
281
             0
  0
CLASS
  1
SPATIAL_FILTER
  2
AcDbSpatialFilter
  3
"Acad"
 90
        0
280
             0
281
             0
  0
CLASS
  1
XRECORD
  2
AcDbXrecord
  3
"<Built In>"
 90
        0
280
             0
281
             0
  0
CLASS
  1
SORTENTSTABLE
  2
AcDbSortentsTable
  3
"AutoCAD"
 90
        0
280
             0
281
             0
  0
CLASS
  1
LAYER_INDEX
  2
AcDbLayerIndex
  3
"Acad"
 90
        0
280
             0
281
             0
  0
CLASS
  1
SPATIAL_INDEX
  2
AcDbSpatialIndex
  3
"Acad"
 90
        0
280
             0
281
             0
  0
CLASS
  1
OBJECT_PTR
  2
CAseDLPNTableRecord
  3
"ASE-LPNTableRecord"
 90
        1
280
             0
281
             0
  0
CLASS
  1
LAYOUT
  2
AcDbLayout
  3
"AutoCAD 2000"
 90
        1
280
             0
281
             0
  0
CLASS
  1
PLOTSETTINGS
  2
AcDbPlotSettings
  3
"AutoCAD 2000"
 90
        1
280
             0
281
             0
  0
CLASS
  1
ACDBDICTIONARYWDFLT
  2
AcDbDictionaryWithDefault
  3
"AutoCAD 2000"
 90
        1
280
             0
281
             0
  0
CLASS
  1
ACDBPLACEHOLDER
  2
AcDbPlaceHolder
  3
"AutoCAD 2000"
 90
        1
280
             0
281
             0
  0
ENDSEC
  0
SECTION
  2
TABLES
  0
TABLE
  2
VPORT
  5
7
100
AcDbSymbolTable
 70
             1
  0
VPORT
  5
15
100
AcDbSymbolTableRecord
100
AcDbViewportTableRecord
  2
*ACTIVE
 70
             0
 10
0.0
 20
0.0
 11
1.0
 21
1.0
 12
1850.9916344563251
 22
4045.4437403519778
 13
0.0
 23
0.0
 14
1.0
 24
1.0
 15
0.0
 25
0.0
 16
0.0
 26
0.0
 36
1.0
 17
0.0
 27
0.0
 37
0.0
 40
112.90479728607623
 41
1.60267857142857
 42
50.0
 43
0.0
 44
0.0
 50
0.0
 51
0.0
 71
             0
 72
           100
 73
             1
 74
             1
 75
             0
 76
             0
 77
             0
 78
             0
  0
ENDTAB
  0
TABLE
  2
LTYPE
  5
4
100
AcDbSymbolTable
 70
            10
  0
LTYPE
  5
11
100
AcDbSymbolTableRecord
100
AcDbLinetypeTableRecord
  2
BYBLOCK
 70
            64
  3

 72
            65
 73
             0
 40
0.0
  0
LTYPE
  5
12
100
AcDbSymbolTableRecord
100
AcDbLinetypeTableRecord
  2
BYLAYER
 70
            64
  3

 72
            65
 73
             0
 40
0.0
  0
LTYPE
  5
13
100
AcDbSymbolTableRecord
100
AcDbLinetypeTableRecord
  2
CONTINUOUS
 70
            64
  3
Solid line
 72
            65
 73
             0
 40
0.0
  0
LTYPE
  5
1D
100
AcDbSymbolTableRecord
100
AcDbLinetypeTableRecord
  2
DASHED
 70
            64
  3
Dashed
 72
            65
 73
             2
 40
15.0
 49
12.0
 74
             0
 49
-3.0
 74
             0
  0
LTYPE
  5
1E
100
AcDbSymbolTableRecord
100
AcDbLinetypeTableRecord
  2
DOTTED
 70
            64
  3
Dotted
 72
            65
 73
             2
 40
3.5
 49
0.5
 74
             0
 49
-3.0
 74
             0
  0
LTYPE
  5
1F
100
AcDbSymbolTableRecord
100
AcDbLinetypeTableRecord
  2
DOT_CENTER
 70
            64
  3
Dot_Center
 72
            65
 73
             4
 40
2.0
 49
1.25
 74
             0
 49
-0.25
 74
             0
 49
0.25
 74
             0
 49
-0.25
 74
             0
  0
LTYPE
  5
20
100
AcDbSymbolTableRecord
100
AcDbLinetypeTableRecord
  2
LONG_DASHED
 70
            64
  3
Long_Dashed
 72
            65
 73
             2
 40
2.0
 49
1.5
 74
             0
 49
-0.5
 74
             0
  0
LTYPE
  5
21
100
AcDbSymbolTableRecord
100
AcDbLinetypeTableRecord
  2
DASH_CENTER
 70
            64
  3
Dash_Center
 72
            65
 73
             4
 40
36.0
 49
24.0
 74
             0
 49
-3.0
 74
             0
 49
6.0
 74
             0
 49
-3.0
 74
             0
  0
LTYPE
  5
22
100
AcDbSymbolTableRecord
100
AcDbLinetypeTableRecord
  2
PHANTOM
 70
            64
  3
Phantom
 72
            65
 73
             6
 40
2.5
 49
1.25
 74
             0
 49
-0.25
 74
             0
 49
0.25
 74
             0
 49
-0.25
 74
             0
 49
0.25
 74
             0
 49
-0.25
 74
             0
  0
LTYPE
  5
23
100
AcDbSymbolTableRecord
100
AcDbLinetypeTableRecord
  2
CENTER_DASH_DASH
 70
            64
  3
Center_Dash_Dash
 72
            65
 73
             6
 40
22.0
 49
12.0
 74
             0
 49
-3.0
 74
             0
 49
0.5
 74
             0
 49
-3.0
 74
             0
 49
0.5
 74
             0
 49
-3.0
 74
             0
  0
ENDTAB
  0
TABLE
  2
LAYER
  5
2
100
AcDbSymbolTable
 70
             4
  0
LAYER
  5
14
100
AcDbSymbolTableRecord
100
AcDbLayerTableRecord
  2
0
 70
             0
 62
             7
  6
CONTINUOUS
  0
LAYER
  5
24
100
AcDbSymbolTableRecord
100
AcDbLayerTableRecord
  2
1
 70
             0
 62
             7
  6
CONTINUOUS
  0
LAYER
  5
25
100
AcDbSymbolTableRecord
100
AcDbLayerTableRecord
  2
LAY0_0
 70
             0
 62
             7
  6
CONTINUOUS
  0
LAYER
  5
26
100
AcDbSymbolTableRecord
100
AcDbLayerTableRecord
  2
LAY0_2
 70
             0
 62
             7
  6
CONTINUOUS
  0
ENDTAB
  0
TABLE
  2
STYLE
  5
3
100
AcDbSymbolTable
 70
             1
  0
STYLE
  5
17
100
AcDbSymbolTableRecord
100
AcDbTextStyleTableRecord
  2
STANDARD
 70
             0
 40
0.0
 41
1.0
 50
0.0
 71
             0
 42
0.0
  3
txt
  4

  0
ENDTAB
  0
TABLE
  2
VIEW
  5
5
100
AcDbSymbolTable
 70
             0
  0
ENDTAB
  0
TABLE
  2
UCS
  5
6
100
AcDbSymbolTable
 70
             0
  0
ENDTAB
  0
TABLE
  2
APPID
  5
8
100
AcDbSymbolTable
 70
             1
  0
APPID
  5
16
100
AcDbSymbolTableRecord
100
AcDbRegAppTableRecord
  2
ACAD
 70
             0
  0
ENDTAB
  0
TABLE
  2
DIMSTYLE
  5
9
100
AcDbSymbolTable
 70
             1
  0
DIMSTYLE
105
18
100
AcDbSymbolTableRecord
100
AcDbDimStyleTableRecord
  2
STANDARD
 70
             0
  3

  4

  5

  6

  7

 40
1.0
 41
0.18
 42
0.0625
 43
0.38
 44
0.18
 45
0.0
 46
0.0
 47
0.0
 48
0.0
 71
             0
 72
             0
 73
             1
 74
             1
 75
             0
 76
             0
 77
             0
 78
             0
140
0.18
141
0.09
142
0.0
143
25.4
144
1.0
145
0.0
146
1.0
147
0.09
170
             0
171
             2
172
             0
173
             0
174
             0
175
             0
176
             0
177
             0
178
             0
270
             2
271
             4
272
             4
273
             2
274
             2
275
             0
280
             0
281
             0
282
             0
283
             1
284
             0
285
             0
286
             0
287
             0
288
             0
340
17
  0
ENDTAB
  0
TABLE
  2
BLOCK_RECORD
  5
1
100
AcDbSymbolTable
 70
             0
  0
BLOCK_RECORD
  5
A
100
AcDbSymbolTableRecord
100
AcDbBlockTableRecord
  2
*MODEL_SPACE
  0
BLOCK_RECORD
  5
B
100
AcDbSymbolTableRecord
100
AcDbBlockTableRecord
  2
*PAPER_SPACE
  0
ENDTAB
  0
ENDSEC
  0
SECTION
  2
BLOCKS
  0
BLOCK
  5
D
100
AcDbEntity
  8
0
100
AcDbBlockBegin
  2
*MODEL_SPACE
 70
             0
 10
0.0
 20
0.0
 30
0.0
  3
*MODEL_SPACE
  1

  0
ENDBLK
  5
E
100
AcDbEntity
  8
0
100
AcDbBlockEnd
  0
BLOCK
  5
F
100
AcDbEntity
 67
             1
  8
0
100
AcDbBlockBegin
  2
*PAPER_SPACE
 70
             0
 10
0.0
 20
0.0
 30
0.0
  3
*PAPER_SPACE
  1

  0
ENDBLK
  5
10
100
AcDbEntity
 67
             1
  8
0
100
AcDbBlockEnd
  0
ENDSEC
  0
SECTION
  2
ENTITIES
  0
ARC
  5
377
100
AcDbEntity
  8
1
  6
CONTINUOUS
 62
             7
100
AcDbCircle
 10
1813.7416007995639
 20
4048.4437506039781
 40
2.0
100
AcDbArc
 50
0.0
 51
90.0
  0
ARC
  5
376
100
AcDbEntity
  8
1
  6
CONTINUOUS
 62
             7
100
AcDbCircle
 10
1813.7416007995639
 20
4025.1937757571418
 40
2.0
100
AcDbArc
 50
-90.0
 51
0.0
  0
ARC
  5
375
100
AcDbEntity
  8
1
  6
CONTINUOUS
 62
             7
100
AcDbCircle
 10
1784.2445521836239
 20
4025.1937757571418
 40
2.0
100
AcDbArc
 50
180.0
 51
-90.0
  0
ARC
  5
374
100
AcDbEntity
  8
1
  6
CONTINUOUS
 62
             7
100
AcDbCircle
 10
1784.2445521836239
 20
4032.1756702646549
 40
1.99999999999945
100
AcDbArc
 50
126.04158681200236
 51
180.0
  0
ARC
  5
373
100
AcDbEntity
  8
1
  6
CONTINUOUS
 62
             7
100
AcDbCircle
 10
1785.741641807565
 20
4038.2119125619429
 40
2.00000000000032
100
AcDbArc
 50
-53.95841318800771
 51
0.0
  0
CIRCLE
  5
372
100
AcDbEntity
  8
LAY0_0
  6
CONTINUOUS
 62
             7
100
AcDbCircle
 10
1776.7415980974861
 20
4028.4438215732539
 40
1.75000003973582
  0
CIRCLE
  5
371
100
AcDbEntity
  8
LAY0_0
  6
CONTINUOUS
 62
             7
100
AcDbCircle
 10
1776.7415980974861
 20
4028.4438215732539
 40
2.25000035762787
  0
CIRCLE
  5
370
100
AcDbEntity
  8
LAY0_2
  6
CONTINUOUS
 62
             7
100
AcDbCircle
 10
1793.9035118360409
 20
4051.3437122980549
 40
0.34999996026318
  0
CIRCLE
  5
36F
100
AcDbEntity
  8
LAY0_2
  6
CONTINUOUS
 62
             7
100
AcDbCircle
 10
1799.403489822055
 20
4051.3437122980549
 40
0.34999996026409
  0
CIRCLE
  5
36E
100
AcDbEntity
  8
LAY0_2
  6
CONTINUOUS
 62
             7
100
AcDbCircle
 10
1804.9034906962561
 20
4051.3437122980549
 40
0.34999996026386
  0
CIRCLE
  5
36D
100
AcDbEntity
  8
LAY0_2
  6
CONTINUOUS
 62
             7
100
AcDbCircle
 10
1788.4034957030481
 20
4051.3437122980549
 40
0.34999996026295
  0
ARC
  5
36C
100
AcDbEntity
  8
LAY0_0
  6
CONTINUOUS
 62
             7
100
AcDbCircle
 10
1928.8665262738771
 20
4051.4437947114229
 40
78.62501249710918
100
AcDbArc
 50
170.85212774788312
 51
-170.85217237148498
  0
ARC
  5
36B
100
AcDbEntity
  8
LAY0_0
  6
CONTINUOUS
 62
             7
100
AcDbCircle
 10
1800.68612857573
 20
4033.6856131778982
 40
1.95000047683768
100
AcDbArc
 50
24.19575559704238
 51
51.89291546450907
  0
ARC
  5
36A
100
AcDbEntity
  8
LAY0_0
  6
CONTINUOUS
 62
             7
100
AcDbCircle
 10
1801.2415333270951
 20
4034.393804208431
 40
1.05000000000069
100
AcDbArc
 50
51.89291546454813
 51
128.10704173312882
  0
ARC
  5
369
100
AcDbEntity
  8
LAY0_0
  6
CONTINUOUS
 62
             7
100
AcDbCircle
 10
1799.5915544271429
 20
4033.193807069455
 40
3.14999988078991
100
AcDbArc
 50
-24.19579851307408
 51
24.19575559703933
  0
ARC
  5
368
100
AcDbEntity
  8
LAY0_0
  6
CONTINUOUS
 62
             7
100
AcDbCircle
 10
1801.2415333270951
 20
4031.993703118937
 40
1.04999999999946
100
AcDbArc
 50
-128.10707269635103
 51
-51.89295325792273
  0
ARC
  5
367
100
AcDbEntity
  8
LAY0_0
  6
CONTINUOUS
 62
             7
100
AcDbCircle
 10
1800.68612857573
 20
4032.7019857022192
 40
1.95000047683636
100
AcDbArc
 50
-51.89295325789991
 51
-24.19579851309988
  0
ARC
  5
366
100
AcDbEntity
  8
LAY0_0
  6
CONTINUOUS
 62
             7
100
AcDbCircle
 10
1796.241563049949
 20
4026.993763359375
 40
1.05000000000018
100
AcDbArc
 50
-128.10707269632039
 51
-51.89295325790455
  0
ARC
  5
365
100
AcDbEntity
  8
LAY0_0
  6
CONTINUOUS
 62
             7
100
AcDbCircle
 10
1795.6861354103969
 20
4027.7019086135329
 40
1.95000047683636
100
AcDbArc
 50
-51.89295325789991
 51
-24.19579851306331
  0
ARC
  5
364
100
AcDbEntity
  8
LAY0_0
  6
CONTINUOUS
 62
             7
100
AcDbCircle
 10
1796.797044095272
 20
4027.7019086135329
 40
1.95000047683751
100
AcDbArc
 50
-155.80424110159072
 51
-128.10707269637115
  0
ARC
  5
363
100
AcDbEntity
  8
LAY0_0
  6
CONTINUOUS
 62
             7
100
AcDbCircle
 10
1801.7970067430219
 20
4033.6856131778982
 40
1.95000047683761
100
AcDbArc
 50
128.1070417331259
 51
155.80419647797058
  0
ARC
  5
362
100
AcDbEntity
  8
LAY0_0
  6
CONTINUOUS
 62
             7
100
AcDbCircle
 10
1802.891535115235
 20
4033.193807069455
 40
3.14999988079022
100
AcDbArc
 50
155.80419647798632
 51
-155.80424110157054
  0
ARC
  5
361
100
AcDbEntity
  8
LAY0_0
  6
CONTINUOUS
 62
             7
100
AcDbCircle
 10
1805.6861446292501
 20
4027.7019086135329
 40
1.95000047683622
100
AcDbArc
 50
-51.89295325790517
 51
-24.19579851306605
  0
ARC
  5
360
100
AcDbEntity
  8
LAY0_0
  6
CONTINUOUS
 62
             7
100
AcDbCircle
 10
1804.591524704289
 20
4028.1937299807678
 40
3.1499998807897
100
AcDbArc
 50
-24.19579851307578
 51
24.19575559703085
  0
ARC
  5
35F
100
AcDbEntity
  8
LAY0_0
  6
CONTINUOUS
 62
             7
100
AcDbCircle
 10
1806.2415264924271
 20
4026.993763359375
 40
1.05000000000018
100
AcDbArc
 50
-128.10707269632039
 51
-51.89295325795336
  0
ARC
  5
35E
100
AcDbEntity
  8
LAY0_0
  6
CONTINUOUS
 62
             7
100
AcDbCircle
 10
1812.891544334087
 20
4033.193807069455
 40
3.14999988079043
100
AcDbArc
 50
155.804196477988
 51
-155.80424110156378
  0
ARC
  5
35D
100
AcDbEntity
  8
LAY0_0
  6
CONTINUOUS
 62
             7
100
AcDbCircle
 10
1806.796931243792
 20
4027.7019086135329
 40
1.95000047683647
100
AcDbArc
 50
-155.80424110157702
 51
-128.10707269635012
  0
ARC
  5
35C
100
AcDbEntity
  8
LAY0_0
  6
CONTINUOUS
 62
             7
100
AcDbCircle
 10
1807.891627462712
 20
4028.1937299807678
 40
3.14999988079182
100
AcDbArc
 50
155.80419647797217
 51
-155.8042411015781
  0
ARC
  5
35B
100
AcDbEntity
  8
LAY0_0
  6
CONTINUOUS
 62
             7
100
AcDbCircle
 10
1801.7970067430219
 20
4032.7019857022192
 40
1.95000047683749
100
AcDbArc
 50
-155.8042411015758
 51
-128.10707269636291
  0
ARC
  5
35A
100
AcDbEntity
  8
LAY0_0
  6
CONTINUOUS
 62
             7
100
AcDbCircle
 10
1806.796931243792
 20
4028.6855513480041
 40
1.95000047683633
100
AcDbArc
 50
128.10704173312138
 51
155.80419647795961
  0
ARC
  5
359
100
AcDbEntity
  8
LAY0_0
  6
CONTINUOUS
 62
             7
100
AcDbCircle
 10
1805.6861446292501
 20
4028.6855513480041
 40
1.95000047683731
100
AcDbArc
 50
24.19575559701801
 51
51.89291546449258
  0
ARC
  5
358
100
AcDbEntity
  8
LAY0_0
  6
CONTINUOUS
 62
             7
100
AcDbCircle
 10
1806.2415264924271
 20
4029.39377289612
 40
1.05000000000068
100
AcDbArc
 50
51.89291546446869
 51
128.10704173312882
  0
ARC
  5
357
100
AcDbEntity
  8
LAY0_0
  6
CONTINUOUS
 62
             7
100
AcDbCircle
 10
1776.0416468143569
 20
4033.8438163280439
 40
1.05000000000063
100
AcDbArc
 50
141.89291796897774
 51
-141.89296259256813
  0
ARC
  5
356
100
AcDbEntity
  8
LAY0_0
  6
CONTINUOUS
 62
             7
100
AcDbCircle
 10
1776.7497462921399
 20
4034.399221079409
 40
1.95000047683657
100
AcDbArc
 50
-141.89296259259373
 51
-114.19580784772812
  0
ARC
  5
355
100
AcDbEntity
  8
LAY0_0
  6
CONTINUOUS
 62
             7
100
AcDbCircle
 10
1786.79699672944
 20
4027.7019086135329
 40
1.95000047683751
100
AcDbArc
 50
-155.80424110159072
 51
-128.10707269637115
  0
ARC
  5
354
100
AcDbEntity
  8
LAY0_0
  6
CONTINUOUS
 62
             7
100
AcDbCircle
 10
1786.241538572305
 20
4026.993763359375
 40
1.05000000000074
100
AcDbArc
 50
-128.10707269635944
 51
-51.89295325795336
  0
ARC
  5
353
100
AcDbEntity
  8
LAY0_0
  6
CONTINUOUS
 62
             7
100
AcDbCircle
 10
1777.7334424323819
 20
4033.288350541513
 40
1.95000047683691
100
AcDbArc
 50
38.10703922868642
 51
65.80420080368266
  0
ARC
  5
352
100
AcDbEntity
  8
LAY0_0
  6
CONTINUOUS
 62
             7
100
AcDbCircle
 10
1777.2415752887721
 20
4032.1937611341341
 40
3.14999988079022
100
AcDbArc
 50
65.80420080369304
 51
114.19575639397823
  0
ARC
  5
351
100
AcDbEntity
  8
LAY0_0
  6
CONTINUOUS
 62
             7
100
AcDbCircle
 10
1778.441572427748
 20
4033.8438163280439
 40
1.05000000000032
100
AcDbArc
 50
-38.10709068243567
 51
38.10703922865115
  0
ARC
  5
350
100
AcDbEntity
  8
LAY0_0
  6
CONTINUOUS
 62
             7
100
AcDbCircle
 10
1777.2415752887721
 20
4035.4937799692052
 40
3.14999988079122
100
AcDbArc
 50
-114.19580784773964
 51
-65.80424542729989
  0
ARC
  5
34F
100
AcDbEntity
  8
LAY0_0
  6
CONTINUOUS
 62
             7
100
AcDbCircle
 10
1777.7334424323819
 20
4034.399221079409
 40
1.95000047683628
100
AcDbArc
 50
-65.80424542728304
 51
-38.10709068246514
  0
ARC
  5
34E
100
AcDbEntity
  8
LAY0_0
  6
CONTINUOUS
 62
             7
100
AcDbCircle
 10
1797.8915648380889
 20
4028.1937299807678
 40
3.14999988079078
100
AcDbArc
 50
155.8041964779637
 51
-155.80424110157639
  0
ARC
  5
34D
100
AcDbEntity
  8
LAY0_0
  6
CONTINUOUS
 62
             7
100
AcDbCircle
 10
1785.686126191544
 20
4027.7019086135329
 40
1.95000047683636
100
AcDbArc
 50
-51.89295325789991
 51
-24.19579851306331
  0
ARC
  5
34C
100
AcDbEntity
  8
LAY0_0
  6
CONTINUOUS
 62
             7
100
AcDbCircle
 10
1796.797044095272
 20
4028.6855513480041
 40
1.95000047683689
100
AcDbArc
 50
128.10704173314238
 51
155.80419647797331
  0
ARC
  5
34B
100
AcDbEntity
  8
LAY0_0
  6
CONTINUOUS
 62
             7
100
AcDbCircle
 10
1794.5915841499971
 20
4028.1937299807678
 40
3.1499998807897
100
AcDbArc
 50
-24.19579851307578
 51
24.19575559703255
  0
ARC
  5
34A
100
AcDbEntity
  8
LAY0_0
  6
CONTINUOUS
 62
             7
100
AcDbCircle
 10
1796.241563049949
 20
4029.39377289612
 40
1.04999999999998
100
AcDbArc
 50
51.89291546451751
 51
128.10704173312882
  0
ARC
  5
349
100
AcDbEntity
  8
LAY0_0
  6
CONTINUOUS
 62
             7
100
AcDbCircle
 10
1786.79699672944
 20
4028.6855513480041
 40
1.95000047683689
100
AcDbArc
 50
128.10704173314238
 51
155.80419647797331
  0
ARC
  5
348
100
AcDbEntity
  8
LAY0_0
  6
CONTINUOUS
 62
             7
100
AcDbCircle
 10
1787.8916090250059
 20
4028.1937299807678
 40
3.14999988079078
100
AcDbArc
 50
155.8041964779637
 51
-155.80424110157639
  0
ARC
  5
347
100
AcDbEntity
  8
LAY0_0
  6
CONTINUOUS
 62
             7
100
AcDbCircle
 10
1786.241538572305
 20
4029.39377289612
 40
1.04999999999998
100
AcDbArc
 50
51.89291546451751
 51
128.10704173316788
  0
ARC
  5
346
100
AcDbEntity
  8
LAY0_0
  6
CONTINUOUS
 62
             7
100
AcDbCircle
 10
1784.5915596723521
 20
4028.1937299807678
 40
3.14999988079053
100
AcDbArc
 50
-24.195798513069
 51
24.19575559703255
  0
ARC
  5
345
100
AcDbEntity
  8
LAY0_0
  6
CONTINUOUS
 62
             7
100
AcDbCircle
 10
1785.686126191544
 20
4028.6855513480041
 40
1.95000047683731
100
AcDbArc
 50
24.19575559701801
 51
51.89291546449258
  0
ARC
  5
344
100
AcDbEntity
  8
LAY0_0
  6
CONTINUOUS
 62
             7
100
AcDbCircle
 10
1850.0415778319029
 20
4034.943761571235
 40
0.50000007947301
100
AcDbArc
 50
90.00000250449436
 51
-179.99999499111553
  0
ARC
  5
343
100
AcDbEntity
  8
LAY0_0
  6
CONTINUOUS
 62
             7
100
AcDbCircle
 10
1850.0415778319029
 20
4031.4437762737161
 40
0.50000007947301
100
AcDbArc
 50
-179.9999949910634
 51
-89.99999931680924
  0
ARC
  5
342
100
AcDbEntity
  8
LAY0_0
  6
CONTINUOUS
 62
             7
100
AcDbCircle
 10
1850.0415778319029
 20
4026.4437754789869
 40
0.50000007947301
100
AcDbArc
 50
-179.99999499111553
 51
-89.99999931680924
  0
ARC
  5
341
100
AcDbEntity
  8
LAY0_0
  6
CONTINUOUS
 62
             7
100
AcDbCircle
 10
1850.0415778319029
 20
4029.9437607765062
 40
0.50000007947256
100
AcDbArc
 50
90.00000250449436
 51
-179.9999949910634
  0
ARC
  5
340
100
AcDbEntity
  8
LAY0_0
  6
CONTINUOUS
 62
             7
100
AcDbCircle
 10
1811.796947297313
 20
4032.7019857022192
 40
1.95000047683749
100
AcDbArc
 50
-155.8042411015758
 51
-128.10707269636291
  0
ARC
  5
33F
100
AcDbEntity
  8
LAY0_0
  6
CONTINUOUS
 62
             7
100
AcDbCircle
 10
1811.2416188399061
 20
4031.993703118937
 40
1.05000000000017
100
AcDbArc
 50
-128.10707269639985
 51
-51.89295325792273
  0
ARC
  5
33E
100
AcDbEntity
  8
LAY0_0
  6
CONTINUOUS
 62
             7
100
AcDbCircle
 10
1795.6861354103969
 20
4028.6855513480041
 40
1.95000047683731
100
AcDbArc
 50
24.19575559701801
 51
51.89291546448732
  0
ARC
  5
33D
100
AcDbEntity
  8
LAY0_0
  6
CONTINUOUS
 62
             7
100
AcDbCircle
 10
1811.2416188399061
 20
4034.393804208431
 40
1.05000000000069
100
AcDbArc
 50
51.89291546454813
 51
128.10704173317765
  0
ARC
  5
33C
100
AcDbEntity
  8
LAY0_0
  6
CONTINUOUS
 62
             7
100
AcDbCircle
 10
1811.796947297313
 20
4033.6856131778982
 40
1.95000047683761
100
AcDbArc
 50
128.1070417331259
 51
155.80419647797058
  0
ARC
  5
33B
100
AcDbEntity
  8
LAY0_0
  6
CONTINUOUS
 62
             7
100
AcDbCircle
 10
1810.6861377945829
 20
4033.6856131778982
 40
1.95000047683768
100
AcDbArc
 50
24.19575559704238
 51
51.89291546450381
  0
ARC
  5
33A
100
AcDbEntity
  8
LAY0_0
  6
CONTINUOUS
 62
             7
100
AcDbCircle
 10
1810.6861377945829
 20
4032.7019857022192
 40
1.95000047683692
100
AcDbArc
 50
-51.89295325787889
 51
-24.19579851308892
  0
ARC
  5
339
100
AcDbEntity
  8
LAY0_0
  6
CONTINUOUS
 62
             7
100
AcDbCircle
 10
1809.5915102402259
 20
4033.193807069455
 40
3.14999988078991
100
AcDbArc
 50
-24.19579851307408
 51
24.19575559702408
  0
ARC
  5
338
100
AcDbEntity
  8
LAY0_0
  6
CONTINUOUS
 62
             7
100
AcDbCircle
 10
1852.241636164991
 20
4022.4437595844129
 40
1.00000009934093
100
AcDbArc
 50
-179.99999499103706
 51
-89.99999931674405
  0
ARC
  5
337
100
AcDbEntity
  8
LAY0_0
  6
CONTINUOUS
 62
             7
100
AcDbCircle
 10
1852.241636164991
 20
4068.4437668959172
 40
1.00000009934092
100
AcDbArc
 50
90.00000250445544
 51
-179.99999499101099
  0
ARC
  5
336
100
AcDbEntity
  8
LAY0_0
  6
CONTINUOUS
 62
             7
100
AcDbCircle
 10
1776.7497462921399
 20
4033.288350541513
 40
1.95000047683717
100
AcDbArc
 50
114.19575639391739
 51
141.89291796896092
  0
ARC
  5
335
100
AcDbEntity
  8
LAY0_0
  6
CONTINUOUS
 62
             7
100
AcDbCircle
 10
1806.2445172155601
 20
4026.993763359375
 40
1.55000007947434
100
AcDbArc
 50
-128.10707269635122
 51
-51.89295325793744
  0
ARC
  5
334
100
AcDbEntity
  8
LAY0_0
  6
CONTINUOUS
 62
             7
100
AcDbCircle
 10
1805.6891506111731
 20
4027.7019086135329
 40
2.45000043710052
100
AcDbArc
 50
-51.89295325789636
 51
-24.19579851308091
  0
ARC
  5
333
100
AcDbEntity
  8
LAY0_0
  6
CONTINUOUS
 62
             7
100
AcDbCircle
 10
1806.799921966925
 20
4027.7019086135329
 40
2.45000043710061
100
AcDbArc
 50
-155.80424110156164
 51
-128.10707269636561
  0
ARC
  5
332
100
AcDbEntity
  8
LAY0_0
  6
CONTINUOUS
 62
             7
100
AcDbCircle
 10
1806.799921966925
 20
4028.6855513480041
 40
2.45000043710089
100
AcDbArc
 50
128.10704173314576
 51
155.80419647797291
  0
ARC
  5
331
100
AcDbEntity
  8
LAY0_0
  6
CONTINUOUS
 62
             7
100
AcDbCircle
 10
1807.8946181858439
 20
4028.1937299807678
 40
3.65000043709984
100
AcDbArc
 50
155.80419647796401
 51
-155.80424110158498
  0
ARC
  5
330
100
AcDbEntity
  8
LAY0_0
  6
CONTINUOUS
 62
             7
100
AcDbCircle
 10
1776.749753921536
 20
4034.399221079409
 40
2.45000043710028
100
AcDbArc
 50
-141.89296259258231
 51
-114.19580784773318
  0
ARC
  5
32F
100
AcDbEntity
  8
LAY0_0
  6
CONTINUOUS
 62
             7
100
AcDbCircle
 10
1777.2415752887721
 20
4035.4937799692052
 40
3.65000043710103
100
AcDbArc
 50
-114.1958078477397
 51
-65.80424542728835
  0
ARC
  5
32E
100
AcDbEntity
  8
LAY0_0
  6
CONTINUOUS
 62
             7
100
AcDbCircle
 10
1806.2445172155601
 20
4029.39377289612
 40
1.55000007947232
100
AcDbArc
 50
51.89291546450127
 51
128.10704173317453
  0
ARC
  5
32D
100
AcDbEntity
  8
LAY0_0
  6
CONTINUOUS
 62
             7
100
AcDbCircle
 10
1804.594538315607
 20
4028.1937299807678
 40
3.65000043709945
100
AcDbArc
 50
-24.19579851307215
 51
24.19575559702703
  0
ARC
  5
32C
100
AcDbEntity
  8
LAY0_0
  6
CONTINUOUS
 62
             7
100
AcDbCircle
 10
1805.6891506111731
 20
4028.6855513480041
 40
2.4500004371003
100
AcDbArc
 50
24.1957555970412
 51
51.89291546449371
  0
ARC
  5
32B
100
AcDbEntity
  8
LAY0_0
  6
CONTINUOUS
 62
             7
100
AcDbCircle
 10
1787.894607377533
 20
4028.1937299807678
 40
3.65000043710088
100
AcDbArc
 50
155.80419647797132
 51
-155.80424110157912
  0
ARC
  5
32A
100
AcDbEntity
  8
LAY0_0
  6
CONTINUOUS
 62
             7
100
AcDbCircle
 10
1786.7999950819669
 20
4027.7019086135329
 40
2.45000043710061
100
AcDbArc
 50
-155.80424110156164
 51
-128.10707269636143
  0
ARC
  5
329
100
AcDbEntity
  8
LAY0_0
  6
CONTINUOUS
 62
             7
100
AcDbCircle
 10
1786.7999950819669
 20
4028.6855513480041
 40
2.45000043710019
100
AcDbArc
 50
128.10704173312484
 51
155.80419647796199
  0
ARC
  5
328
100
AcDbEntity
  8
LAY0_0
  6
CONTINUOUS
 62
             7
100
AcDbCircle
 10
1795.6891413923199
 20
4028.6855513480041
 40
2.45000043710051
100
AcDbArc
 50
24.19575559703902
 51
51.89291546449371
  0
ARC
  5
327
100
AcDbEntity
  8
LAY0_0
  6
CONTINUOUS
 62
             7
100
AcDbCircle
 10
1796.2445690318721
 20
4029.39377289612
 40
1.55000007947302
100
AcDbArc
 50
51.89291546446821
 51
128.10704173314144
  0
ARC
  5
326
100
AcDbEntity
  8
LAY0_0
  6
CONTINUOUS
 62
             7
100
AcDbCircle
 10
1785.6891245440711
 20
4028.6855513480041
 40
2.45000043710134
100
AcDbArc
 50
24.1957555970303
 51
51.89291546449371
  0
ARC
  5
325
100
AcDbEntity
  8
LAY0_0
  6
CONTINUOUS
 62
             7
100
AcDbCircle
 10
1786.244544554228
 20
4029.39377289612
 40
1.55000007947246
100
AcDbArc
 50
51.89291546449466
 51
128.10704173317453
  0
ARC
  5
324
100
AcDbEntity
  8
LAY0_0
  6
CONTINUOUS
 62
             7
100
AcDbCircle
 10
1784.5945656542749
 20
4028.1937299807678
 40
3.65000043710049
100
AcDbArc
 50
-24.19579851306483
 51
24.19575559702703
  0
ARC
  5
323
100
AcDbEntity
  8
LAY0_0
  6
CONTINUOUS
 62
             7
100
AcDbCircle
 10
1786.244544554228
 20
4026.993763359375
 40
1.5500000794742
100
AcDbArc
 50
-128.1070726963446
 51
-51.89295325793744
  0
ARC
  5
322
100
AcDbEntity
  8
LAY0_0
  6
CONTINUOUS
 62
             7
100
AcDbCircle
 10
1785.6891245440711
 20
4027.7019086135329
 40
2.45000043710052
100
AcDbArc
 50
-51.89295325789636
 51
-24.19579851307001
  0
ARC
  5
321
100
AcDbEntity
  8
LAY0_0
  6
CONTINUOUS
 62
             7
100
AcDbCircle
 10
1777.2415752887721
 20
4035.4937799692052
 40
4.25000067551924
100
AcDbArc
 50
-114.19580784775344
 51
-65.80424542729585
  0
ARC
  5
320
100
AcDbEntity
  8
LAY0_0
  6
CONTINUOUS
 62
             7
100
AcDbCircle
 10
1779.5921234529089
 20
4032.5103505399229
 40
0.20000003476875
100
AcDbArc
 50
49.99883912109643
 51
134.53883962934714
  0
ARC
  5
31F
100
AcDbEntity
  8
LAY0_0
  6
CONTINUOUS
 62
             7
100
AcDbCircle
 10
1816.7416120847111
 20
4022.4437748432042
 40
1.00000009934138
100
AcDbArc
 50
-89.99999931675708
 51
0.0
  0
ARC
  5
31E
100
AcDbEntity
  8
LAY0_0
  6
CONTINUOUS
 62
             7
100
AcDbCircle
 10
1816.7416120847111
 20
4068.443782154709
 40
1.00000009934092
100
AcDbArc
 50
0.0
 51
90.00000250445544
  0
ARC
  5
31D
100
AcDbEntity
  8
LAY0_0
  6
CONTINUOUS
 62
             7
100
AcDbCircle
 10
1770.7415895144161
 20
4022.4437748432042
 40
1.00000009934115
100
AcDbArc
 50
-179.99999499101099
 51
-89.99999931675708
  0
ARC
  5
31C
100
AcDbEntity
  8
LAY0_0
  6
CONTINUOUS
 62
             7
100
AcDbCircle
 10
1774.7371956182501
 20
4032.3812764227282
 40
0.2000000347686
100
AcDbArc
 50
129.99888118981454
 51
-134.92354684629655
  0
ARC
  5
31B
100
AcDbEntity
  8
LAY0_0
  6
CONTINUOUS
 62
             7
100
AcDbCircle
 10
1776.749753921536
 20
4034.399221079409
 40
3.05000067551909
100
AcDbArc
 50
-134.92341024274168
 51
-114.19580784773412
  0
ARC
  5
31A
100
AcDbEntity
  8
LAY0_0
  6
CONTINUOUS
 62
             7
100
AcDbCircle
 10
1774.8910576422179
 20
4032.5103657987152
 40
0.20000003476889
100
AcDbArc
 50
45.45989837968619
 51
129.99888118996424
  0
ARC
  5
319
100
AcDbEntity
  8
LAY0_0
  6
CONTINUOUS
 62
             7
100
AcDbCircle
 10
1779.7459854768761
 20
4032.3812459051451
 40
0.20000003477016
100
AcDbArc
 50
-45.07645178721336
 51
49.99883912072936
  0
ARC
  5
318
100
AcDbEntity
  8
LAY0_0
  6
CONTINUOUS
 62
             7
100
AcDbCircle
 10
1777.7334500617769
 20
4034.399221079409
 40
3.05000067551923
100
AcDbArc
 50
-65.80424542726959
 51
-45.07724408892561
  0
ARC
  5
317
100
AcDbEntity
  8
LAY0_0
  6
CONTINUOUS
 62
             7
100
AcDbCircle
 10
1777.2415752887721
 20
4032.1937611341341
 40
3.65000043710056
100
AcDbArc
 50
65.80420080368884
 51
114.19575639394938
  0
ARC
  5
316
100
AcDbEntity
  8
LAY0_0
  6
CONTINUOUS
 62
             7
100
AcDbCircle
 10
1776.749753921536
 20
4033.288350541513
 40
2.45000043710082
100
AcDbArc
 50
114.19575639395546
 51
141.89291796896248
  0
ARC
  5
315
100
AcDbEntity
  8
LAY0_0
  6
CONTINUOUS
 62
             7
100
AcDbCircle
 10
1777.7334500617769
 20
4033.288350541513
 40
2.45000043710113
100
AcDbArc
 50
38.10703922865935
 51
65.80420080367414
  0
ARC
  5
314
100
AcDbEntity
  8
LAY0_0
  6
CONTINUOUS
 62
             7
100
AcDbCircle
 10
1777.7334500617769
 20
4034.399221079409
 40
2.45000043710102
100
AcDbArc
 50
-65.80424542726505
 51
-38.10709068243835
  0
ARC
  5
313
100
AcDbEntity
  8
LAY0_0
  6
CONTINUOUS
 62
             7
100
AcDbCircle
 10
1778.441572427748
 20
4033.8438163280439
 40
1.55000007947299
100
AcDbArc
 50
-38.10709068245577
 51
38.10703922867148
  0
ARC
  5
312
100
AcDbEntity
  8
LAY0_0
  6
CONTINUOUS
 62
             7
100
AcDbCircle
 10
1776.0416544437519
 20
4033.8438163280439
 40
1.5500000794723
100
AcDbArc
 50
141.89291796894011
 51
-141.89296259255366
  0
ARC
  5
311
100
AcDbEntity
  8
LAY0_0
  6
CONTINUOUS
 62
             7
100
AcDbCircle
 10
1811.2446095630371
 20
4031.993703118937
 40
1.55000007947363
100
AcDbArc
 50
-128.10707269637197
 51
-51.8929532579167
  0
ARC
  5
310
100
AcDbEntity
  8
LAY0_0
  6
CONTINUOUS
 62
             7
100
AcDbCircle
 10
1810.6891285177151
 20
4032.7019857022192
 40
2.45000043710087
100
AcDbArc
 50
-51.89295325790292
 51
-24.19579851307001
  0
ARC
  5
30F
100
AcDbEntity
  8
LAY0_0
  6
CONTINUOUS
 62
             7
100
AcDbCircle
 10
1811.7999380204451
 20
4032.7019857022192
 40
2.45000043710082
100
AcDbArc
 50
-155.8042411015638
 51
-128.10707269635904
  0
ARC
  5
30E
100
AcDbEntity
  8
LAY0_0
  6
CONTINUOUS
 62
             7
100
AcDbCircle
 10
1811.7999380204451
 20
4033.6856131778982
 40
2.45000043710161
100
AcDbArc
 50
128.10704173313263
 51
155.80419647797291
  0
ARC
  5
30D
100
AcDbEntity
  8
LAY0_0
  6
CONTINUOUS
 62
             7
100
AcDbCircle
 10
1812.894550316011
 20
4033.193807069455
 40
3.65000043710088
100
AcDbArc
 50
155.80419647797132
 51
-155.80424110157847
  0
ARC
  5
30C
100
AcDbEntity
  8
LAY0_0
  6
CONTINUOUS
 62
             7
100
AcDbCircle
 10
1801.800012724945
 20
4033.6856131778982
 40
2.45000043710161
100
AcDbArc
 50
128.10704173313263
 51
155.80419647797291
  0
ARC
  5
30B
100
AcDbEntity
  8
LAY0_0
  6
CONTINUOUS
 62
             7
100
AcDbCircle
 10
1802.8945410971569
 20
4033.193807069455
 40
3.65000043710088
100
AcDbArc
 50
155.80419647797132
 51
-155.80424110157114
  0
ARC
  5
30A
100
AcDbEntity
  8
LAY0_0
  6
CONTINUOUS
 62
             7
100
AcDbCircle
 10
1811.2446095630371
 20
4034.393804208431
 40
1.55000007947232
100
AcDbArc
 50
51.89291546450127
 51
128.10704173314807
  0
ARC
  5
309
100
AcDbEntity
  8
LAY0_0
  6
CONTINUOUS
 62
             7
100
AcDbCircle
 10
1809.5945085927519
 20
4033.193807069455
 40
3.65000043710067
100
AcDbArc
 50
-24.19579851307134
 51
24.1957555970075
  0
ARC
  5
308
100
AcDbEntity
  8
LAY0_0
  6
CONTINUOUS
 62
             7
100
AcDbCircle
 10
1810.6891285177151
 20
4033.6856131778982
 40
2.45000043710134
100
AcDbArc
 50
24.1957555970303
 51
51.89291546450684
  0
ARC
  5
307
100
AcDbEntity
  8
LAY0_0
  6
CONTINUOUS
 62
             7
100
AcDbCircle
 10
1790.686119356877
 20
4033.6856131778982
 40
1.95000047683665
100
AcDbArc
 50
24.19575559705607
 51
51.89291546450907
  0
ARC
  5
306
100
AcDbEntity
  8
LAY0_0
  6
CONTINUOUS
 62
             7
100
AcDbCircle
 10
1791.241546996429
 20
4034.393804208431
 40
1.05000000000083
100
AcDbArc
 50
51.89291546453838
 51
128.10704173312882
  0
ARC
  5
305
100
AcDbEntity
  8
LAY0_0
  6
CONTINUOUS
 62
             7
100
AcDbCircle
 10
1789.5915833552681
 20
4033.193807069455
 40
3.14999988079053
100
AcDbArc
 50
-24.195798513069
 51
24.19575559703255
  0
ARC
  5
304
100
AcDbEntity
  8
LAY0_0
  6
CONTINUOUS
 62
             7
100
AcDbCircle
 10
1791.241546996429
 20
4031.993703118937
 40
1.04999999999946
100
AcDbArc
 50
-128.10707269635103
 51
-51.89295325791297
  0
ARC
  5
303
100
AcDbEntity
  8
LAY0_0
  6
CONTINUOUS
 62
             7
100
AcDbCircle
 10
1790.686119356877
 20
4032.7019857022192
 40
1.95000047683636
100
AcDbArc
 50
-51.89295325789991
 51
-24.19579851310262
  0
ARC
  5
302
100
AcDbEntity
  8
LAY0_0
  6
CONTINUOUS
 62
             7
100
AcDbCircle
 10
1770.7415895144161
 20
4068.443782154709
 40
1.00000009934001
100
AcDbArc
 50
90.00000250452057
 51
-179.99999499098493
  0
ARC
  5
301
100
AcDbEntity
  8
LAY0_0
  6
CONTINUOUS
 62
             7
100
AcDbCircle
 10
1791.7969517477941
 20
4032.7019857022192
 40
1.95000047683687
100
AcDbArc
 50
-155.80424110156758
 51
-128.10707269636291
  0
ARC
  5
300
100
AcDbEntity
  8
LAY0_0
  6
CONTINUOUS
 62
             7
100
AcDbCircle
 10
1791.7969517477941
 20
4033.6856131778982
 40
1.95000047683775
100
AcDbArc
 50
128.10704173313115
 51
155.80419647797331
  0
ARC
  5
2FF
100
AcDbEntity
  8
LAY0_0
  6
CONTINUOUS
 62
             7
100
AcDbCircle
 10
1792.8915716727561
 20
4033.193807069455
 40
3.14999988079043
100
AcDbArc
 50
155.804196477988
 51
-155.80424110157054
  0
ARC
  5
2FE
100
AcDbEntity
  8
LAY0_0
  6
CONTINUOUS
 62
             7
100
AcDbCircle
 10
1791.2445453489561
 20
4034.393804208431
 40
1.55000007947302
100
AcDbArc
 50
51.89291546446821
 51
128.10704173314807
  0
ARC
  5
2FD
100
AcDbEntity
  8
LAY0_0
  6
CONTINUOUS
 62
             7
100
AcDbCircle
 10
1796.800050077195
 20
4028.6855513480041
 40
2.45000043710089
100
AcDbArc
 50
128.10704173314576
 51
155.80419647797291
  0
ARC
  5
2FC
100
AcDbEntity
  8
LAY0_0
  6
CONTINUOUS
 62
             7
100
AcDbCircle
 10
1790.6891177094039
 20
4033.6856131778982
 40
2.45000043710134
100
AcDbArc
 50
24.1957555970303
 51
51.89291546450684
  0
ARC
  5
2FB
100
AcDbEntity
  8
LAY0_0
  6
CONTINUOUS
 62
             7
100
AcDbCircle
 10
1790.6891177094039
 20
4032.7019857022192
 40
2.45000043710087
100
AcDbArc
 50
-51.89295325790292
 51
-24.19579851307001
  0
ARC
  5
2FA
100
AcDbEntity
  8
LAY0_0
  6
CONTINUOUS
 62
             7
100
AcDbCircle
 10
1789.594581707795
 20
4033.193807069455
 40
3.6500004371015
100
AcDbArc
 50
-24.19579851306549
 51
24.1957555970075
  0
ARC
  5
2F9
100
AcDbEntity
  8
LAY0_0
  6
CONTINUOUS
 62
             7
100
AcDbCircle
 10
1795.6891413923199
 20
4027.7019086135329
 40
2.45000043710066
100
AcDbArc
 50
-51.89295325789217
 51
-24.19579851306784
  0
ARC
  5
2F8
100
AcDbEntity
  8
LAY0_0
  6
CONTINUOUS
 62
             7
100
AcDbCircle
 10
1794.5945901319201
 20
4028.1937299807678
 40
3.65000043710028
100
AcDbArc
 50
-24.1957985130663
 51
24.19575559702703
  0
ARC
  5
2F7
100
AcDbEntity
  8
LAY0_0
  6
CONTINUOUS
 62
             7
100
AcDbCircle
 10
1796.2445690318721
 20
4026.993763359375
 40
1.55000007947364
100
AcDbArc
 50
-128.10707269631814
 51
-51.89295325791099
  0
ARC
  5
2F6
100
AcDbEntity
  8
LAY0_0
  6
CONTINUOUS
 62
             7
100
AcDbCircle
 10
1797.8945708200119
 20
4028.1937299807678
 40
3.65000043710088
100
AcDbArc
 50
155.80419647797132
 51
-155.80424110158498
  0
ARC
  5
2F5
100
AcDbEntity
  8
LAY0_0
  6
CONTINUOUS
 62
             7
100
AcDbCircle
 10
1796.800050077195
 20
4027.7019086135329
 40
2.45000043710061
100
AcDbArc
 50
-155.80424110156164
 51
-128.10707269636561
  0
ARC
  5
2F4
100
AcDbEntity
  8
LAY0_0
  6
CONTINUOUS
 62
             7
100
AcDbCircle
 10
1799.5945604090659
 20
4033.193807069455
 40
3.65000043709964
100
AcDbArc
 50
-24.19579851307866
 51
24.1957555970075
  0
ARC
  5
2F3
100
AcDbEntity
  8
LAY0_0
  6
CONTINUOUS
 62
             7
100
AcDbCircle
 10
1800.6891345576521
 20
4033.6856131778982
 40
2.45000043710134
100
AcDbArc
 50
24.1957555970303
 51
51.8929154644901
  0
ARC
  5
2F2
100
AcDbEntity
  8
LAY0_0
  6
CONTINUOUS
 62
             7
100
AcDbCircle
 10
1800.6891345576521
 20
4032.7019857022192
 40
2.45000043710144
100
AcDbArc
 50
-51.89295325788618
 51
-24.19579851307001
  0
ARC
  5
2F1
100
AcDbEntity
  8
LAY0_0
  6
CONTINUOUS
 62
             7
100
AcDbCircle
 10
1801.800012724945
 20
4032.7019857022192
 40
2.45000043710061
100
AcDbArc
 50
-155.80424110156164
 51
-128.10707269635904
  0
ARC
  5
2F0
100
AcDbEntity
  8
LAY0_0
  6
CONTINUOUS
 62
             7
100
AcDbCircle
 10
1801.2445393090179
 20
4031.993703118937
 40
1.55000007947349
100
AcDbArc
 50
-128.10707269636538
 51
-51.8929532579167
  0
ARC
  5
2EF
100
AcDbEntity
  8
LAY0_0
  6
CONTINUOUS
 62
             7
100
AcDbCircle
 10
1791.7999577297171
 20
4032.7019857022192
 40
2.45000043710082
100
AcDbArc
 50
-155.8042411015638
 51
-128.10707269635904
  0
ARC
  5
2EE
100
AcDbEntity
  8
LAY0_0
  6
CONTINUOUS
 62
             7
100
AcDbCircle
 10
1791.2445453489561
 20
4031.993703118937
 40
1.55000007947293
100
AcDbArc
 50
-128.10707269633892
 51
-51.89295325789025
  0
ARC
  5
2ED
100
AcDbEntity
  8
LAY0_0
  6
CONTINUOUS
 62
             7
100
AcDbCircle
 10
1792.8945776546791
 20
4033.193807069455
 40
3.65000043710109
100
AcDbArc
 50
155.80419647797277
 51
-155.80424110157992
  0
ARC
  5
2EC
100
AcDbEntity
  8
LAY0_0
  6
CONTINUOUS
 62
             7
100
AcDbCircle
 10
1801.2445393090179
 20
4034.393804208431
 40
1.55000007947246
100
AcDbArc
 50
51.89291546449466
 51
128.1070417331679
  0
ARC
  5
2EB
100
AcDbEntity
  8
LAY0_0
  6
CONTINUOUS
 62
             7
100
AcDbCircle
 10
1791.7999577297171
 20
4033.6856131778982
 40
2.45000043710105
100
AcDbArc
 50
128.10704173311589
 51
155.80419647796418
  0
ARC
  5
2EA
100
AcDbEntity
  8
LAY0_0
  6
CONTINUOUS
 62
             7
100
AcDbCircle
 10
1931.2417097568709
 20
4066.177531184147
 40
1.00000015894602
100
AcDbArc
 50
0.0
 51
85.00041331505526
  0
ARC
  5
2E9
100
AcDbEntity
  8
LAY0_0
  6
CONTINUOUS
 62
             7
100
AcDbCircle
 10
1931.2417097568709
 20
4024.7099800373931
 40
1.00000015894529
100
AcDbArc
 50
-85.00041012730829
 51
0.0
  0
ARC
  5
2E8
100
AcDbEntity
  8
LAY0_2
  6
CONTINUOUS
 62
             7
100
AcDbCircle
 10
1800.4290789743261
 20
4042.9462958021882
 40
0.75263172429919
100
AcDbArc
 50
-151.88320708397237
 51
-89.99999931676607
  0
ARC
  5
2E7
100
AcDbEntity
  8
LAY0_2
  6
CONTINUOUS
 62
             7
100
AcDbCircle
 10
1800.4290789743261
 20
4042.9462958021882
 40
0.75263172429939
100
AcDbArc
 50
173.00000367584261
 51
-162.32838315531569
  0
ARC
  5
2E6
100
AcDbEntity
  8
LAY0_2
  6
CONTINUOUS
 62
             7
100
AcDbCircle
 10
1801.649339788398
 20
4042.9462958021882
 40
0.75263172429823
100
AcDbArc
 50
-89.99999931676607
 51
-81.02676999275744
  0
ARC
  5
2E5
100
AcDbEntity
  8
LAY0_2
  6
CONTINUOUS
 62
             7
100
AcDbCircle
 10
1802.1018087323871
 20
4045.128043585491
 40
0.56942185869507
100
AcDbArc
 50
-7.00000497570304
 51
50.00000025299792
  0
ARC
  5
2E4
100
AcDbEntity
  8
LAY0_2
  6
CONTINUOUS
 62
             7
100
AcDbCircle
 10
1801.649339788398
 20
4042.9462958021882
 40
0.75263172430012
100
AcDbArc
 50
-70.58729029924534
 51
-7.00000497559774
  0
ARC
  5
2E3
100
AcDbEntity
  8
LAY0_2
  6
CONTINUOUS
 62
             7
100
AcDbCircle
 10
1802.2626516534599
 20
4047.941123866603
 40
0.75263172429925
100
AcDbArc
 50
73.39071731104069
 51
90.00000250450448
  0
ARC
  5
2E2
100
AcDbEntity
  8
LAY0_2
  6
CONTINUOUS
 62
             7
100
AcDbCircle
 10
1805.771487050042
 20
4046.4078747215308
 40
0.81821365248447
100
AcDbArc
 50
-55.17223636148059
 51
-7.00000497558348
  0
ARC
  5
2E1
100
AcDbEntity
  8
LAY0_2
  6
CONTINUOUS
 62
             7
100
AcDbCircle
 10
1804.496973602834
 20
4044.8899606619061
 40
0.81821365248568
100
AcDbArc
 50
124.82777228995742
 51
173.00000367576223
  0
ARC
  5
2E0
100
AcDbEntity
  8
LAY0_2
  6
CONTINUOUS
 62
             7
100
AcDbCircle
 10
1801.0423755805959
 20
4047.941123866603
 40
0.75263172429823
100
AcDbArc
 50
90.00000250450448
 51
129.35759472865237
  0
ARC
  5
2DF
100
AcDbEntity
  8
LAY0_2
  6
CONTINUOUS
 62
             7
100
AcDbCircle
 10
1802.2626516534599
 20
4047.941123866603
 40
0.75263172429915
100
AcDbArc
 50
-7.00000497559774
 51
62.95356671208063
  0
ARC
  5
2DE
100
AcDbEntity
  8
LAY0_2
  6
CONTINUOUS
 62
             7
100
AcDbCircle
 10
1801.0423755805959
 20
4047.941123866603
 40
0.75263172429921
100
AcDbArc
 50
139.78968415756634
 51
173.00000367580824
  0
ARC
  5
2DD
100
AcDbEntity
  8
LAY0_2
  6
CONTINUOUS
 62
             7
100
AcDbCircle
 10
1796.665910041226
 20
4042.9462958021882
 40
0.75263172429939
100
AcDbArc
 50
173.00000367584261
 51
-162.32838315531569
  0
ARC
  5
2DC
100
AcDbEntity
  8
LAY0_2
  6
CONTINUOUS
 62
             7
100
AcDbCircle
 10
1798.4994827203591
 20
4047.941123866603
 40
0.75263172429925
100
AcDbArc
 50
73.39071731104069
 51
90.00000250443524
  0
ARC
  5
2DB
100
AcDbEntity
  8
LAY0_2
  6
CONTINUOUS
 62
             7
100
AcDbCircle
 10
1796.665910041226
 20
4042.9462958021882
 40
0.75263172429999
100
AcDbArc
 50
-151.88320708400499
 51
-89.99999931683531
  0
ARC
  5
2DA
100
AcDbEntity
  8
LAY0_2
  6
CONTINUOUS
 62
             7
100
AcDbCircle
 10
1797.886186114089
 20
4042.9462958021882
 40
0.75263172430012
100
AcDbArc
 50
-70.58729029924534
 51
-7.00000497559774
  0
ARC
  5
2D9
100
AcDbEntity
  8
LAY0_2
  6
CONTINUOUS
 62
             7
100
AcDbCircle
 10
1797.886186114089
 20
4042.9462958021882
 40
0.75263172429823
100
AcDbArc
 50
-89.99999931676607
 51
-81.02676999275744
  0
ARC
  5
2D8
100
AcDbEntity
  8
LAY0_2
  6
CONTINUOUS
 62
             7
100
AcDbCircle
 10
1798.4994827203591
 20
4047.941123866603
 40
0.75263172429893
100
AcDbArc
 50
-7.00000497559985
 51
62.95356671203437
  0
ARC
  5
2D7
100
AcDbEntity
  8
LAY0_2
  6
CONTINUOUS
 62
             7
100
AcDbCircle
 10
1800.7338504461079
 20
4044.8899606619061
 40
0.81821365248555
100
AcDbArc
 50
124.82777228994435
 51
173.00000367576999
  0
ARC
  5
2D6
100
AcDbEntity
  8
LAY0_2
  6
CONTINUOUS
 62
             7
100
AcDbCircle
 10
1800.640336942475
 20
4046.1699749034451
 40
0.56942185869468
100
AcDbArc
 50
173.00000367578889
 51
-129.99999132285112
  0
ARC
  5
2D5
100
AcDbEntity
  8
LAY0_2
  6
CONTINUOUS
 62
             7
100
AcDbCircle
 10
1802.0083410051279
 20
4046.4078747215308
 40
0.81821365248511
100
AcDbArc
 50
-55.17223636141524
 51
-7.00000497558348
  0
ARC
  5
2D4
100
AcDbEntity
  8
LAY0_2
  6
CONTINUOUS
 62
             7
100
AcDbCircle
 10
1797.279214276891
 20
4047.941123866603
 40
0.75263172429852
100
AcDbArc
 50
139.78968415752163
 51
173.00000367580824
  0
ARC
  5
2D3
100
AcDbEntity
  8
LAY0_2
  6
CONTINUOUS
 62
             7
100
AcDbCircle
 10
1797.279214276891
 20
4047.941123866603
 40
0.75263172429823
100
AcDbArc
 50
90.00000250450448
 51
129.35759472865237
  0
ARC
  5
2D2
100
AcDbEntity
  8
LAY0_2
  6
CONTINUOUS
 62
             7
100
AcDbCircle
 10
1781.0452334250849
 20
4052.2936941385028
 40
1.1000003178906
100
AcDbArc
 50
-70.58729029925112
 51
-7.00000497556147
  0
ARC
  5
2D1
100
AcDbEntity
  8
LAY0_2
  6
CONTINUOUS
 62
             7
100
AcDbCircle
 10
1781.706534189376
 20
4055.4823237957121
 40
0.83223189230411
100
AcDbArc
 50
-7.00000497561158
 51
50.00000025302694
  0
ARC
  5
2D0
100
AcDbEntity
  8
LAY0_2
  6
CONTINUOUS
 62
             7
100
AcDbCircle
 10
1779.7071213349559
 20
4055.1344080909989
 40
1.19585103922622
100
AcDbArc
 50
124.8277722899339
 51
173.00000367580319
  0
ARC
  5
2CF
100
AcDbEntity
  8
LAY0_2
  6
CONTINUOUS
 62
             7
100
AcDbCircle
 10
1779.5704864865791
 20
4057.0051359274062
 40
0.83223201151411
100
AcDbArc
 50
173.00000367591343
 51
-129.999991322976
  0
ARC
  5
2CE
100
AcDbEntity
  8
LAY0_2
  6
CONTINUOUS
 62
             7
100
AcDbCircle
 10
1805.412501092103
 20
4042.9462958021882
 40
0.75263172429823
100
AcDbArc
 50
-89.99999931674877
 51
-81.02676999275744
  0
ARC
  5
2CD
100
AcDbEntity
  8
LAY0_2
  6
CONTINUOUS
 62
             7
100
AcDbCircle
 10
1804.192202131052
 20
4042.9462958021882
 40
0.75263172429919
100
AcDbArc
 50
-151.88320708397237
 51
-89.99999931676607
  0
ARC
  5
2CC
100
AcDbEntity
  8
LAY0_2
  6
CONTINUOUS
 62
             7
100
AcDbCircle
 10
1805.412501092103
 20
4042.9462958021882
 40
0.75263172430012
100
AcDbArc
 50
-70.58729029924534
 51
-7.00000497559774
  0
ARC
  5
2CB
100
AcDbEntity
  8
LAY0_2
  6
CONTINUOUS
 62
             7
100
AcDbCircle
 10
1804.403467728597
 20
4046.1699749034451
 40
0.56942185869581
100
AcDbArc
 50
173.00000367580282
 51
-129.99999132292123
  0
ARC
  5
2CA
100
AcDbEntity
  8
LAY0_2
  6
CONTINUOUS
 62
             7
100
AcDbCircle
 10
1805.8649547773
 20
4045.128043585491
 40
0.5694218586962
100
AcDbArc
 50
-7.0000049756891
 51
50.00000025299792
  0
ARC
  5
2C9
100
AcDbEntity
  8
LAY0_2
  6
CONTINUOUS
 62
             7
100
AcDbCircle
 10
1804.192202131052
 20
4042.9462958021882
 40
0.75263172429939
100
AcDbArc
 50
173.00000367584261
 51
-162.32838315531569
  0
ARC
  5
2C8
100
AcDbEntity
  8
LAY0_2
  6
CONTINUOUS
 62
             7
100
AcDbCircle
 10
1804.805506366718
 20
4047.941123866603
 40
0.75263172429823
100
AcDbArc
 50
90.00000250450448
 51
129.35759472865237
  0
ARC
  5
2C7
100
AcDbEntity
  8
LAY0_2
  6
CONTINUOUS
 62
             7
100
AcDbCircle
 10
1781.5698535646229
 20
4057.35296007937
 40
1.19585080080884
100
AcDbArc
 50
-55.17223636144219
 51
-7.00000497563446
  0
ARC
  5
2C6
100
AcDbEntity
  8
LAY0_2
  6
CONTINUOUS
 62
             7
100
AcDbCircle
 10
1804.805506366718
 20
4047.941123866603
 40
0.75263172429852
100
AcDbArc
 50
139.78968415752163
 51
173.00000367580824
  0
ARC
  5
2C5
100
AcDbEntity
  8
LAY0_2
  6
CONTINUOUS
 62
             7
100
AcDbCircle
 10
1806.0258053277689
 20
4047.941123866603
 40
0.75263172429899
100
AcDbArc
 50
73.39071731110704
 51
90.00000250457373
  0
ARC
  5
2C4
100
AcDbEntity
  8
LAY0_2
  6
CONTINUOUS
 62
             7
100
AcDbCircle
 10
1806.0258053277689
 20
4047.941123866603
 40
0.75263172429825
100
AcDbArc
 50
-7.00000497560618
 51
62.95356671215771
  0
ARC
  5
2C3
100
AcDbEntity
  8
LAY0_2
  6
CONTINUOUS
 62
             7
100
AcDbCircle
 10
1801.261812260982
 20
4052.2936941385028
 40
1.1000003178917
100
AcDbArc
 50
173.00000367576024
 51
-162.32838315522341
  0
ARC
  5
2C2
100
AcDbEntity
  8
LAY0_2
  6
CONTINUOUS
 62
             7
100
AcDbCircle
 10
1791.158150071552
 20
4059.5936830917731
 40
1.10000031789105
100
AcDbArc
 50
90.0000025044514
 51
129.35759472864024
  0
ARC
  5
2C1
100
AcDbEntity
  8
LAY0_2
  6
CONTINUOUS
 62
             7
100
AcDbCircle
 10
1801.7071477199499
 20
4055.1344080909989
 40
1.19585103922687
100
AcDbArc
 50
124.82777228997861
 51
173.00000367580319
  0
ARC
  5
2C0
100
AcDbEntity
  8
LAY0_2
  6
CONTINUOUS
 62
             7
100
AcDbCircle
 10
1791.158150071552
 20
4059.5936830917731
 40
1.10000031789154
100
AcDbArc
 50
139.78968415748943
 51
173.00000367577798
  0
ARC
  5
2BF
100
AcDbEntity
  8
LAY0_2
  6
CONTINUOUS
 62
             7
100
AcDbCircle
 10
1792.706574084757
 20
4055.4823237957121
 40
0.83223189230523
100
AcDbArc
 50
-7.00000497560205
 51
50.00000025297898
  0
ARC
  5
2BE
100
AcDbEntity
  8
LAY0_2
  6
CONTINUOUS
 62
             7
100
AcDbCircle
 10
1792.0452656910711
 20
4052.2936941385028
 40
1.10000031789053
100
AcDbArc
 50
-70.58729029926229
 51
-7.00000497556291
  0
ARC
  5
2BD
100
AcDbEntity
  8
LAY0_2
  6
CONTINUOUS
 62
             7
100
AcDbCircle
 10
1790.707153600943
 20
4055.1344080909989
 40
1.19585103922687
100
AcDbArc
 50
124.82777228997861
 51
173.00000367580981
  0
ARC
  5
2BC
100
AcDbEntity
  8
LAY0_2
  6
CONTINUOUS
 62
             7
100
AcDbCircle
 10
1790.570518752565
 20
4057.0051359274062
 40
0.83223201151411
100
AcDbArc
 50
173.00000367591343
 51
-129.999991322976
  0
ARC
  5
2BB
100
AcDbEntity
  8
LAY0_2
  6
CONTINUOUS
 62
             7
100
AcDbCircle
 10
1792.0452656910711
 20
4052.2936941385028
 40
1.10000031789059
100
AcDbArc
 50
-89.99999931672879
 51
-81.02676999276594
  0
ARC
  5
2BA
100
AcDbEntity
  8
LAY0_2
  6
CONTINUOUS
 62
             7
100
AcDbCircle
 10
1792.941620508836
 20
4059.5936830917731
 40
1.10000031789053
100
AcDbArc
 50
73.39071731105265
 51
90.00000250449878
  0
ARC
  5
2B9
100
AcDbEntity
  8
LAY0_2
  6
CONTINUOUS
 62
             7
100
AcDbCircle
 10
1792.941620508836
 20
4059.5936830917731
 40
1.10000031789164
100
AcDbArc
 50
-7.00000497563344
 51
62.95356671203016
  0
ARC
  5
2B8
100
AcDbEntity
  8
LAY0_2
  6
CONTINUOUS
 62
             7
100
AcDbCircle
 10
1790.261818141975
 20
4052.2936941385028
 40
1.10000031789128
100
AcDbArc
 50
-151.88320708397066
 51
-89.99999931677616
  0
ARC
  5
2B7
100
AcDbEntity
  8
LAY0_2
  6
CONTINUOUS
 62
             7
100
AcDbCircle
 10
1790.261818141975
 20
4052.2936941385028
 40
1.10000031789193
100
AcDbArc
 50
173.00000367576169
 51
-162.32838315522341
  0
ARC
  5
2B6
100
AcDbEntity
  8
LAY0_2
  6
CONTINUOUS
 62
             7
100
AcDbCircle
 10
1792.56988583061
 20
4057.35296007937
 40
1.19585080080819
100
AcDbArc
 50
-55.1722363614869
 51
-7.0000049756411
  0
ARC
  5
2B5
100
AcDbEntity
  8
LAY0_2
  6
CONTINUOUS
 62
             7
100
AcDbCircle
 10
1786.545249558078
 20
4052.2936941385028
 40
1.10000031789059
100
AcDbArc
 50
-89.99999931677616
 51
-81.02676999276594
  0
ARC
  5
2B4
100
AcDbEntity
  8
LAY0_2
  6
CONTINUOUS
 62
             7
100
AcDbCircle
 10
1784.7618020089819
 20
4052.2936941385028
 40
1.10000031789208
100
AcDbArc
 50
-151.88320708399297
 51
-89.99999931677616
  0
ARC
  5
2B3
100
AcDbEntity
  8
LAY0_2
  6
CONTINUOUS
 62
             7
100
AcDbCircle
 10
1787.2065579517639
 20
4055.4823237957121
 40
0.83223189230523
100
AcDbArc
 50
-7.00000497560205
 51
50.00000025296699
  0
ARC
  5
2B2
100
AcDbEntity
  8
LAY0_2
  6
CONTINUOUS
 62
             7
100
AcDbCircle
 10
1786.545249558078
 20
4052.2936941385028
 40
1.1000003178906
100
AcDbArc
 50
-70.58729029925112
 51
-7.00000497556291
  0
ARC
  5
2B1
100
AcDbEntity
  8
LAY0_2
  6
CONTINUOUS
 62
             7
100
AcDbCircle
 10
1784.7618020089819
 20
4052.2936941385028
 40
1.1000003178917
100
AcDbArc
 50
173.00000367576024
 51
-162.32838315522341
  0
ARC
  5
2B0
100
AcDbEntity
  8
LAY0_2
  6
CONTINUOUS
 62
             7
100
AcDbCircle
 10
1785.658118679768
 20
4059.5936830917731
 40
1.10000031789154
100
AcDbArc
 50
139.78968415748943
 51
173.00000367578374
  0
ARC
  5
2AF
100
AcDbEntity
  8
LAY0_2
  6
CONTINUOUS
 62
             7
100
AcDbCircle
 10
1785.658118679768
 20
4059.5936830917731
 40
1.10000031789105
100
AcDbArc
 50
90.00000250449878
 51
129.35759472868605
  0
ARC
  5
2AE
100
AcDbEntity
  8
LAY0_2
  6
CONTINUOUS
 62
             7
100
AcDbCircle
 10
1787.441596746447
 20
4059.5936830917731
 40
1.10000031789053
100
AcDbArc
 50
73.39071731105265
 51
90.0000025044514
  0
ARC
  5
2AD
100
AcDbEntity
  8
LAY0_2
  6
CONTINUOUS
 62
             7
100
AcDbCircle
 10
1787.441596746447
 20
4059.5936830917731
 40
1.10000031789164
100
AcDbArc
 50
-7.00000497563344
 51
62.95356671203016
  0
ARC
  5
2AC
100
AcDbEntity
  8
LAY0_2
  6
CONTINUOUS
 62
             7
100
AcDbCircle
 10
1785.0705026195719
 20
4057.0051359274062
 40
0.83223201151389
100
AcDbArc
 50
173.00000367591153
 51
-129.99999132296401
  0
ARC
  5
2AB
100
AcDbEntity
  8
LAY0_2
  6
CONTINUOUS
 62
             7
100
AcDbCircle
 10
1779.2617782465929
 20
4052.2936941385028
 40
1.1000003178917
100
AcDbArc
 50
173.00000367576024
 51
-162.32838315522341
  0
ARC
  5
2AA
100
AcDbEntity
  8
LAY0_2
  6
CONTINUOUS
 62
             7
100
AcDbCircle
 10
1781.941572984058
 20
4059.5936830917731
 40
1.10000031789053
100
AcDbArc
 50
73.39071731105265
 51
90.0000025044514
  0
ARC
  5
2A9
100
AcDbEntity
  8
LAY0_2
  6
CONTINUOUS
 62
             7
100
AcDbCircle
 10
1781.0452334250849
 20
4052.2936941385028
 40
1.10000031789059
100
AcDbArc
 50
-89.99999931676432
 51
-81.02676999276594
  0
ARC
  5
2A8
100
AcDbEntity
  8
LAY0_2
  6
CONTINUOUS
 62
             7
100
AcDbCircle
 10
1779.2617782465929
 20
4052.2936941385028
 40
1.10000031789208
100
AcDbArc
 50
-151.88320708399297
 51
-89.99999931677616
  0
ARC
  5
2A7
100
AcDbEntity
  8
LAY0_2
  6
CONTINUOUS
 62
             7
100
AcDbCircle
 10
1781.941572984058
 20
4059.5936830917731
 40
1.10000031789164
100
AcDbArc
 50
-7.00000497563344
 51
62.95356671203016
  0
ARC
  5
2A6
100
AcDbEntity
  8
LAY0_2
  6
CONTINUOUS
 62
             7
100
AcDbCircle
 10
1787.0698696976169
 20
4057.35296007937
 40
1.19585080080832
100
AcDbArc
 50
-55.17223636147796
 51
-7.0000049756411
  0
ARC
  5
2A5
100
AcDbEntity
  8
LAY0_2
  6
CONTINUOUS
 62
             7
100
AcDbCircle
 10
1785.2071450973449
 20
4055.1344080909989
 40
1.19585103922687
100
AcDbArc
 50
124.82777228997861
 51
173.00000367580319
  0
ARC
  5
2A4
100
AcDbEntity
  8
LAY0_2
  6
CONTINUOUS
 62
             7
100
AcDbCircle
 10
1780.1581101761701
 20
4059.5936830917731
 40
1.10000031789084
100
AcDbArc
 50
139.78968415745882
 51
173.00000367577942
  0
ARC
  5
2A3
100
AcDbEntity
  8
LAY0_2
  6
CONTINUOUS
 62
             7
100
AcDbCircle
 10
1780.1581101761701
 20
4059.5936830917731
 40
1.10000031789105
100
AcDbArc
 50
90.0000025044514
 51
129.35759472864939
  0
ARC
  5
2A2
100
AcDbEntity
  8
LAY0_2
  6
CONTINUOUS
 62
             7
100
AcDbCircle
 10
1798.3386550580781
 20
4045.128043585491
 40
0.5694218586953
100
AcDbArc
 50
-7.00000497570025
 51
50.00000025299792
  0
ARC
  5
2A1
100
AcDbEntity
  8
LAY0_2
  6
CONTINUOUS
 62
             7
100
AcDbCircle
 10
1794.4820718034889
 20
4046.4078747215308
 40
0.81821365248511
100
AcDbArc
 50
-55.17223636141524
 51
-7.00000497558348
  0
ARC
  5
2A0
100
AcDbEntity
  8
LAY0_2
  6
CONTINUOUS
 62
             7
100
AcDbCircle
 10
1794.1230858455499
 20
4042.9462958021882
 40
0.75263172430012
100
AcDbArc
 50
-70.58729029924534
 51
-7.00000497559774
  0
ARC
  5
29F
100
AcDbEntity
  8
LAY0_2
  6
CONTINUOUS
 62
             7
100
AcDbCircle
 10
1794.1230858455499
 20
4042.9462958021882
 40
0.75263172429823
100
AcDbArc
 50
-89.99999931667954
 51
-81.02676999267194
  0
ARC
  5
29E
100
AcDbEntity
  8
LAY0_2
  6
CONTINUOUS
 62
             7
100
AcDbCircle
 10
1794.575554789539
 20
4045.128043585491
 40
0.5694218586953
100
AcDbArc
 50
-7.00000497570025
 51
50.0000002529804
  0
ARC
  5
29D
100
AcDbEntity
  8
LAY0_2
  6
CONTINUOUS
 62
             7
100
AcDbCircle
 10
1793.2075888738641
 20
4044.8899606619061
 40
0.81821365248568
100
AcDbArc
 50
124.82777228995742
 51
173.00000367576223
  0
ARC
  5
29C
100
AcDbEntity
  8
LAY0_2
  6
CONTINUOUS
 62
             7
100
AcDbCircle
 10
1793.114082999627
 20
4046.1699749034451
 40
0.56942185869581
100
AcDbArc
 50
173.00000367580282
 51
-129.99999132292123
  0
ARC
  5
29B
100
AcDbEntity
  8
LAY0_2
  6
CONTINUOUS
 62
             7
100
AcDbCircle
 10
1790.9731830011369
 20
4047.941123866603
 40
0.75263172429925
100
AcDbArc
 50
73.39071731104069
 51
90.00000250450448
  0
ARC
  5
29A
100
AcDbEntity
  8
LAY0_2
  6
CONTINUOUS
 62
             7
100
AcDbCircle
 10
1790.9731830011369
 20
4047.941123866603
 40
0.75263172429915
100
AcDbArc
 50
-7.00000497559774
 51
62.95356671209605
  0
ARC
  5
299
100
AcDbEntity
  8
LAY0_2
  6
CONTINUOUS
 62
             7
100
AcDbCircle
 10
1789.1396103220029
 20
4042.9462958021882
 40
0.75263172429916
100
AcDbArc
 50
173.0000036758405
 51
-162.32838315528943
  0
ARC
  5
298
100
AcDbEntity
  8
LAY0_2
  6
CONTINUOUS
 62
             7
100
AcDbCircle
 10
1790.359878765471
 20
4042.9462958021882
 40
0.75263172429823
100
AcDbArc
 50
-89.99999931674877
 51
-81.02676999275744
  0
ARC
  5
297
100
AcDbEntity
  8
LAY0_2
  6
CONTINUOUS
 62
             7
100
AcDbCircle
 10
1789.1396103220029
 20
4042.9462958021882
 40
0.75263172429899
100
AcDbArc
 50
-151.88320708396421
 51
-89.99999931674877
  0
ARC
  5
296
100
AcDbEntity
  8
LAY0_2
  6
CONTINUOUS
 62
             7
100
AcDbCircle
 10
1796.9706815130071
 20
4044.8899606619061
 40
0.81821365248568
100
AcDbArc
 50
124.82777228995742
 51
173.00000367576223
  0
ARC
  5
295
100
AcDbEntity
  8
LAY0_2
  6
CONTINUOUS
 62
             7
100
AcDbCircle
 10
1796.87717563877
 20
4046.1699749034451
 40
0.56942185869581
100
AcDbArc
 50
173.00000367580282
 51
-129.99999132292123
  0
ARC
  5
294
100
AcDbEntity
  8
LAY0_2
  6
CONTINUOUS
 62
             7
100
AcDbCircle
 10
1798.2451644426319
 20
4046.4078747215308
 40
0.81821365248511
100
AcDbArc
 50
-55.17223636141524
 51
-7.00000497558348
  0
ARC
  5
293
100
AcDbEntity
  8
LAY0_2
  6
CONTINUOUS
 62
             7
100
AcDbCircle
 10
1789.752906928273
 20
4047.941123866603
 40
0.75263172429852
100
AcDbArc
 50
139.78968415752163
 51
173.00000367580824
  0
ARC
  5
292
100
AcDbEntity
  8
LAY0_2
  6
CONTINUOUS
 62
             7
100
AcDbCircle
 10
1789.752906928273
 20
4047.941123866603
 40
0.75263172429823
100
AcDbArc
 50
90.00000250443524
 51
129.35759472865237
  0
ARC
  5
291
100
AcDbEntity
  8
LAY0_2
  6
CONTINUOUS
 62
             7
100
AcDbCircle
 10
1790.359878765471
 20
4042.9462958021882
 40
0.75263172430012
100
AcDbArc
 50
-70.58729029924534
 51
-7.00000497559774
  0
ARC
  5
290
100
AcDbEntity
  8
LAY0_2
  6
CONTINUOUS
 62
             7
100
AcDbCircle
 10
1794.7363900812161
 20
4047.941123866603
 40
0.75263172429893
100
AcDbArc
 50
-7.00000497559985
 51
62.95356671209605
  0
ARC
  5
28F
100
AcDbEntity
  8
LAY0_2
  6
CONTINUOUS
 62
             7
100
AcDbCircle
 10
1793.516121637748
 20
4047.941123866603
 40
0.75263172429852
100
AcDbArc
 50
139.78968415752163
 51
173.00000367580824
  0
ARC
  5
28E
100
AcDbEntity
  8
LAY0_2
  6
CONTINUOUS
 62
             7
100
AcDbCircle
 10
1794.7363900812161
 20
4047.941123866603
 40
0.75263172429925
100
AcDbArc
 50
73.39071731104069
 51
90.00000250452179
  0
ARC
  5
28D
100
AcDbEntity
  8
LAY0_2
  6
CONTINUOUS
 62
             7
100
AcDbCircle
 10
1792.9028174020821
 20
4042.9462958021882
 40
0.75263172429919
100
AcDbArc
 50
-151.88320708397237
 51
-89.99999931676607
  0
ARC
  5
28C
100
AcDbEntity
  8
LAY0_2
  6
CONTINUOUS
 62
             7
100
AcDbCircle
 10
1792.9028174020821
 20
4042.9462958021882
 40
0.75263172429849
100
AcDbArc
 50
173.00000367583417
 51
-162.32838315529469
  0
ARC
  5
28B
100
AcDbEntity
  8
LAY0_2
  6
CONTINUOUS
 62
             7
100
AcDbCircle
 10
1789.350868290152
 20
4046.1699749034451
 40
0.56942185869581
100
AcDbArc
 50
173.00000367580282
 51
-129.99999132292123
  0
ARC
  5
28A
100
AcDbEntity
  8
LAY0_2
  6
CONTINUOUS
 62
             7
100
AcDbCircle
 10
1790.8123400800639
 20
4045.128043585491
 40
0.5694218586953
100
AcDbArc
 50
-7.00000497570025
 51
50.0000002529804
  0
ARC
  5
289
100
AcDbEntity
  8
LAY0_2
  6
CONTINUOUS
 62
             7
100
AcDbCircle
 10
1789.4443817937849
 20
4044.8899606619061
 40
0.81821365248555
100
AcDbArc
 50
124.82777228994435
 51
173.00000367576223
  0
ARC
  5
288
100
AcDbEntity
  8
LAY0_2
  6
CONTINUOUS
 62
             7
100
AcDbCircle
 10
1793.516121637748
 20
4047.941123866603
 40
0.75263172429823
100
AcDbArc
 50
90.00000250450448
 51
129.35759472865237
  0
ARC
  5
287
100
AcDbEntity
  8
LAY0_2
  6
CONTINUOUS
 62
             7
100
AcDbCircle
 10
1790.71886472341
 20
4046.4078747215308
 40
0.81821365248447
100
AcDbArc
 50
-55.17223636148059
 51
-7.00000497559124
  0
ARC
  5
286
100
AcDbEntity
  8
LAY0_2
  6
CONTINUOUS
 62
             7
100
AcDbCircle
 10
1921.4416441122789
 20
4045.443763240165
 40
6.7500015497203
100
AcDbArc
 50
-11.86438374024672
 51
11.8643954657047
  0
ARC
  5
285
100
AcDbEntity
  8
LAY0_2
  6
CONTINUOUS
 62
             7
100
AcDbCircle
 10
1926.3593237269299
 20
4046.4768902354308
 40
1.72500029802346
100
AcDbArc
 50
11.86439546573227
 51
84.9999556923985
  0
ARC
  5
284
100
AcDbEntity
  8
LAY0_2
  6
CONTINUOUS
 62
             7
100
AcDbCircle
 10
1926.3593237269299
 20
4044.4106209861079
 40
1.72500029802349
100
AcDbArc
 50
-84.99994567444878
 51
-11.86438374022831
  0
ARC
  5
283
100
AcDbEntity
  8
LAY0_2
  6
CONTINUOUS
 62
             7
100
AcDbCircle
 10
1807.2071562235469
 20
4055.1344080909989
 40
1.19585103922687
100
AcDbArc
 50
124.82777228997861
 51
173.00000367580319
  0
ARC
  5
282
100
AcDbEntity
  8
LAY0_2
  6
CONTINUOUS
 62
             7
100
AcDbCircle
 10
1809.0699113414021
 20
4057.35296007937
 40
1.19585080080819
100
AcDbArc
 50
-55.1722363614869
 51
-7.00000497563579
  0
ARC
  5
281
100
AcDbEntity
  8
LAY0_2
  6
CONTINUOUS
 62
             7
100
AcDbCircle
 10
1802.1581518199559
 20
4059.5936830917731
 40
1.10000031789105
100
AcDbArc
 50
90.00000250454615
 51
129.35759472867687
  0
ARC
  5
280
100
AcDbEntity
  8
LAY0_2
  6
CONTINUOUS
 62
             7
100
AcDbCircle
 10
1808.54526068428
 20
4052.2936941385028
 40
1.1000003178906
100
AcDbArc
 50
-70.58729029925112
 51
-7.00000497556291
  0
ARC
  5
27F
100
AcDbEntity
  8
LAY0_2
  6
CONTINUOUS
 62
             7
100
AcDbCircle
 10
1809.2065233015919
 20
4055.4823237957121
 40
0.83223189230523
100
AcDbArc
 50
-7.00000497560205
 51
50.00000025302694
  0
ARC
  5
27E
100
AcDbEntity
  8
LAY0_2
  6
CONTINUOUS
 62
             7
100
AcDbCircle
 10
1807.0704984869819
 20
4057.0051359274062
 40
0.83223201151389
100
AcDbArc
 50
173.00000367591153
 51
-129.99999132296401
  0
ARC
  5
27D
100
AcDbEntity
  8
LAY0_2
  6
CONTINUOUS
 62
             7
100
AcDbCircle
 10
1802.1581518199559
 20
4059.5936830917731
 40
1.10000031789223
100
AcDbArc
 50
139.78968415752001
 51
173.00000367579096
  0
ARC
  5
27C
100
AcDbEntity
  8
LAY0_2
  6
CONTINUOUS
 62
             7
100
AcDbCircle
 10
1803.045290327661
 20
4052.2936941385028
 40
1.10000031789059
100
AcDbArc
 50
-89.99999931677616
 51
-81.02676999270743
  0
ARC
  5
27B
100
AcDbEntity
  8
LAY0_2
  6
CONTINUOUS
 62
             7
100
AcDbCircle
 10
1803.045290327661
 20
4052.2936941385028
 40
1.1000003178906
100
AcDbArc
 50
-70.58729029925112
 51
-7.00000497556291
  0
ARC
  5
27A
100
AcDbEntity
  8
LAY0_2
  6
CONTINUOUS
 62
             7
100
AcDbCircle
 10
1803.7065453155781
 20
4055.4823237957121
 40
0.83223189230501
100
AcDbArc
 50
-7.00000497560395
 51
50.00000025302694
  0
ARC
  5
279
100
AcDbEntity
  8
LAY0_2
  6
CONTINUOUS
 62
             7
100
AcDbCircle
 10
1803.9415917396559
 20
4059.5936830917731
 40
1.10000031789186
100
AcDbArc
 50
-7.000004975632
 51
62.95356671203016
  0
ARC
  5
278
100
AcDbEntity
  8
LAY0_2
  6
CONTINUOUS
 62
             7
100
AcDbCircle
 10
1803.9415917396559
 20
4059.5936830917731
 40
1.10000031789053
100
AcDbArc
 50
73.39071731105265
 51
90.00000250449878
  0
ARC
  5
277
100
AcDbEntity
  8
LAY0_2
  6
CONTINUOUS
 62
             7
100
AcDbCircle
 10
1801.261789372795
 20
4052.2936941385028
 40
1.10000031789208
100
AcDbArc
 50
-151.88320708399297
 51
-89.99999931677616
  0
ARC
  5
276
100
AcDbEntity
  8
LAY0_2
  6
CONTINUOUS
 62
             7
100
AcDbCircle
 10
1808.54526068428
 20
4052.2936941385028
 40
1.10000031789059
100
AcDbArc
 50
-89.99999931677616
 51
-81.02676999271914
  0
ARC
  5
275
100
AcDbEntity
  8
LAY0_2
  6
CONTINUOUS
 62
             7
100
AcDbCircle
 10
1809.628108451609
 20
4045.128043585491
 40
0.5694218586962
100
AcDbArc
 50
-7.0000049756891
 51
50.00000025299792
  0
ARC
  5
274
100
AcDbEntity
  8
LAY0_2
  6
CONTINUOUS
 62
             7
100
AcDbCircle
 10
1808.1666595498839
 20
4046.1699749034451
 40
0.56942185869558
100
AcDbArc
 50
173.00000367580006
 51
-129.99999132292123
  0
ARC
  5
273
100
AcDbEntity
  8
LAY0_2
  6
CONTINUOUS
 62
             7
100
AcDbCircle
 10
1808.2601654241209
 20
4044.8899606619061
 40
0.81821365248555
100
AcDbArc
 50
124.82777228994435
 51
173.00000367576223
  0
ARC
  5
272
100
AcDbEntity
  8
LAY0_2
  6
CONTINUOUS
 62
             7
100
AcDbCircle
 10
1807.9553939523389
 20
4042.9462958021882
 40
0.75263172429899
100
AcDbArc
 50
-151.88320708396421
 51
-89.99999931674877
  0
ARC
  5
271
100
AcDbEntity
  8
LAY0_2
  6
CONTINUOUS
 62
             7
100
AcDbCircle
 10
1809.1756395076211
 20
4042.9462958021882
 40
0.75263172429823
100
AcDbArc
 50
-89.99999931676607
 51
-81.02676999275744
  0
ARC
  5
270
100
AcDbEntity
  8
LAY0_2
  6
CONTINUOUS
 62
             7
100
AcDbCircle
 10
1809.1756395076211
 20
4042.9462958021882
 40
0.75263172430004
100
AcDbArc
 50
-70.58729029926168
 51
-7.00000497559985
  0
ARC
  5
26F
100
AcDbEntity
  8
LAY0_2
  6
CONTINUOUS
 62
             7
100
AcDbCircle
 10
1809.534625465559
 20
4046.4078747215308
 40
0.81821365248511
100
AcDbArc
 50
-55.17223636141524
 51
-7.00000497557572
  0
ARC
  5
26E
100
AcDbEntity
  8
LAY0_2
  6
CONTINUOUS
 62
             7
100
AcDbCircle
 10
1809.4416155020449
 20
4059.5936830917731
 40
1.10000031789059
100
AcDbArc
 50
73.3907173110413
 51
90.00000250449878
  0
ARC
  5
26D
100
AcDbEntity
  8
LAY0_2
  6
CONTINUOUS
 62
             7
100
AcDbCircle
 10
1806.761790246996
 20
4052.2936941385028
 40
1.10000031789193
100
AcDbArc
 50
173.00000367576169
 51
-162.32838315522341
  0
ARC
  5
26C
100
AcDbEntity
  8
LAY0_2
  6
CONTINUOUS
 62
             7
100
AcDbCircle
 10
1806.761790246996
 20
4052.2936941385028
 40
1.10000031789128
100
AcDbArc
 50
-151.88320708397066
 51
-89.99999931677616
  0
ARC
  5
26B
100
AcDbEntity
  8
LAY0_2
  6
CONTINUOUS
 62
             7
100
AcDbCircle
 10
1807.6581450647609
 20
4059.5936830917731
 40
1.10000031789105
100
AcDbArc
 50
90.00000250449878
 51
129.35759472867687
  0
ARC
  5
26A
100
AcDbEntity
  8
LAY0_2
  6
CONTINUOUS
 62
             7
100
AcDbCircle
 10
1807.6581450647609
 20
4059.5936830917731
 40
1.10000031789136
100
AcDbArc
 50
139.78968415748179
 51
173.00000367578374
  0
ARC
  5
269
100
AcDbEntity
  8
LAY0_2
  6
CONTINUOUS
 62
             7
100
AcDbCircle
 10
1809.4416155020449
 20
4059.5936830917731
 40
1.10000031789186
100
AcDbArc
 50
-7.000004975632
 51
62.95356671203016
  0
ARC
  5
268
100
AcDbEntity
  8
LAY0_2
  6
CONTINUOUS
 62
             7
100
AcDbCircle
 10
1798.069856187228
 20
4057.35296007937
 40
1.19585080080884
100
AcDbArc
 50
-55.17223636144219
 51
-7.00000497563579
  0
ARC
  5
267
100
AcDbEntity
  8
LAY0_2
  6
CONTINUOUS
 62
             7
100
AcDbCircle
 10
1796.6581127987749
 20
4059.5936830917731
 40
1.10000031789136
100
AcDbArc
 50
139.78968415748179
 51
173.00000367578374
  0
ARC
  5
266
100
AcDbEntity
  8
LAY0_2
  6
CONTINUOUS
 62
             7
100
AcDbCircle
 10
1798.4415832360589
 20
4059.5936830917731
 40
1.10000031789073
100
AcDbArc
 50
-7.00000497563921
 51
62.95356671203016
  0
ARC
  5
265
100
AcDbEntity
  8
LAY0_2
  6
CONTINUOUS
 62
             7
100
AcDbCircle
 10
1798.4415832360589
 20
4059.5936830917731
 40
1.10000031789053
100
AcDbArc
 50
73.39071731105265
 51
90.00000250449878
  0
ARC
  5
264
100
AcDbEntity
  8
LAY0_2
  6
CONTINUOUS
 62
             7
100
AcDbCircle
 10
1801.5704823539891
 20
4057.0051359274062
 40
0.83223201151411
100
AcDbArc
 50
173.00000367591343
 51
-129.999991322976
  0
ARC
  5
263
100
AcDbEntity
  8
LAY0_2
  6
CONTINUOUS
 62
             7
100
AcDbCircle
 10
1803.5698952084081
 20
4057.35296007937
 40
1.19585080080819
100
AcDbArc
 50
-55.1722363614869
 51
-7.00000497563579
  0
ARC
  5
262
100
AcDbEntity
  8
LAY0_2
  6
CONTINUOUS
 62
             7
100
AcDbCircle
 10
1796.6581127987749
 20
4059.5936830917731
 40
1.10000031789105
100
AcDbArc
 50
90.0000025044514
 51
129.35759472867687
  0
ARC
  5
261
100
AcDbEntity
  8
LAY0_2
  6
CONTINUOUS
 62
             7
100
AcDbCircle
 10
1795.761780869198
 20
4052.2936941385028
 40
1.1000003178917
100
AcDbArc
 50
173.00000367576024
 51
-162.32838315522341
  0
ARC
  5
260
100
AcDbEntity
  8
LAY0_2
  6
CONTINUOUS
 62
             7
100
AcDbCircle
 10
1798.20653681198
 20
4055.4823237957121
 40
0.83223189230523
100
AcDbArc
 50
-7.00000497560205
 51
50.00000025297898
  0
ARC
  5
25F
100
AcDbEntity
  8
LAY0_2
  6
CONTINUOUS
 62
             7
100
AcDbCircle
 10
1796.0704967385791
 20
4057.0051359274062
 40
0.83223201151321
100
AcDbArc
 50
173.00000367590579
 51
-129.99999132292805
  0
ARC
  5
25E
100
AcDbEntity
  8
LAY0_2
  6
CONTINUOUS
 62
             7
100
AcDbCircle
 10
1796.2071315869571
 20
4055.1344080909989
 40
1.195851039227
100
AcDbArc
 50
124.82777228998755
 51
173.00000367580981
  0
ARC
  5
25D
100
AcDbEntity
  8
LAY0_2
  6
CONTINUOUS
 62
             7
100
AcDbCircle
 10
1795.761780869198
 20
4052.2936941385028
 40
1.10000031789208
100
AcDbArc
 50
-151.88320708399297
 51
-89.99999931677616
  0
ARC
  5
25C
100
AcDbEntity
  8
LAY0_2
  6
CONTINUOUS
 62
             7
100
AcDbCircle
 10
1797.54523604769
 20
4052.2936941385028
 40
1.10000031789059
100
AcDbArc
 50
-89.99999931677616
 51
-81.02676999276594
  0
ARC
  5
25B
100
AcDbEntity
  8
LAY0_2
  6
CONTINUOUS
 62
             7
100
AcDbCircle
 10
1797.54523604769
 20
4052.2936941385028
 40
1.1000003178906
100
AcDbArc
 50
-70.58729029925112
 51
-7.00000497556291
  0
ARC
  5
25A
100
AcDbEntity
  8
LAY0_2
  6
CONTINUOUS
 62
             7
100
AcDbCircle
 10
1807.9553939523389
 20
4042.9462958021882
 40
0.75263172429916
100
AcDbArc
 50
173.0000036758405
 51
-162.32838315528943
  0
ARC
  5
259
100
AcDbEntity
  8
LAY0_2
  6
CONTINUOUS
 62
             7
100
AcDbCircle
 10
1864.5416069984469
 20
4066.4437513192338
 40
1.50000023841813
100
AcDbArc
 50
90.00000250446831
 51
-89.9999993167658
  0
ARC
  5
258
100
AcDbEntity
  8
LAY0_2
  6
CONTINUOUS
 62
             7
100
AcDbCircle
 10
1864.5416069984469
 20
4024.4437599023049
 40
1.50000023841813
100
AcDbArc
 50
90.00000250446831
 51
-89.9999993167658
  0
ARC
  5
257
100
AcDbEntity
  8
LAY0_2
  6
CONTINUOUS
 62
             7
100
AcDbCircle
 10
1846.0416040579501
 20
4045.443763240165
 40
30.00000476837321
100
AcDbArc
 50
-48.59036554890821
 51
-4.78019349537021
  0
ARC
  5
256
100
AcDbEntity
  8
LAY0_2
  6
CONTINUOUS
 62
             7
100
AcDbCircle
 10
1846.0416040579501
 20
4045.443763240165
 40
30.00000476837242
100
AcDbArc
 50
4.7801817420548
 51
48.59037898191361
  0
ARC
  5
255
100
AcDbEntity
  8
LAY0_2
  6
CONTINUOUS
 62
             7
100
AcDbCircle
 10
1809.7889437432859
 20
4047.941123866603
 40
0.75263172429915
100
AcDbArc
 50
-7.00000497559774
 51
62.95356671209605
  0
ARC
  5
254
100
AcDbEntity
  8
LAY0_2
  6
CONTINUOUS
 62
             7
100
AcDbCircle
 10
1809.7889437432859
 20
4047.941123866603
 40
0.75263172429925
100
AcDbArc
 50
73.39071731104069
 51
90.00000250450448
  0
ARC
  5
253
100
AcDbEntity
  8
LAY0_2
  6
CONTINUOUS
 62
             7
100
AcDbCircle
 10
1808.5686981880051
 20
4047.941123866603
 40
0.75263172429852
100
AcDbArc
 50
139.78968415752163
 51
173.00000367579983
  0
ARC
  5
252
100
AcDbEntity
  8
LAY0_2
  6
CONTINUOUS
 62
             7
100
AcDbCircle
 10
1808.5686981880051
 20
4047.941123866603
 40
0.75263172429823
100
AcDbArc
 50
90.00000250452179
 51
129.35759472859885
  0
ARC
  5
251
100
AcDbEntity
  8
LAY0_2
  6
CONTINUOUS
 62
             7
100
AcDbCircle
 10
1872.0416234493309
 20
4046.9437482197918
 40
1.00000015894602
100
AcDbArc
 50
90.00000250445528
 51
-179.99999499103737
  0
ARC
  5
250
100
AcDbEntity
  8
LAY0_2
  6
CONTINUOUS
 62
             7
100
AcDbCircle
 10
1846.0416040579501
 20
4045.443763240165
 40
28.00000445048115
100
AcDbArc
 50
14.19859297775365
 51
44.14114253015029
  0
ARC
  5
24F
100
AcDbEntity
  8
LAY0_2
  6
CONTINUOUS
 62
             7
100
AcDbCircle
 10
1872.0416234493309
 20
4043.943763001746
 40
1.00000015894489
100
AcDbArc
 50
-179.99999499103737
 51
-89.9999993167441
  0
ARC
  5
24E
100
AcDbEntity
  8
LAY0_2
  6
CONTINUOUS
 62
             7
100
AcDbCircle
 10
1871.7320683464179
 20
4051.9437642733119
 40
1.50000023841812
100
AcDbArc
 50
-89.9999993167658
 51
14.19877653908918
  0
ARC
  5
24D
100
AcDbEntity
  8
LAY0_2
  6
CONTINUOUS
 62
             7
100
AcDbCircle
 10
1871.7320683464179
 20
4038.9437469482259
 40
1.50000023841897
100
AcDbArc
 50
-14.19877847402558
 51
90.00000250446831
  0
ARC
  5
24C
100
AcDbEntity
  8
LAY0_2
  6
CONTINUOUS
 62
             7
100
AcDbCircle
 10
1846.0416040579501
 20
4045.443763240165
 40
28.00000445048034
100
AcDbArc
 50
-44.14115300280459
 51
-14.19858722870906
  0
LINE
  5
24B
100
AcDbEntity
  8
1
  6
CONTINUOUS
 62
             7
100
AcDbLine
 10
1811.741641807565
 20
4050.4437506039781
 11
1813.7416007995639
 21
4050.4437506039781
  0
LINE
  5
24A
100
AcDbEntity
  8
1
  6
CONTINUOUS
 62
             7
100
AcDbLine
 10
1815.7416007995639
 20
4048.4437506039781
 11
1815.7416007995639
 21
4025.1937757571418
  0
LINE
  5
249
100
AcDbEntity
  8
1
  6
CONTINUOUS
 62
             7
100
AcDbLine
 10
1813.7416007995639
 20
4023.1937757571418
 11
1784.2445521836239
 21
4023.1937757571418
  0
LINE
  5
248
100
AcDbEntity
  8
1
  6
CONTINUOUS
 62
             7
100
AcDbLine
 10
1782.2445521836239
 20
4025.1937757571418
 11
1782.2445521836239
 21
4032.1756702646549
  0
LINE
  5
247
100
AcDbEntity
  8
1
  6
CONTINUOUS
 62
             7
100
AcDbLine
 10
1786.918386414811
 20
4036.594732259899
 11
1783.0678075763781
 21
4033.7928505666978
  0
LINE
  5
246
100
AcDbEntity
  8
1
  6
CONTINUOUS
 62
             7
100
AcDbLine
 10
1787.741641807565
 20
4038.2119125619429
 11
1787.741641807565
 21
4040.9437320073271
  0
LINE
  5
245
100
AcDbEntity
  8
1
  6
CONTINUOUS
 62
             7
100
AcDbLine
 10
1860.7416067600279
 20
4067.7937728961192
 11
1863.8878161624759
 21
4067.7937728961192
  0
LINE
  5
244
100
AcDbEntity
  8
1
  6
CONTINUOUS
 62
             7
100
AcDbLine
 10
1863.887816162475
 20
4023.09373832542
 11
1860.7416067600279
 21
4023.09373832542
  0
LINE
  5
243
100
AcDbEntity
  8
1
  6
CONTINUOUS
 62
             7
100
AcDbLine
 10
1924.241708644251
 20
4023.09373832542
 11
1881.0416096210511
 21
4023.09373832542
  0
LINE
  5
242
100
AcDbEntity
  8
1
  6
CONTINUOUS
 62
             7
100
AcDbLine
 10
1924.241708644251
 20
4067.7937728961192
 11
1881.0416096210511
 21
4067.7937728961192
  0
LINE
  5
241
100
AcDbEntity
  8
LAY0_0
  6
CONTINUOUS
 62
             7
100
AcDbLine
 10
1817.7415893554701
 20
4063.9437814394519
 11
1769.7415893554701
 21
4063.9437814394519
  0
LINE
  5
240
100
AcDbEntity
  8
LAY0_0
  6
CONTINUOUS
 62
             7
100
AcDbLine
 10
1881.2416255156261
 20
4033.8437400340872
 11
1891.2416423638749
 21
4033.8437400340872
  0
LINE
  5
23F
100
AcDbEntity
  8
LAY0_0
  6
CONTINUOUS
 62
             7
100
AcDbLine
 10
1881.2416255156261
 20
4032.0437672138091
 11
1891.2416423638749
 21
4032.0437672138091
  0
LINE
  5
23E
100
AcDbEntity
  8
LAY0_0
  6
CONTINUOUS
 62
             7
100
AcDbLine
 10
1881.2416255156261
 20
4030.8437548160409
 11
1891.2416423638749
 21
4030.8437548160409
  0
LINE
  5
23D
100
AcDbEntity
  8
LAY0_0
  6
CONTINUOUS
 62
             7
100
AcDbLine
 10
1881.2416255156261
 20
4038.0437529086921
 11
1891.2416423638749
 21
4038.0437529086921
  0
LINE
  5
23C
100
AcDbEntity
  8
LAY0_0
  6
CONTINUOUS
 62
             7
100
AcDbLine
 10
1881.2416255156261
 20
4036.8437557697162
 11
1891.2416423638749
 21
4036.8437557697162
  0
LINE
  5
23B
100
AcDbEntity
  8
LAY0_0
  6
CONTINUOUS
 62
             7
100
AcDbLine
 10
1881.2416255156261
 20
4035.043752431855
 11
1891.2416423638749
 21
4035.043752431855
  0
LINE
  5
23A
100
AcDbEntity
  8
LAY0_0
  6
CONTINUOUS
 62
             7
100
AcDbLine
 10
1881.2416255156261
 20
4060.0437411467069
 11
1881.2416255156261
 21
4058.8437440077309
  0
LINE
  5
239
100
AcDbEntity
  8
LAY0_0
  6
CONTINUOUS
 62
             7
100
AcDbLine
 10
1881.2416255156261
 20
4052.843758312848
 11
1891.2416423638749
 21
4052.843758312848
  0
LINE
  5
238
100
AcDbEntity
  8
LAY0_0
  6
CONTINUOUS
 62
             7
100
AcDbLine
 10
1910.5416484832861
 20
4038.4437468687529
 11
1913.0416793982331
 21
4038.4437468687529
  0
LINE
  5
237
100
AcDbEntity
  8
LAY0_0
  6
CONTINUOUS
 62
             7
100
AcDbLine
 10
1910.5416484832861
 20
4032.4437611738699
 11
1913.0416793982331
 21
4032.4437611738699
  0
LINE
  5
236
100
AcDbEntity
  8
LAY0_0
  6
CONTINUOUS
 62
             7
100
AcDbLine
 10
1910.5416484832861
 20
4059.9437655448778
 11
1913.0416793982331
 21
4059.9437655448778
  0
LINE
  5
235
100
AcDbEntity
  8
LAY0_0
  6
CONTINUOUS
 62
             7
100
AcDbLine
 10
1910.5416484832861
 20
4058.443734788877
 11
1913.0416793982331
 21
4058.443734788877
  0
LINE
  5
234
100
AcDbEntity
  8
LAY0_0
  6
CONTINUOUS
 62
             7
100
AcDbLine
 10
1910.5416484832861
 20
4052.4437643527849
 11
1913.0416793982331
 21
4052.4437643527849
  0
LINE
  5
233
100
AcDbEntity
  8
LAY0_0
  6
CONTINUOUS
 62
             7
100
AcDbLine
 10
1913.0416793982331
 20
4059.9437655448778
 11
1913.0416793982331
 21
4050.9437335967841
  0
LINE
  5
232
100
AcDbEntity
  8
LAY0_0
  6
CONTINUOUS
 62
             7
100
AcDbLine
 10
1913.0416793982331
 20
4039.9437776247551
 11
1913.0416793982331
 21
4030.9437609354518
  0
LINE
  5
231
100
AcDbEntity
  8
LAY0_0
  6
CONTINUOUS
 62
             7
100
AcDbLine
 10
1910.5416484832861
 20
4030.9437609354518
 11
1913.0416793982331
 21
4030.9437609354518
  0
LINE
  5
230
100
AcDbEntity
  8
LAY0_0
  6
CONTINUOUS
 62
             7
100
AcDbLine
 10
1910.5416484832861
 20
4039.9437776247551
 11
1910.5416484832861
 21
4030.9437609354518
  0
LINE
  5
22F
100
AcDbEntity
  8
LAY0_0
  6
CONTINUOUS
 62
             7
100
AcDbLine
 10
1910.5416484832861
 20
4050.9437335967841
 11
1913.0416793982331
 21
4050.9437335967841
  0
LINE
  5
22E
100
AcDbEntity
  8
LAY0_0
  6
CONTINUOUS
 62
             7
100
AcDbLine
 10
1910.5416484832861
 20
4059.9437655448778
 11
1910.5416484832861
 21
4050.9437335967841
  0
LINE
  5
22D
100
AcDbEntity
  8
LAY0_0
  6
CONTINUOUS
 62
             7
100
AcDbLine
 10
1910.5416484832861
 20
4039.9437776247551
 11
1913.0416793982331
 21
4039.9437776247551
  0
LINE
  5
22C
100
AcDbEntity
  8
LAY0_0
  6
CONTINUOUS
 62
             7
100
AcDbLine
 10
1897.241658576341
 20
4042.8437414645991
 11
1907.241644907007
 21
4042.8437414645991
  0
LINE
  5
22B
100
AcDbEntity
  8
LAY0_0
  6
CONTINUOUS
 62
             7
100
AcDbLine
 10
1897.241658576341
 20
4041.0437533855288
 11
1907.241644907007
 21
4041.0437533855288
  0
LINE
  5
22A
100
AcDbEntity
  8
LAY0_0
  6
CONTINUOUS
 62
             7
100
AcDbLine
 10
1897.241658576341
 20
4039.843740987762
 11
1907.241644907007
 21
4039.843740987762
  0
LINE
  5
229
100
AcDbEntity
  8
LAY0_0
  6
CONTINUOUS
 62
             7
100
AcDbLine
 10
1897.241658576341
 20
4048.0437697569409
 11
1907.241644907007
 21
4048.0437697569409
  0
LINE
  5
228
100
AcDbEntity
  8
LAY0_0
  6
CONTINUOUS
 62
             7
100
AcDbLine
 10
1897.241658576341
 20
4046.8437573591732
 11
1907.241644907007
 21
4046.8437573591732
  0
LINE
  5
227
100
AcDbEntity
  8
LAY0_0
  6
CONTINUOUS
 62
             7
100
AcDbLine
 10
1897.241658576341
 20
4044.043753862366
 11
1907.241644907007
 21
4044.043753862366
  0
LINE
  5
226
100
AcDbEntity
  8
LAY0_0
  6
CONTINUOUS
 62
             7
100
AcDbLine
 10
1897.241658576341
 20
4038.0437529086921
 11
1907.241644907007
 21
4038.0437529086921
  0
LINE
  5
225
100
AcDbEntity
  8
LAY0_0
  6
CONTINUOUS
 62
             7
100
AcDbLine
 10
1897.241658576341
 20
4032.0437672138091
 11
1907.241644907007
 21
4032.0437672138091
  0
LINE
  5
224
100
AcDbEntity
  8
LAY0_0
  6
CONTINUOUS
 62
             7
100
AcDbLine
 10
1897.241658576341
 20
4030.8437548160409
 11
1907.241644907007
 21
4030.8437548160409
  0
LINE
  5
223
100
AcDbEntity
  8
LAY0_0
  6
CONTINUOUS
 62
             7
100
AcDbLine
 10
1897.241658576341
 20
4036.8437557697162
 11
1907.241644907007
 21
4036.8437557697162
  0
LINE
  5
222
100
AcDbEntity
  8
LAY0_0
  6
CONTINUOUS
 62
             7
100
AcDbLine
 10
1897.241658576341
 20
4035.043752431855
 11
1907.241644907007
 21
4035.043752431855
  0
LINE
  5
221
100
AcDbEntity
  8
LAY0_0
  6
CONTINUOUS
 62
             7
100
AcDbLine
 10
1897.241658576341
 20
4033.8437400340872
 11
1907.241644907007
 21
4033.8437400340872
  0
LINE
  5
220
100
AcDbEntity
  8
LAY0_0
  6
CONTINUOUS
 62
             7
100
AcDbLine
 10
1932.241709915817
 20
4049.1437302589229
 11
1932.241709915817
 21
4041.7437351862409
  0
LINE
  5
21F
100
AcDbEntity
  8
LAY0_0
  6
CONTINUOUS
 62
             7
100
AcDbLine
 10
1881.2416255156261
 20
4032.0437672138091
 11
1881.2416255156261
 21
4030.8437548160409
  0
LINE
  5
21E
100
AcDbEntity
  8
LAY0_0
  6
CONTINUOUS
 62
             7
100
AcDbLine
 10
1891.2416423638749
 20
4032.0437672138091
 11
1891.2416423638749
 21
4030.8437548160409
  0
LINE
  5
21D
100
AcDbEntity
  8
LAY0_0
  6
CONTINUOUS
 62
             7
100
AcDbLine
 10
1881.2416255156261
 20
4057.0437559286611
 11
1891.2416423638749
 21
4057.0437559286611
  0
LINE
  5
21C
100
AcDbEntity
  8
LAY0_0
  6
CONTINUOUS
 62
             7
100
AcDbLine
 10
1881.2416255156261
 20
4055.8437435308929
 11
1891.2416423638749
 21
4055.8437435308929
  0
LINE
  5
21B
100
AcDbEntity
  8
LAY0_0
  6
CONTINUOUS
 62
             7
100
AcDbLine
 10
1881.2416255156261
 20
4054.0437707106148
 11
1891.2416423638749
 21
4054.0437707106148
  0
LINE
  5
21A
100
AcDbEntity
  8
LAY0_0
  6
CONTINUOUS
 62
             7
100
AcDbLine
 10
1881.2416255156261
 20
4060.0437411467069
 11
1891.2416423638749
 21
4060.0437411467069
  0
LINE
  5
219
100
AcDbEntity
  8
LAY0_0
  6
CONTINUOUS
 62
             7
100
AcDbLine
 10
1881.2416255156261
 20
4058.8437440077309
 11
1891.2416423638749
 21
4058.8437440077309
  0
LINE
  5
218
100
AcDbEntity
  8
LAY0_0
  6
CONTINUOUS
 62
             7
100
AcDbLine
 10
1891.2416423638749
 20
4038.0437529086921
 11
1891.2416423638749
 21
4036.8437557697162
  0
LINE
  5
217
100
AcDbEntity
  8
LAY0_0
  6
CONTINUOUS
 62
             7
100
AcDbLine
 10
1881.2416255156261
 20
4035.043752431855
 11
1881.2416255156261
 21
4033.8437400340872
  0
LINE
  5
216
100
AcDbEntity
  8
LAY0_0
  6
CONTINUOUS
 62
             7
100
AcDbLine
 10
1891.2416423638749
 20
4035.043752431855
 11
1891.2416423638749
 21
4033.8437400340872
  0
LINE
  5
215
100
AcDbEntity
  8
LAY0_0
  6
CONTINUOUS
 62
             7
100
AcDbLine
 10
1881.2416255156261
 20
4057.0437559286611
 11
1881.2416255156261
 21
4055.8437435308929
  0
LINE
  5
214
100
AcDbEntity
  8
LAY0_0
  6
CONTINUOUS
 62
             7
100
AcDbLine
 10
1881.2416255156261
 20
4054.0437707106148
 11
1881.2416255156261
 21
4052.843758312848
  0
LINE
  5
213
100
AcDbEntity
  8
LAY0_0
  6
CONTINUOUS
 62
             7
100
AcDbLine
 10
1881.2416255156261
 20
4038.0437529086921
 11
1881.2416255156261
 21
4036.8437557697162
  0
LINE
  5
212
100
AcDbEntity
  8
LAY0_0
  6
CONTINUOUS
 62
             7
100
AcDbLine
 10
1891.2416423638749
 20
4041.0437533855288
 11
1891.2416423638749
 21
4039.843740987762
  0
LINE
  5
211
100
AcDbEntity
  8
LAY0_0
  6
CONTINUOUS
 62
             7
100
AcDbLine
 10
1891.2416423638749
 20
4054.0437707106148
 11
1891.2416423638749
 21
4052.843758312848
  0
LINE
  5
210
100
AcDbEntity
  8
LAY0_0
  6
CONTINUOUS
 62
             7
100
AcDbLine
 10
1891.2416423638749
 20
4057.0437559286611
 11
1891.2416423638749
 21
4055.8437435308929
  0
LINE
  5
20F
100
AcDbEntity
  8
LAY0_0
  6
CONTINUOUS
 62
             7
100
AcDbLine
 10
1891.2416423638749
 20
4060.0437411467069
 11
1891.2416423638749
 21
4058.8437440077309
  0
LINE
  5
20E
100
AcDbEntity
  8
LAY0_0
  6
CONTINUOUS
 62
             7
100
AcDbLine
 10
1891.2416423638749
 20
4044.043753862366
 11
1891.2416423638749
 21
4042.8437414645991
  0
LINE
  5
20D
100
AcDbEntity
  8
LAY0_0
  6
CONTINUOUS
 62
             7
100
AcDbLine
 10
1891.2416423638749
 20
4048.0437697569409
 11
1891.2416423638749
 21
4046.8437573591732
  0
LINE
  5
20C
100
AcDbEntity
  8
LAY0_0
  6
CONTINUOUS
 62
             7
100
AcDbLine
 10
1891.2416423638749
 20
4051.0437549749872
 11
1891.2416423638749
 21
4049.843742577219
  0
LINE
  5
20B
100
AcDbEntity
  8
LAY0_0
  6
CONTINUOUS
 62
             7
100
AcDbLine
 10
1849.5415777524299
 20
4031.4437762737161
 11
1849.5415777524299
 21
4034.943761571235
  0
LINE
  5
20A
100
AcDbEntity
  8
LAY0_0
  6
CONTINUOUS
 62
             7
100
AcDbLine
 10
1849.5415777524299
 20
4026.4437754789869
 11
1849.5415777524299
 21
4029.9437607765062
  0
LINE
  5
209
100
AcDbEntity
  8
LAY0_0
  6
CONTINUOUS
 62
             7
100
AcDbLine
 10
1850.0415778319029
 20
4030.4437608559788
 11
1851.2415902296709
 21
4030.4437608559788
  0
LINE
  5
208
100
AcDbEntity
  8
LAY0_0
  6
CONTINUOUS
 62
             7
100
AcDbLine
 10
1850.0415778319029
 20
4030.9437609354518
 11
1851.2415902296709
 21
4030.9437609354518
  0
LINE
  5
207
100
AcDbEntity
  8
LAY0_0
  6
CONTINUOUS
 62
             7
100
AcDbLine
 10
1850.0415778319029
 20
4035.443761650708
 11
1851.2415902296709
 21
4035.443761650708
  0
LINE
  5
206
100
AcDbEntity
  8
LAY0_0
  6
CONTINUOUS
 62
             7
100
AcDbLine
 10
1850.0415778319029
 20
4025.9437753995139
 11
1851.2415902296709
 21
4025.9437753995139
  0
LINE
  5
205
100
AcDbEntity
  8
LAY0_0
  6
CONTINUOUS
 62
             7
100
AcDbLine
 10
1925.2417088031971
 20
4049.1437302589229
 11
1925.2417088031971
 21
4041.7437351862409
  0
LINE
  5
204
100
AcDbEntity
  8
LAY0_0
  6
CONTINUOUS
 62
             7
100
AcDbLine
 10
1851.2415902296709
 20
4038.9437622070182
 11
1851.2415902296709
 21
4022.4437595844129
  0
LINE
  5
203
100
AcDbEntity
  8
LAY0_0
  6
CONTINUOUS
 62
             7
100
AcDbLine
 10
1851.2415902296709
 20
4063.943766180661
 11
1851.2415902296709
 21
4068.4437668959172
  0
LINE
  5
202
100
AcDbEntity
  8
LAY0_0
  6
CONTINUOUS
 62
             7
100
AcDbLine
 10
1852.241636164991
 20
4069.4437823136541
 11
1859.2416067600279
 21
4069.4437823136541
  0
LINE
  5
201
100
AcDbEntity
  8
LAY0_0
  6
CONTINUOUS
 62
             7
100
AcDbLine
 10
1859.2416067600279
 20
4021.443698390302
 11
1859.2416067600279
 21
4069.4437823136541
  0
LINE
  5
200
100
AcDbEntity
  8
LAY0_0
  6
CONTINUOUS
 62
             7
100
AcDbLine
 10
1852.241636164991
 20
4021.443698390302
 11
1859.2416067600279
 21
4021.443698390302
  0
LINE
  5
1FF
100
AcDbEntity
  8
LAY0_0
  6
CONTINUOUS
 62
             7
100
AcDbLine
 10
1897.241658576341
 20
4060.0437411467069
 11
1907.241644907007
 21
4060.0437411467069
  0
LINE
  5
1FE
100
AcDbEntity
  8
LAY0_0
  6
CONTINUOUS
 62
             7
100
AcDbLine
 10
1897.241658576341
 20
4058.8437440077309
 11
1907.241644907007
 21
4058.8437440077309
  0
LINE
  5
1FD
100
AcDbEntity
  8
LAY0_0
  6
CONTINUOUS
 62
             7
100
AcDbLine
 10
1932.2416793982341
 20
4041.7437351862409
 11
1923.241708485305
 21
4041.7437351862409
  0
LINE
  5
1FC
100
AcDbEntity
  8
LAY0_0
  6
CONTINUOUS
 62
             7
100
AcDbLine
 10
1923.241708485305
 20
4043.2437506834508
 11
1925.2417088031971
 21
4043.2437506834508
  0
LINE
  5
1FB
100
AcDbEntity
  8
LAY0_0
  6
CONTINUOUS
 62
             7
100
AcDbLine
 10
1907.241644907007
 20
4048.0437697569409
 11
1907.241644907007
 21
4046.8437573591732
  0
LINE
  5
1FA
100
AcDbEntity
  8
LAY0_0
  6
CONTINUOUS
 62
             7
100
AcDbLine
 10
1907.241644907007
 20
4051.0437549749872
 11
1907.241644907007
 21
4049.843742577219
  0
LINE
  5
1F9
100
AcDbEntity
  8
LAY0_0
  6
CONTINUOUS
 62
             7
100
AcDbLine
 10
1907.241644907007
 20
4054.0437707106148
 11
1907.241644907007
 21
4052.843758312848
  0
LINE
  5
1F8
100
AcDbEntity
  8
LAY0_0
  6
CONTINUOUS
 62
             7
100
AcDbLine
 10
1907.241644907007
 20
4044.043753862366
 11
1907.241644907007
 21
4042.8437414645991
  0
LINE
  5
1F7
100
AcDbEntity
  8
LAY0_0
  6
CONTINUOUS
 62
             7
100
AcDbLine
 10
1897.241658576341
 20
4035.043752431855
 11
1897.241658576341
 21
4033.8437400340872
  0
LINE
  5
1F6
100
AcDbEntity
  8
LAY0_0
  6
CONTINUOUS
 62
             7
100
AcDbLine
 10
1907.241644907007
 20
4035.043752431855
 11
1907.241644907007
 21
4033.8437400340872
  0
LINE
  5
1F5
100
AcDbEntity
  8
LAY0_0
  6
CONTINUOUS
 62
             7
100
AcDbLine
 10
1907.241644907007
 20
4041.0437533855288
 11
1907.241644907007
 21
4039.843740987762
  0
LINE
  5
1F4
100
AcDbEntity
  8
LAY0_0
  6
CONTINUOUS
 62
             7
100
AcDbLine
 10
1907.241644907007
 20
4057.0437559286611
 11
1907.241644907007
 21
4055.8437435308929
  0
LINE
  5
1F3
100
AcDbEntity
  8
LAY0_0
  6
CONTINUOUS
 62
             7
100
AcDbLine
 10
1907.241644907007
 20
4032.0437672138091
 11
1907.241644907007
 21
4030.8437548160409
  0
LINE
  5
1F2
100
AcDbEntity
  8
LAY0_0
  6
CONTINUOUS
 62
             7
100
AcDbLine
 10
1897.241658576341
 20
4060.0437411467069
 11
1897.241658576341
 21
4058.8437440077309
  0
LINE
  5
1F1
100
AcDbEntity
  8
LAY0_0
  6
CONTINUOUS
 62
             7
100
AcDbLine
 10
1907.241644907007
 20
4060.0437411467069
 11
1907.241644907007
 21
4058.8437440077309
  0
LINE
  5
1F0
100
AcDbEntity
  8
LAY0_0
  6
CONTINUOUS
 62
             7
100
AcDbLine
 10
1897.241658576341
 20
4032.0437672138091
 11
1897.241658576341
 21
4030.8437548160409
  0
LINE
  5
1EF
100
AcDbEntity
  8
LAY0_0
  6
CONTINUOUS
 62
             7
100
AcDbLine
 10
1923.241708485305
 20
4047.6437605380879
 11
1925.2417088031971
 21
4047.6437605380879
  0
LINE
  5
1EE
100
AcDbEntity
  8
LAY0_0
  6
CONTINUOUS
 62
             7
100
AcDbLine
 10
1932.2416793982341
 20
4049.1437302589229
 11
1923.241708485305
 21
4049.1437302589229
  0
LINE
  5
1ED
100
AcDbEntity
  8
LAY0_0
  6
CONTINUOUS
 62
             7
100
AcDbLine
 10
1907.241644907007
 20
4038.0437529086921
 11
1907.241644907007
 21
4036.8437557697162
  0
LINE
  5
1EC
100
AcDbEntity
  8
LAY0_0
  6
CONTINUOUS
 62
             7
100
AcDbLine
 10
1811.741641807565
 20
4040.9437320073262
 11
1811.741641807565
 21
4061.9437506039781
  0
LINE
  5
1EB
100
AcDbEntity
  8
LAY0_0
  6
CONTINUOUS
 62
             7
100
AcDbLine
 10
1775.741620826728
 20
4040.9437320073262
 11
1811.741641807565
 21
4040.9437320073262
  0
LINE
  5
1EA
100
AcDbEntity
  8
LAY0_0
  6
CONTINUOUS
 62
             7
100
AcDbLine
 10
1775.741620826728
 20
4061.9437506039781
 11
1775.741620826728
 21
4040.9437320073262
  0
LINE
  5
1E9
100
AcDbEntity
  8
LAY0_0
  6
CONTINUOUS
 62
             7
100
AcDbLine
 10
1811.741641807565
 20
4061.9437506039781
 11
1775.741620826728
 21
4061.9437506039781
  0
LINE
  5
1E8
100
AcDbEntity
  8
LAY0_0
  6
CONTINUOUS
 62
             7
100
AcDbLine
 10
1881.241671292001
 20
4061.8437444845681
 11
1881.241671292001
 21
4063.0437568823349
  0
LINE
  5
1E7
100
AcDbEntity
  8
LAY0_0
  6
CONTINUOUS
 62
             7
100
AcDbLine
 10
1817.7415893554701
 20
4038.943777465809
 11
1769.7415893554701
 21
4038.943777465809
  0
LINE
  5
1E6
100
AcDbEntity
  8
LAY0_0
  6
CONTINUOUS
 62
             7
100
AcDbLine
 10
1897.2416890939239
 20
4063.0437568823349
 11
1907.241675424591
 21
4063.0437568823349
  0
LINE
  5
1E5
100
AcDbEntity
  8
LAY0_0
  6
CONTINUOUS
 62
             7
100
AcDbLine
 10
1769.7415893554701
 20
4068.443782154709
 11
1769.7415893554701
 21
4022.4437748432042
  0
LINE
  5
1E4
100
AcDbEntity
  8
LAY0_0
  6
CONTINUOUS
 62
             7
100
AcDbLine
 10
1770.7415895144161
 20
4021.4437136490928
 11
1816.7416120847111
 21
4021.4437136490928
  0
LINE
  5
1E3
100
AcDbEntity
  8
LAY0_0
  6
CONTINUOUS
 62
             7
100
AcDbLine
 10
1817.7415893554701
 20
4022.4437748432042
 11
1817.7415893554701
 21
4068.443782154709
  0
LINE
  5
1E2
100
AcDbEntity
  8
LAY0_0
  6
CONTINUOUS
 62
             7
100
AcDbLine
 10
1816.7416120847111
 20
4069.4437823136541
 11
1770.7415895144161
 21
4069.4437823136541
  0
LINE
  5
1E1
100
AcDbEntity
  8
LAY0_0
  6
CONTINUOUS
 62
             7
100
AcDbLine
 10
1897.2416890939239
 20
4061.8437444845681
 11
1907.241675424591
 21
4061.8437444845681
  0
LINE
  5
1E0
100
AcDbEntity
  8
LAY0_0
  6
CONTINUOUS
 62
             7
100
AcDbLine
 10
1881.241671292001
 20
4061.8437444845681
 11
1891.241657622666
 21
4061.8437444845681
  0
LINE
  5
1DF
100
AcDbEntity
  8
LAY0_0
  6
CONTINUOUS
 62
             7
100
AcDbLine
 10
1891.241657622666
 20
4061.8437444845681
 11
1891.241657622666
 21
4063.0437568823349
  0
LINE
  5
1DE
100
AcDbEntity
  8
LAY0_0
  6
CONTINUOUS
 62
             7
100
AcDbLine
 10
1881.241671292001
 20
4063.0437568823349
 11
1891.241657622666
 21
4063.0437568823349
  0
LINE
  5
1DD
100
AcDbEntity
  8
LAY0_0
  6
CONTINUOUS
 62
             7
100
AcDbLine
 10
1907.241675424591
 20
4061.8437444845681
 11
1907.241675424591
 21
4063.0437568823349
  0
LINE
  5
1DC
100
AcDbEntity
  8
LAY0_0
  6
CONTINUOUS
 62
             7
100
AcDbLine
 10
1897.2416890939239
 20
4061.8437444845681
 11
1897.2416890939239
 21
4063.0437568823349
  0
LINE
  5
1DB
100
AcDbEntity
  8
LAY0_0
  6
CONTINUOUS
 62
             7
100
AcDbLine
 10
1907.241644907007
 20
4029.043766736972
 11
1907.241644907007
 21
4027.8437543392042
  0
LINE
  5
1DA
100
AcDbEntity
  8
LAY0_0
  6
CONTINUOUS
 62
             7
100
AcDbLine
 10
1897.241658576341
 20
4029.043766736972
 11
1897.241658576341
 21
4027.8437543392042
  0
LINE
  5
1D9
100
AcDbEntity
  8
LAY0_0
  6
CONTINUOUS
 62
             7
100
AcDbLine
 10
1774.7624946945371
 20
4032.6635793240439
 11
1774.6086402999649
 21
4032.5344899480569
  0
LINE
  5
1D8
100
AcDbEntity
  8
LAY0_0
  6
CONTINUOUS
 62
             7
100
AcDbLine
 10
1897.241658576341
 20
4044.043753862366
 11
1897.241658576341
 21
4042.8437414645991
  0
LINE
  5
1D7
100
AcDbEntity
  8
LAY0_0
  6
CONTINUOUS
 62
             7
100
AcDbLine
 10
1897.241658576341
 20
4041.0437533855288
 11
1897.241658576341
 21
4039.843740987762
  0
LINE
  5
1D6
100
AcDbEntity
  8
LAY0_0
  6
CONTINUOUS
 62
             7
100
AcDbLine
 10
1897.241658576341
 20
4038.0437529086921
 11
1897.241658576341
 21
4036.8437557697162
  0
LINE
  5
1D5
100
AcDbEntity
  8
LAY0_0
  6
CONTINUOUS
 62
             7
100
AcDbLine
 10
1897.241658576341
 20
4048.0437697569409
 11
1897.241658576341
 21
4046.8437573591732
  0
LINE
  5
1D4
100
AcDbEntity
  8
LAY0_0
  6
CONTINUOUS
 62
             7
100
AcDbLine
 10
1897.241658576341
 20
4057.0437559286611
 11
1897.241658576341
 21
4055.8437435308929
  0
LINE
  5
1D3
100
AcDbEntity
  8
LAY0_0
  6
CONTINUOUS
 62
             7
100
AcDbLine
 10
1897.241658576341
 20
4054.0437707106148
 11
1897.241658576341
 21
4052.843758312848
  0
LINE
  5
1D2
100
AcDbEntity
  8
LAY0_0
  6
CONTINUOUS
 62
             7
100
AcDbLine
 10
1897.241658576341
 20
4051.0437549749872
 11
1897.241658576341
 21
4049.843742577219
  0
LINE
  5
1D1
100
AcDbEntity
  8
LAY0_0
  6
CONTINUOUS
 62
             7
100
AcDbLine
 10
1779.720678771193
 20
4032.6635488064621
 11
1779.874540795161
 21
4032.5344441716829
  0
LINE
  5
1D0
100
AcDbEntity
  8
LAY0_0
  6
CONTINUOUS
 62
             7
100
AcDbLine
 10
1881.2416255156261
 20
4029.043766736972
 11
1881.2416255156261
 21
4027.8437543392042
  0
LINE
  5
1CF
100
AcDbEntity
  8
LAY0_0
  6
CONTINUOUS
 62
             7
100
AcDbLine
 10
1897.241658576341
 20
4027.8437543392042
 11
1907.241644907007
 21
4027.8437543392042
  0
LINE
  5
1CE
100
AcDbEntity
  8
LAY0_0
  6
CONTINUOUS
 62
             7
100
AcDbLine
 10
1897.241658576341
 20
4029.043766736972
 11
1907.241644907007
 21
4029.043766736972
  0
LINE
  5
1CD
100
AcDbEntity
  8
LAY0_0
  6
CONTINUOUS
 62
             7
100
AcDbLine
 10
1891.2416423638749
 20
4029.043766736972
 11
1891.2416423638749
 21
4027.8437543392042
  0
LINE
  5
1CC
100
AcDbEntity
  8
LAY0_0
  6
CONTINUOUS
 62
             7
100
AcDbLine
 10
1881.2416255156261
 20
4027.8437543392042
 11
1891.2416423638749
 21
4027.8437543392042
  0
LINE
  5
1CB
100
AcDbEntity
  8
LAY0_0
  6
CONTINUOUS
 62
             7
100
AcDbLine
 10
1881.2416255156261
 20
4029.043766736972
 11
1891.2416423638749
 21
4029.043766736972
  0
LINE
  5
1CA
100
AcDbEntity
  8
LAY0_0
  6
CONTINUOUS
 62
             7
100
AcDbLine
 10
1885.241626151409
 20
4051.0437549749872
 11
1885.241626151409
 21
4049.843742577219
  0
LINE
  5
1C9
100
AcDbEntity
  8
LAY0_0
  6
CONTINUOUS
 62
             7
100
AcDbLine
 10
1885.241626151409
 20
4051.0437549749872
 11
1891.2416423638749
 21
4051.0437549749872
  0
LINE
  5
1C8
100
AcDbEntity
  8
LAY0_0
  6
CONTINUOUS
 62
             7
100
AcDbLine
 10
1897.241658576341
 20
4057.0437559286611
 11
1907.241644907007
 21
4057.0437559286611
  0
LINE
  5
1C7
100
AcDbEntity
  8
LAY0_0
  6
CONTINUOUS
 62
             7
100
AcDbLine
 10
1885.241626151409
 20
4049.843742577219
 11
1891.2416423638749
 21
4049.843742577219
  0
LINE
  5
1C6
100
AcDbEntity
  8
LAY0_0
  6
CONTINUOUS
 62
             7
100
AcDbLine
 10
1885.241626151409
 20
4046.8437573591732
 11
1891.2416423638749
 21
4046.8437573591732
  0
LINE
  5
1C5
100
AcDbEntity
  8
LAY0_0
  6
CONTINUOUS
 62
             7
100
AcDbLine
 10
1885.241626151409
 20
4048.0437697569409
 11
1885.241626151409
 21
4046.8437573591732
  0
LINE
  5
1C4
100
AcDbEntity
  8
LAY0_0
  6
CONTINUOUS
 62
             7
100
AcDbLine
 10
1885.241626151409
 20
4048.0437697569409
 11
1891.2416423638749
 21
4048.0437697569409
  0
LINE
  5
1C3
100
AcDbEntity
  8
LAY0_0
  6
CONTINUOUS
 62
             7
100
AcDbLine
 10
1897.241658576341
 20
4055.8437435308929
 11
1907.241644907007
 21
4055.8437435308929
  0
LINE
  5
1C2
100
AcDbEntity
  8
LAY0_0
  6
CONTINUOUS
 62
             7
100
AcDbLine
 10
1885.241626151409
 20
4044.043753862366
 11
1891.2416423638749
 21
4044.043753862366
  0
LINE
  5
1C1
100
AcDbEntity
  8
LAY0_0
  6
CONTINUOUS
 62
             7
100
AcDbLine
 10
1923.241708485305
 20
4049.1437302589229
 11
1923.241708485305
 21
4041.7437351862409
  0
LINE
  5
1C0
100
AcDbEntity
  8
LAY0_0
  6
CONTINUOUS
 62
             7
100
AcDbLine
 10
1885.241626151409
 20
4041.0437533855288
 11
1891.2416423638749
 21
4041.0437533855288
  0
LINE
  5
1BF
100
AcDbEntity
  8
LAY0_0
  6
CONTINUOUS
 62
             7
100
AcDbLine
 10
1885.241626151409
 20
4042.8437414645991
 11
1891.2416423638749
 21
4042.8437414645991
  0
LINE
  5
1BE
100
AcDbEntity
  8
LAY0_0
  6
CONTINUOUS
 62
             7
100
AcDbLine
 10
1885.241626151409
 20
4044.043753862366
 11
1885.241626151409
 21
4042.8437414645991
  0
LINE
  5
1BD
100
AcDbEntity
  8
LAY0_0
  6
CONTINUOUS
 62
             7
100
AcDbLine
 10
1885.241626151409
 20
4041.0437533855288
 11
1885.241626151409
 21
4039.843740987762
  0
LINE
  5
1BC
100
AcDbEntity
  8
LAY0_0
  6
CONTINUOUS
 62
             7
100
AcDbLine
 10
1885.241626151409
 20
4039.843740987762
 11
1891.2416423638749
 21
4039.843740987762
  0
LINE
  5
1BB
100
AcDbEntity
  8
LAY0_0
  6
CONTINUOUS
 62
             7
100
AcDbLine
 10
1897.241658576341
 20
4052.843758312848
 11
1907.241644907007
 21
4052.843758312848
  0
LINE
  5
1BA
100
AcDbEntity
  8
LAY0_0
  6
CONTINUOUS
 62
             7
100
AcDbLine
 10
1897.241658576341
 20
4051.0437549749872
 11
1907.241644907007
 21
4051.0437549749872
  0
LINE
  5
1B9
100
AcDbEntity
  8
LAY0_0
  6
CONTINUOUS
 62
             7
100
AcDbLine
 10
1897.241658576341
 20
4049.843742577219
 11
1907.241644907007
 21
4049.843742577219
  0
LINE
  5
1B8
100
AcDbEntity
  8
LAY0_0
  6
CONTINUOUS
 62
             7
100
AcDbLine
 10
1932.241709915817
 20
4065.9437512397608
 11
1932.241709915817
 21
4049.1437302589229
  0
LINE
  5
1B7
100
AcDbEntity
  8
LAY0_0
  6
CONTINUOUS
 62
             7
100
AcDbLine
 10
1933.2416795571801
 20
4024.943759981777
 11
1933.2416795571801
 21
4065.9437512397608
  0
LINE
  5
1B6
100
AcDbEntity
  8
LAY0_0
  6
CONTINUOUS
 62
             7
100
AcDbLine
 10
1933.2416795571801
 20
4024.943759981777
 11
1932.241709915817
 21
4024.943759981777
  0
LINE
  5
1B5
100
AcDbEntity
  8
LAY0_0
  6
CONTINUOUS
 62
             7
100
AcDbLine
 10
1932.241709915817
 20
4024.7099800373931
 11
1932.241709915817
 21
4024.943759981777
  0
LINE
  5
1B4
100
AcDbEntity
  8
LAY0_0
  6
CONTINUOUS
 62
             7
100
AcDbLine
 10
1931.328852715058
 20
4023.713779317527
 11
1924.241708644251
 21
4023.09373832542
  0
LINE
  5
1B3
100
AcDbEntity
  8
LAY0_0
  6
CONTINUOUS
 62
             7
100
AcDbLine
 10
1897.241658576341
 20
4054.0437707106148
 11
1907.241644907007
 21
4054.0437707106148
  0
LINE
  5
1B2
100
AcDbEntity
  8
LAY0_0
  6
CONTINUOUS
 62
             7
100
AcDbLine
 10
1932.241709915817
 20
4041.7437351862409
 11
1932.241709915817
 21
4024.943759981777
  0
LINE
  5
1B1
100
AcDbEntity
  8
LAY0_0
  6
CONTINUOUS
 62
             7
100
AcDbLine
 10
1933.2416795571801
 20
4065.9437512397608
 11
1932.241709915817
 21
4065.9437512397608
  0
LINE
  5
1B0
100
AcDbEntity
  8
LAY0_0
  6
CONTINUOUS
 62
             7
100
AcDbLine
 10
1932.241709915817
 20
4066.177531184147
 11
1932.241709915817
 21
4065.9437512397608
  0
LINE
  5
1AF
100
AcDbEntity
  8
LAY0_0
  6
CONTINUOUS
 62
             7
100
AcDbLine
 10
1931.328852715058
 20
4067.1737319040112
 11
1924.241708644251
 21
4067.7937728961192
  0
LINE
  5
1AE
100
AcDbEntity
  8
LAY0_2
  6
CONTINUOUS
 62
             7
100
AcDbLine
 10
1789.789138928661
 20
4048.0094985112601
 11
1789.2756500775131
 21
4048.5230026211989
  0
LINE
  5
1AD
100
AcDbEntity
  8
LAY0_2
  6
CONTINUOUS
 62
             7
100
AcDbLine
 10
1791.0272525287739
 20
4047.8195875924021
 11
1791.315468211792
 21
4048.6114883530358
  0
LINE
  5
1AC
100
AcDbEntity
  8
LAY0_2
  6
CONTINUOUS
 62
             7
100
AcDbLine
 10
1790.439949273803
 20
4043.03687198846
 11
1790.610069540101
 21
4042.236548374924
  0
LINE
  5
1AB
100
AcDbEntity
  8
LAY0_2
  6
CONTINUOUS
 62
             7
100
AcDbLine
 10
1789.681793330544
 20
4047.9232710805609
 11
1789.178100623531
 21
4048.4269790463659
  0
LINE
  5
1AA
100
AcDbEntity
  8
LAY0_2
  6
CONTINUOUS
 62
             7
100
AcDbLine
 10
1790.950714430671
 20
4048.0094985112601
 11
1791.1883624786981
 21
4048.6622696111081
  0
LINE
  5
1A9
100
AcDbEntity
  8
LAY0_2
  6
CONTINUOUS
 62
             7
100
AcDbLine
 10
1789.4529648639971
 20
4046.059455476699
 11
1788.984878546921
 21
4045.7337718311819
  0
LINE
  5
1A8
100
AcDbEntity
  8
LAY0_2
  6
CONTINUOUS
 62
             7
100
AcDbLine
 10
1789.3530960737089
 20
4045.2461161140241
 11
1788.9770355280959
 21
4045.5617289571578
  0
LINE
  5
1A7
100
AcDbEntity
  8
LAY0_2
  6
CONTINUOUS
 62
             7
100
AcDbLine
 10
1790.8101657022769
 20
4046.0517345282069
 11
1791.186127065745
 21
4045.7363353081528
  0
LINE
  5
1A6
100
AcDbEntity
  8
LAY0_2
  6
CONTINUOUS
 62
             7
100
AcDbLine
 10
1790.710296911989
 20
4045.23848671828
 11
1791.1784137466479
 21
4045.5642161401702
  0
LINE
  5
1A5
100
AcDbEntity
  8
LAY0_2
  6
CONTINUOUS
 62
             7
100
AcDbLine
 10
1790.3337938614229
 20
4042.8779211575311
 11
1790.477310424762
 21
4042.2028874809021
  0
LINE
  5
1A4
100
AcDbEntity
  8
LAY0_2
  6
CONTINUOUS
 62
             7
100
AcDbLine
 10
1793.216171944076
 20
4046.059455476699
 11
1793.445008040019
 21
4047.9232710805609
  0
LINE
  5
1A3
100
AcDbEntity
  8
LAY0_2
  6
CONTINUOUS
 62
             7
100
AcDbLine
 10
1795.4834223654809
 20
4047.8493422358029
 11
1795.2941752040531
 21
4046.3082958482828
  0
LINE
  5
1A2
100
AcDbEntity
  8
LAY0_2
  6
CONTINUOUS
 62
             7
100
AcDbLine
 10
1795.140732796852
 20
4045.0585245314719
 11
1794.8701410180031
 21
4042.8546209829292
  0
LINE
  5
1A1
100
AcDbEntity
  8
LAY0_2
  6
CONTINUOUS
 62
             7
100
AcDbLine
 10
1794.1230858455499
 20
4042.193686429634
 11
1792.9028174020821
 21
4042.193686429634
  0
LINE
  5
1A0
100
AcDbEntity
  8
LAY0_2
  6
CONTINUOUS
 62
             7
100
AcDbLine
 10
1793.516121637748
 20
4048.6937332391558
 11
1794.7363900812161
 21
4048.6937332391558
  0
LINE
  5
19F
100
AcDbEntity
  8
LAY0_2
  6
CONTINUOUS
 62
             7
100
AcDbLine
 10
1789.2623367819399
 20
4042.8779211575311
 11
1788.475814745304
 21
4042.591696746802
  0
LINE
  5
19E
100
AcDbEntity
  8
LAY0_2
  6
CONTINUOUS
 62
             7
100
AcDbLine
 10
1789.0716552941119
 20
4042.954123562221
 11
1788.4225234160331
 21
4042.7178411760319
  0
LINE
  5
19D
100
AcDbEntity
  8
LAY0_2
  6
CONTINUOUS
 62
             7
100
AcDbLine
 10
1792.5489355098971
 20
4046.2394329222971
 11
1792.769104612275
 21
4048.0327681682779
  0
LINE
  5
19C
100
AcDbEntity
  8
LAY0_2
  6
CONTINUOUS
 62
             7
100
AcDbLine
 10
1792.155800376609
 20
4043.0380469154052
 11
1792.3954931026949
 21
4044.989661605488
  0
LINE
  5
19B
100
AcDbEntity
  8
LAY0_2
  6
CONTINUOUS
 62
             7
100
AcDbLine
 10
1790.359878765471
 20
4042.193686429634
 11
1789.1396103220029
 21
4042.193686429634
  0
LINE
  5
19A
100
AcDbEntity
  8
LAY0_2
  6
CONTINUOUS
 62
             7
100
AcDbLine
 10
1791.3775257167731
 20
4045.0585245314719
 11
1791.106926308528
 21
4042.8546209829292
  0
LINE
  5
199
100
AcDbEntity
  8
LAY0_2
  6
CONTINUOUS
 62
             7
100
AcDbLine
 10
1790.950714430671
 20
4048.0094985112601
 11
1789.789138928661
 21
4048.0094985112601
  0
LINE
  5
198
100
AcDbEntity
  8
LAY0_2
  6
CONTINUOUS
 62
             7
100
AcDbLine
 10
1789.4529648639971
 20
4046.059455476699
 11
1789.681793330544
 21
4047.9232710805609
  0
LINE
  5
197
100
AcDbEntity
  8
LAY0_2
  6
CONTINUOUS
 62
             7
100
AcDbLine
 10
1791.7202076560061
 20
4047.8493422358029
 11
1791.5309604945789
 21
4046.3082958482828
  0
LINE
  5
196
100
AcDbEntity
  8
LAY0_2
  6
CONTINUOUS
 62
             7
100
AcDbLine
 10
1788.392585667134
 20
4043.0380469154052
 11
1788.6322783932201
 21
4044.989661605488
  0
LINE
  5
195
100
AcDbEntity
  8
LAY0_2
  6
CONTINUOUS
 62
             7
100
AcDbLine
 10
1796.788636501162
 20
4042.8779211575311
 11
1796.002122093922
 21
4042.591696746802
  0
LINE
  5
194
100
AcDbEntity
  8
LAY0_2
  6
CONTINUOUS
 62
             7
100
AcDbLine
 10
1789.752906928273
 20
4048.6937332391558
 11
1790.9731830011369
 21
4048.6937332391558
  0
LINE
  5
193
100
AcDbEntity
  8
LAY0_2
  6
CONTINUOUS
 62
             7
100
AcDbLine
 10
1788.785720800422
 20
4046.2394329222971
 11
1789.0058899027999
 21
4048.0327681682779
  0
LINE
  5
192
100
AcDbEntity
  8
LAY0_2
  6
CONTINUOUS
 62
             7
100
AcDbLine
 10
1789.4935913963329
 20
4045.3068461041448
 11
1790.568916579459
 21
4045.3068461041448
  0
LINE
  5
191
100
AcDbEntity
  8
LAY0_2
  6
CONTINUOUS
 62
             7
100
AcDbLine
 10
1789.0934601071481
 20
4045.6425852932521
 11
1789.4935913963329
 21
4045.3068461041448
  0
LINE
  5
190
100
AcDbEntity
  8
LAY0_2
  6
CONTINUOUS
 62
             7
100
AcDbLine
 10
1789.5943299377359
 20
4045.9910045380839
 11
1789.0934601071481
 21
4045.6425852932521
  0
LINE
  5
18F
100
AcDbEntity
  8
LAY0_2
  6
CONTINUOUS
 62
             7
100
AcDbLine
 10
1791.0697864100459
 20
4045.6553721605178
 11
1790.6696703796531
 21
4045.9910045380839
  0
LINE
  5
18E
100
AcDbEntity
  8
LAY0_2
  6
CONTINUOUS
 62
             7
100
AcDbLine
 10
1790.568916579459
 20
4045.3068461041448
 11
1791.0697864100459
 21
4045.6553721605178
  0
LINE
  5
18D
100
AcDbEntity
  8
LAY0_2
  6
CONTINUOUS
 62
             7
100
AcDbLine
 10
1790.8101657022769
 20
4046.0517345282069
 11
1791.0272525287739
 21
4047.8195875924021
  0
LINE
  5
18C
100
AcDbEntity
  8
LAY0_2
  6
CONTINUOUS
 62
             7
100
AcDbLine
 10
1790.3337938614229
 20
4042.8779211575311
 11
1789.2623367819399
 21
4042.8779211575311
  0
LINE
  5
18B
100
AcDbEntity
  8
LAY0_2
  6
CONTINUOUS
 62
             7
100
AcDbLine
 10
1790.710296911989
 20
4045.23848671828
 11
1790.439949273803
 21
4043.03687198846
  0
LINE
  5
18A
100
AcDbEntity
  8
LAY0_2
  6
CONTINUOUS
 62
             7
100
AcDbLine
 10
1789.5943299377359
 20
4045.9910045380839
 11
1790.6696703796531
 21
4045.9910045380839
  0
LINE
  5
189
100
AcDbEntity
  8
LAY0_2
  6
CONTINUOUS
 62
             7
100
AcDbLine
 10
1789.0716552941119
 20
4042.954123562221
 11
1789.3530960737089
 21
4045.2461161140241
  0
LINE
  5
188
100
AcDbEntity
  8
LAY0_2
  6
CONTINUOUS
 62
             7
100
AcDbLine
 10
1794.097008570898
 20
4042.8779211575311
 11
1794.240532763632
 21
4042.2028874809021
  0
LINE
  5
187
100
AcDbEntity
  8
LAY0_2
  6
CONTINUOUS
 62
             7
100
AcDbLine
 10
1794.203163983279
 20
4043.03687198846
 11
1794.3732766201799
 21
4042.236548374924
  0
LINE
  5
186
100
AcDbEntity
  8
LAY0_2
  6
CONTINUOUS
 62
             7
100
AcDbLine
 10
1793.025543862019
 20
4042.8779211575311
 11
1792.239029454779
 21
4042.591696746802
  0
LINE
  5
185
100
AcDbEntity
  8
LAY0_2
  6
CONTINUOUS
 62
             7
100
AcDbLine
 10
1792.834870003587
 20
4042.954123562221
 11
1792.185730496112
 21
4042.7178411760319
  0
LINE
  5
184
100
AcDbEntity
  8
LAY0_2
  6
CONTINUOUS
 62
             7
100
AcDbLine
 10
1794.5733880411481
 20
4046.0517345282069
 11
1794.790467238249
 21
4047.8195875924021
  0
LINE
  5
183
100
AcDbEntity
  8
LAY0_2
  6
CONTINUOUS
 62
             7
100
AcDbLine
 10
1793.357537017815
 20
4045.9910045380839
 11
1794.4328927185229
 21
4045.9910045380839
  0
LINE
  5
182
100
AcDbEntity
  8
LAY0_2
  6
CONTINUOUS
 62
             7
100
AcDbLine
 10
1792.8566748166229
 20
4045.6425852932521
 11
1793.256798476413
 21
4045.3068461041448
  0
LINE
  5
181
100
AcDbEntity
  8
LAY0_2
  6
CONTINUOUS
 62
             7
100
AcDbLine
 10
1793.357537017815
 20
4045.9910045380839
 11
1792.8566748166229
 21
4045.6425852932521
  0
LINE
  5
180
100
AcDbEntity
  8
LAY0_2
  6
CONTINUOUS
 62
             7
100
AcDbLine
 10
1792.834870003587
 20
4042.954123562221
 11
1793.116303153789
 21
4045.2461161140241
  0
LINE
  5
17F
100
AcDbEntity
  8
LAY0_2
  6
CONTINUOUS
 62
             7
100
AcDbLine
 10
1793.256798476413
 20
4045.3068461041448
 11
1794.3321312889341
 21
4045.3068461041448
  0
LINE
  5
17E
100
AcDbEntity
  8
LAY0_2
  6
CONTINUOUS
 62
             7
100
AcDbLine
 10
1794.7139291401461
 20
4048.0094985112601
 11
1793.55234600874
 21
4048.0094985112601
  0
LINE
  5
17D
100
AcDbEntity
  8
LAY0_2
  6
CONTINUOUS
 62
             7
100
AcDbLine
 10
1794.097008570898
 20
4042.8779211575311
 11
1793.025543862019
 21
4042.8779211575311
  0
LINE
  5
17C
100
AcDbEntity
  8
LAY0_2
  6
CONTINUOUS
 62
             7
100
AcDbLine
 10
1794.4735192508599
 20
4045.23848671828
 11
1794.203163983279
 21
4043.03687198846
  0
LINE
  5
17B
100
AcDbEntity
  8
LAY0_2
  6
CONTINUOUS
 62
             7
100
AcDbLine
 10
1794.3321312889341
 20
4045.3068461041448
 11
1794.833001119521
 21
4045.6553721605178
  0
LINE
  5
17A
100
AcDbEntity
  8
LAY0_2
  6
CONTINUOUS
 62
             7
100
AcDbLine
 10
1794.790467238249
 20
4047.8195875924021
 11
1795.078682921267
 21
4048.6114883530358
  0
LINE
  5
179
100
AcDbEntity
  8
LAY0_2
  6
CONTINUOUS
 62
             7
100
AcDbLine
 10
1794.7139291401461
 20
4048.0094985112601
 11
1794.951569558777
 21
4048.6622696111081
  0
LINE
  5
178
100
AcDbEntity
  8
LAY0_2
  6
CONTINUOUS
 62
             7
100
AcDbLine
 10
1793.445008040019
 20
4047.9232710805609
 11
1792.941322962402
 21
4048.4269790463659
  0
LINE
  5
177
100
AcDbEntity
  8
LAY0_2
  6
CONTINUOUS
 62
             7
100
AcDbLine
 10
1793.55234600874
 20
4048.0094985112601
 11
1793.0388647869879
 21
4048.5230026211989
  0
LINE
  5
176
100
AcDbEntity
  8
LAY0_2
  6
CONTINUOUS
 62
             7
100
AcDbLine
 10
1794.5733880411481
 20
4046.0517345282069
 11
1794.949349404616
 21
4045.7363353081528
  0
LINE
  5
175
100
AcDbEntity
  8
LAY0_2
  6
CONTINUOUS
 62
             7
100
AcDbLine
 10
1794.4735192508599
 20
4045.23848671828
 11
1794.941628456123
 21
4045.5642161401702
  0
LINE
  5
174
100
AcDbEntity
  8
LAY0_2
  6
CONTINUOUS
 62
             7
100
AcDbLine
 10
1794.833001119521
 20
4045.6553721605178
 11
1794.4328927185229
 21
4045.9910045380839
  0
LINE
  5
173
100
AcDbEntity
  8
LAY0_2
  6
CONTINUOUS
 62
             7
100
AcDbLine
 10
1793.116303153789
 20
4045.2461161140241
 11
1792.740250237571
 21
4045.5617289571578
  0
LINE
  5
172
100
AcDbEntity
  8
LAY0_2
  6
CONTINUOUS
 62
             7
100
AcDbLine
 10
1793.216171944076
 20
4046.059455476699
 11
1792.748093256396
 21
4045.7337718311819
  0
LINE
  5
171
100
AcDbEntity
  8
LAY0_2
  6
CONTINUOUS
 62
             7
100
AcDbLine
 10
1802.240183082994
 20
4048.0094985112601
 11
1801.0785999515881
 21
4048.0094985112601
  0
LINE
  5
170
100
AcDbEntity
  8
LAY0_2
  6
CONTINUOUS
 62
             7
100
AcDbLine
 10
1800.7424258869239
 20
4046.059455476699
 11
1800.9712619828661
 21
4047.9232710805609
  0
LINE
  5
16F
100
AcDbEntity
  8
LAY0_2
  6
CONTINUOUS
 62
             7
100
AcDbLine
 10
1801.9997655643119
 20
4045.23848671828
 11
1801.729417926126
 21
4043.03687198846
  0
LINE
  5
16E
100
AcDbEntity
  8
LAY0_2
  6
CONTINUOUS
 62
             7
100
AcDbLine
 10
1800.783060048657
 20
4045.3068461041448
 11
1801.8583776023861
 21
4045.3068461041448
  0
LINE
  5
16D
100
AcDbEntity
  8
LAY0_2
  6
CONTINUOUS
 62
             7
100
AcDbLine
 10
1801.649339788398
 20
4042.193686429634
 11
1800.4290789743261
 21
4042.193686429634
  0
LINE
  5
16C
100
AcDbEntity
  8
LAY0_2
  6
CONTINUOUS
 62
             7
100
AcDbLine
 10
1801.0423755805959
 20
4048.6937332391558
 11
1802.2626516534599
 21
4048.6937332391558
  0
LINE
  5
16B
100
AcDbEntity
  8
LAY0_2
  6
CONTINUOUS
 62
             7
100
AcDbLine
 10
1800.0751818233491
 20
4046.2394329222971
 11
1800.295366184519
 21
4048.0327681682779
  0
LINE
  5
16A
100
AcDbEntity
  8
LAY0_2
  6
CONTINUOUS
 62
             7
100
AcDbLine
 10
1802.6669867397
 20
4045.0585245314719
 11
1802.3964025902469
 21
4042.8546209829292
  0
LINE
  5
169
100
AcDbEntity
  8
LAY0_2
  6
CONTINUOUS
 62
             7
100
AcDbLine
 10
1803.009683937725
 20
4047.8493422358029
 11
1802.8204291469019
 21
4046.3082958482828
  0
LINE
  5
168
100
AcDbEntity
  8
LAY0_2
  6
CONTINUOUS
 62
             7
100
AcDbLine
 10
1801.6232625137461
 20
4042.8779211575311
 11
1800.5518130636581
 21
4042.8779211575311
  0
LINE
  5
167
100
AcDbEntity
  8
LAY0_2
  6
CONTINUOUS
 62
             7
100
AcDbLine
 10
1802.359262691765
 20
4045.6553721605178
 11
1801.9591390319749
 21
4045.9910045380839
  0
LINE
  5
166
100
AcDbEntity
  8
LAY0_2
  6
CONTINUOUS
 62
             7
100
AcDbLine
 10
1801.8583776023861
 20
4045.3068461041448
 11
1802.359262691765
 21
4045.6553721605178
  0
LINE
  5
165
100
AcDbEntity
  8
LAY0_2
  6
CONTINUOUS
 62
             7
100
AcDbLine
 10
1800.7424258869239
 20
4046.059455476699
 11
1800.2743471992439
 21
4045.7337718311819
  0
LINE
  5
164
100
AcDbEntity
  8
LAY0_2
  6
CONTINUOUS
 62
             7
100
AcDbLine
 10
1801.9997655643119
 20
4045.23848671828
 11
1802.467890028367
 21
4045.5642161401702
  0
LINE
  5
163
100
AcDbEntity
  8
LAY0_2
  6
CONTINUOUS
 62
             7
100
AcDbLine
 10
1800.3829363888669
 20
4045.6425852932521
 11
1800.783060048657
 21
4045.3068461041448
  0
LINE
  5
162
100
AcDbEntity
  8
LAY0_2
  6
CONTINUOUS
 62
             7
100
AcDbLine
 10
1800.883790960663
 20
4045.9910045380839
 11
1801.9591390319749
 21
4045.9910045380839
  0
LINE
  5
161
100
AcDbEntity
  8
LAY0_2
  6
CONTINUOUS
 62
             7
100
AcDbLine
 10
1800.361123946434
 20
4042.954123562221
 11
1800.642557096636
 21
4045.2461161140241
  0
LINE
  5
160
100
AcDbEntity
  8
LAY0_2
  6
CONTINUOUS
 62
             7
100
AcDbLine
 10
1800.883790960663
 20
4045.9910045380839
 11
1800.3829363888669
 21
4045.6425852932521
  0
LINE
  5
15F
100
AcDbEntity
  8
LAY0_2
  6
CONTINUOUS
 62
             7
100
AcDbLine
 10
1802.0996343545989
 20
4046.0517345282069
 11
1802.316728810493
 21
4047.8195875924021
  0
LINE
  5
15E
100
AcDbEntity
  8
LAY0_2
  6
CONTINUOUS
 62
             7
100
AcDbLine
 10
1805.7629039798289
 20
4045.23848671828
 11
1806.231005555697
 21
4045.5642161401702
  0
LINE
  5
15D
100
AcDbEntity
  8
LAY0_2
  6
CONTINUOUS
 62
             7
100
AcDbLine
 10
1806.122378219095
 20
4045.6553721605178
 11
1805.7222698180981
 21
4045.9910045380839
  0
LINE
  5
15C
100
AcDbEntity
  8
LAY0_2
  6
CONTINUOUS
 62
             7
100
AcDbLine
 10
1804.405718400342
 20
4045.2461161140241
 11
1804.0296349665409
 21
4045.5617289571578
  0
LINE
  5
15B
100
AcDbEntity
  8
LAY0_2
  6
CONTINUOUS
 62
             7
100
AcDbLine
 10
1804.5055871906291
 20
4046.059455476699
 11
1804.0374779853651
 21
4045.7337718311819
  0
LINE
  5
15A
100
AcDbEntity
  8
LAY0_2
  6
CONTINUOUS
 62
             7
100
AcDbLine
 10
1805.6215160179031
 20
4045.3068461041448
 11
1806.122378219095
 21
4045.6553721605178
  0
LINE
  5
159
100
AcDbEntity
  8
LAY0_2
  6
CONTINUOUS
 62
             7
100
AcDbLine
 10
1805.8627651407221
 20
4046.0517345282069
 11
1806.079844337823
 21
4047.8195875924021
  0
LINE
  5
158
100
AcDbEntity
  8
LAY0_2
  6
CONTINUOUS
 62
             7
100
AcDbLine
 10
1804.646944634972
 20
4045.9910045380839
 11
1805.7222698180981
 21
4045.9910045380839
  0
LINE
  5
157
100
AcDbEntity
  8
LAY0_2
  6
CONTINUOUS
 62
             7
100
AcDbLine
 10
1804.146067174988
 20
4045.6425852932521
 11
1804.5462137229649
 21
4045.3068461041448
  0
LINE
  5
156
100
AcDbEntity
  8
LAY0_2
  6
CONTINUOUS
 62
             7
100
AcDbLine
 10
1804.646944634972
 20
4045.9910045380839
 11
1804.146067174988
 21
4045.6425852932521
  0
LINE
  5
155
100
AcDbEntity
  8
LAY0_2
  6
CONTINUOUS
 62
             7
100
AcDbLine
 10
1805.8627651407221
 20
4046.0517345282069
 11
1806.23872650419
 21
4045.7363353081528
  0
LINE
  5
154
100
AcDbEntity
  8
LAY0_2
  6
CONTINUOUS
 62
             7
100
AcDbLine
 10
1804.1242776207439
 20
4042.954123562221
 11
1803.4751381132689
 21
4042.7178411760319
  0
LINE
  5
153
100
AcDbEntity
  8
LAY0_2
  6
CONTINUOUS
 62
             7
100
AcDbLine
 10
1805.3864238174499
 20
4042.8779211575311
 11
1805.5299098632061
 21
4042.2028874809021
  0
LINE
  5
152
100
AcDbEntity
  8
LAY0_2
  6
CONTINUOUS
 62
             7
100
AcDbLine
 10
1799.6820619488519
 20
4043.0380469154052
 11
1799.9217394161469
 21
4044.989661605488
  0
LINE
  5
151
100
AcDbEntity
  8
LAY0_2
  6
CONTINUOUS
 62
             7
100
AcDbLine
 10
1804.3149591085721
 20
4042.8779211575311
 11
1803.528437071936
 21
4042.591696746802
  0
LINE
  5
150
100
AcDbEntity
  8
LAY0_2
  6
CONTINUOUS
 62
             7
100
AcDbLine
 10
1805.492548712248
 20
4043.03687198846
 11
1805.662691866733
 21
4042.236548374924
  0
LINE
  5
14F
100
AcDbEntity
  8
LAY0_2
  6
CONTINUOUS
 62
             7
100
AcDbLine
 10
1806.079844337823
 20
4047.8195875924021
 11
1806.368067650237
 21
4048.6114883530358
  0
LINE
  5
14E
100
AcDbEntity
  8
LAY0_2
  6
CONTINUOUS
 62
             7
100
AcDbLine
 10
1806.003336757303
 20
4048.0094985112601
 11
1806.2409542877469
 21
4048.6622696111081
  0
LINE
  5
14D
100
AcDbEntity
  8
LAY0_2
  6
CONTINUOUS
 62
             7
100
AcDbLine
 10
1804.734415657176
 20
4047.9232710805609
 11
1804.230715320768
 21
4048.4269790463659
  0
LINE
  5
14C
100
AcDbEntity
  8
LAY0_2
  6
CONTINUOUS
 62
             7
100
AcDbLine
 10
1804.8417536258969
 20
4048.0094985112601
 11
1804.3282571453531
 21
4048.5230026211989
  0
LINE
  5
14B
100
AcDbEntity
  8
LAY0_2
  6
CONTINUOUS
 62
             7
100
AcDbLine
 10
1800.642557096636
 20
4045.2461161140241
 11
1800.2665118098139
 21
4045.5617289571578
  0
LINE
  5
14A
100
AcDbEntity
  8
LAY0_2
  6
CONTINUOUS
 62
             7
100
AcDbLine
 10
1798.0952239280771
 20
4045.3068461041448
 11
1798.596093758664
 21
4045.6553721605178
  0
LINE
  5
149
100
AcDbEntity
  8
LAY0_2
  6
CONTINUOUS
 62
             7
100
AcDbLine
 10
1796.6197598263709
 20
4045.6425852932521
 11
1797.019891115556
 21
4045.3068461041448
  0
LINE
  5
148
100
AcDbEntity
  8
LAY0_2
  6
CONTINUOUS
 62
             7
100
AcDbLine
 10
1798.2366118900029
 20
4045.23848671828
 11
1798.7047134658701
 21
4045.5642161401702
  0
LINE
  5
147
100
AcDbEntity
  8
LAY0_2
  6
CONTINUOUS
 62
             7
100
AcDbLine
 10
1798.596093758664
 20
4045.6553721605178
 11
1798.1959777282709
 21
4045.9910045380839
  0
LINE
  5
146
100
AcDbEntity
  8
LAY0_2
  6
CONTINUOUS
 62
             7
100
AcDbLine
 10
1797.1206220275619
 20
4045.9910045380839
 11
1796.6197598263709
 21
4045.6425852932521
  0
LINE
  5
145
100
AcDbEntity
  8
LAY0_2
  6
CONTINUOUS
 62
             7
100
AcDbLine
 10
1796.59796264273
 20
4042.954123562221
 11
1796.879395792932
 21
4045.2461161140241
  0
LINE
  5
144
100
AcDbEntity
  8
LAY0_2
  6
CONTINUOUS
 62
             7
100
AcDbLine
 10
1797.8601088394371
 20
4042.8779211575311
 11
1796.788636501162
 21
4042.8779211575311
  0
LINE
  5
143
100
AcDbEntity
  8
LAY0_2
  6
CONTINUOUS
 62
             7
100
AcDbLine
 10
1798.3364730508949
 20
4046.0517345282069
 11
1798.5535522479961
 21
4047.8195875924021
  0
LINE
  5
142
100
AcDbEntity
  8
LAY0_2
  6
CONTINUOUS
 62
             7
100
AcDbLine
 10
1797.1206220275619
 20
4045.9910045380839
 11
1798.1959777282709
 21
4045.9910045380839
  0
LINE
  5
141
100
AcDbEntity
  8
LAY0_2
  6
CONTINUOUS
 62
             7
100
AcDbLine
 10
1796.979264583219
 20
4046.059455476699
 11
1796.511185895539
 21
4045.7337718311819
  0
LINE
  5
140
100
AcDbEntity
  8
LAY0_2
  6
CONTINUOUS
 62
             7
100
AcDbLine
 10
1797.966256622422
 20
4043.03687198846
 11
1798.1363692593241
 21
4042.236548374924
  0
LINE
  5
13F
100
AcDbEntity
  8
LAY0_2
  6
CONTINUOUS
 62
             7
100
AcDbLine
 10
1797.2080930497659
 20
4047.9232710805609
 11
1796.704415601545
 21
4048.4269790463659
  0
LINE
  5
13E
100
AcDbEntity
  8
LAY0_2
  6
CONTINUOUS
 62
             7
100
AcDbLine
 10
1796.59796264273
 20
4042.954123562221
 11
1795.948823135255
 21
4042.7178411760319
  0
LINE
  5
13D
100
AcDbEntity
  8
LAY0_2
  6
CONTINUOUS
 62
             7
100
AcDbLine
 10
1797.8601088394371
 20
4042.8779211575311
 11
1798.00361777338
 21
4042.2028874809021
  0
LINE
  5
13C
100
AcDbEntity
  8
LAY0_2
  6
CONTINUOUS
 62
             7
100
AcDbLine
 10
1797.3154310184871
 20
4048.0094985112601
 11
1796.801949796735
 21
4048.5230026211989
  0
LINE
  5
13B
100
AcDbEntity
  8
LAY0_2
  6
CONTINUOUS
 62
             7
100
AcDbLine
 10
1798.3364730508949
 20
4046.0517345282069
 11
1798.7124344143631
 21
4045.7363353081528
  0
LINE
  5
13A
100
AcDbEntity
  8
LAY0_2
  6
CONTINUOUS
 62
             7
100
AcDbLine
 10
1796.879395792932
 20
4045.2461161140241
 11
1796.503342876714
 21
4045.5617289571578
  0
LINE
  5
139
100
AcDbEntity
  8
LAY0_2
  6
CONTINUOUS
 62
             7
100
AcDbLine
 10
1798.5535522479961
 20
4047.8195875924021
 11
1798.84177556041
 21
4048.6114883530358
  0
LINE
  5
138
100
AcDbEntity
  8
LAY0_2
  6
CONTINUOUS
 62
             7
100
AcDbLine
 10
1798.477014149893
 20
4048.0094985112601
 11
1798.7146621979209
 21
4048.6622696111081
  0
LINE
  5
137
100
AcDbEntity
  8
LAY0_2
  6
CONTINUOUS
 62
             7
100
AcDbLine
 10
1801.6232625137461
 20
4042.8779211575311
 11
1801.7667790770849
 21
4042.2028874809021
  0
LINE
  5
136
100
AcDbEntity
  8
LAY0_2
  6
CONTINUOUS
 62
             7
100
AcDbLine
 10
1801.729417926126
 20
4043.03687198846
 11
1801.899530563029
 21
4042.236548374924
  0
LINE
  5
135
100
AcDbEntity
  8
LAY0_2
  6
CONTINUOUS
 62
             7
100
AcDbLine
 10
1800.5518130636581
 20
4042.8779211575311
 11
1799.7652833976269
 21
4042.591696746802
  0
LINE
  5
134
100
AcDbEntity
  8
LAY0_2
  6
CONTINUOUS
 62
             7
100
AcDbLine
 10
1800.361123946434
 20
4042.954123562221
 11
1799.711992068356
 21
4042.7178411760319
  0
LINE
  5
133
100
AcDbEntity
  8
LAY0_2
  6
CONTINUOUS
 62
             7
100
AcDbLine
 10
1800.9712619828661
 20
4047.9232710805609
 11
1800.467569275854
 21
4048.4269790463659
  0
LINE
  5
132
100
AcDbEntity
  8
LAY0_2
  6
CONTINUOUS
 62
             7
100
AcDbLine
 10
1802.240183082994
 20
4048.0094985112601
 11
1802.477831131021
 21
4048.6622696111081
  0
LINE
  5
131
100
AcDbEntity
  8
LAY0_2
  6
CONTINUOUS
 62
             7
100
AcDbLine
 10
1802.0996343545989
 20
4046.0517345282069
 11
1802.475595718068
 21
4045.7363353081528
  0
LINE
  5
130
100
AcDbEntity
  8
LAY0_2
  6
CONTINUOUS
 62
             7
100
AcDbLine
 10
1801.0785999515881
 20
4048.0094985112601
 11
1800.5651111004399
 21
4048.5230026211989
  0
LINE
  5
12F
100
AcDbEntity
  8
LAY0_2
  6
CONTINUOUS
 62
             7
100
AcDbLine
 10
1802.316728810493
 20
4047.8195875924021
 11
1802.6049444935099
 21
4048.6114883530358
  0
LINE
  5
12E
100
AcDbEntity
  8
LAY0_2
  6
CONTINUOUS
 62
             7
100
AcDbLine
 10
1795.918893015752
 20
4043.0380469154052
 11
1796.1585857418379
 21
4044.989661605488
  0
LINE
  5
12D
100
AcDbEntity
  8
LAY0_2
  6
CONTINUOUS
 62
             7
100
AcDbLine
 10
1798.477014149893
 20
4048.0094985112601
 11
1797.3154310184871
 21
4048.0094985112601
  0
LINE
  5
12C
100
AcDbEntity
  8
LAY0_2
  6
CONTINUOUS
 62
             7
100
AcDbLine
 10
1796.979264583219
 20
4046.059455476699
 11
1797.2080930497659
 21
4047.9232710805609
  0
LINE
  5
12B
100
AcDbEntity
  8
LAY0_2
  6
CONTINUOUS
 62
             7
100
AcDbLine
 10
1798.2366118900029
 20
4045.23848671828
 11
1797.966256622422
 21
4043.03687198846
  0
LINE
  5
12A
100
AcDbEntity
  8
LAY0_2
  6
CONTINUOUS
 62
             7
100
AcDbLine
 10
1797.019891115556
 20
4045.3068461041448
 11
1798.0952239280771
 21
4045.3068461041448
  0
LINE
  5
129
100
AcDbEntity
  8
LAY0_2
  6
CONTINUOUS
 62
             7
100
AcDbLine
 10
1797.886186114089
 20
4042.193686429634
 11
1796.665910041226
 21
4042.193686429634
  0
LINE
  5
128
100
AcDbEntity
  8
LAY0_2
  6
CONTINUOUS
 62
             7
100
AcDbLine
 10
1797.279214276891
 20
4048.6937332391558
 11
1798.4994827203591
 21
4048.6937332391558
  0
LINE
  5
127
100
AcDbEntity
  8
LAY0_2
  6
CONTINUOUS
 62
             7
100
AcDbLine
 10
1796.312020519644
 20
4046.2394329222971
 11
1796.532197251418
 21
4048.0327681682779
  0
LINE
  5
126
100
AcDbEntity
  8
LAY0_2
  6
CONTINUOUS
 62
             7
100
AcDbLine
 10
1798.903825435995
 20
4045.0585245314719
 11
1798.63322602775
 21
4042.8546209829292
  0
LINE
  5
125
100
AcDbEntity
  8
LAY0_2
  6
CONTINUOUS
 62
             7
100
AcDbLine
 10
1799.2465073752289
 20
4047.8493422358029
 11
1799.057267843197
 21
4046.3082958482828
  0
LINE
  5
124
100
AcDbEntity
  8
LAY0_2
  6
CONTINUOUS
 62
             7
100
AcDbLine
 10
1925.2416630268219
 20
4042.243765783297
 11
1926.241663185767
 21
4042.243765783297
  0
LINE
  5
123
100
AcDbEntity
  8
LAY0_2
  6
CONTINUOUS
 62
             7
100
AcDbLine
 10
1926.241663185767
 20
4042.668768902608
 11
1926.5096685994599
 21
4042.6922064063328
  0
LINE
  5
122
100
AcDbEntity
  8
LAY0_2
  6
CONTINUOUS
 62
             7
100
AcDbLine
 10
1926.241663185767
 20
4048.6437454382421
 11
1926.241663185767
 21
4042.243765783297
  0
LINE
  5
121
100
AcDbEntity
  8
LAY0_2
  6
CONTINUOUS
 62
             7
100
AcDbLine
 10
1925.2416630268219
 20
4048.6437454382421
 11
1926.241663185767
 21
4048.6437454382421
  0
LINE
  5
120
100
AcDbEntity
  8
LAY0_2
  6
CONTINUOUS
 62
             7
100
AcDbLine
 10
1926.241663185767
 20
4048.2187423189321
 11
1926.5096685994599
 21
4048.1953048152068
  0
LINE
  5
11F
100
AcDbEntity
  8
LAY0_2
  6
CONTINUOUS
 62
             7
100
AcDbLine
 10
1798.408753946173
 20
4059.6936739523931
 11
1798.7560135228521
 21
4060.6478824780829
  0
LINE
  5
11E
100
AcDbEntity
  8
LAY0_2
  6
CONTINUOUS
 62
             7
100
AcDbLine
 10
1798.203332465768
 20
4056.832436925346
 11
1798.7528702118061
 21
4056.3713925405418
  0
LINE
  5
11D
100
AcDbEntity
  8
LAY0_2
  6
CONTINUOUS
 62
             7
100
AcDbLine
 10
1796.7110684346339
 20
4059.6936739523931
 11
1795.960557145909
 21
4060.444299682054
  0
LINE
  5
11C
100
AcDbEntity
  8
LAY0_2
  6
CONTINUOUS
 62
             7
100
AcDbLine
 10
1798.520516964425
 20
4059.4159944648982
 11
1798.941789309217
 21
4060.5734195756231
  0
LINE
  5
11B
100
AcDbEntity
  8
LAY0_2
  6
CONTINUOUS
 62
             7
100
AcDbLine
 10
1796.0737544905619
 20
4055.6549617626051
 11
1795.524224373919
 21
4056.1160824413669
  0
LINE
  5
11A
100
AcDbEntity
  8
LAY0_2
  6
CONTINUOUS
 62
             7
100
AcDbLine
 10
1798.5827728336949
 20
4056.2530300949711
 11
1797.997956761737
 21
4056.7437986055929
  0
LINE
  5
119
100
AcDbEntity
  8
LAY0_2
  6
CONTINUOUS
 62
             7
100
AcDbLine
 10
1797.8507704590461
 20
4055.743737411482
 11
1798.5827728336949
 21
4056.2530300949711
  0
LINE
  5
118
100
AcDbEntity
  8
LAY0_2
  6
CONTINUOUS
 62
             7
100
AcDbLine
 10
1796.2196514253731
 20
4056.8436368782982
 11
1795.5355769147859
 21
4056.3676999130021
  0
LINE
  5
117
100
AcDbEntity
  8
LAY0_2
  6
CONTINUOUS
 62
             7
100
AcDbLine
 10
1798.057336348812
 20
4055.643838103611
 11
1798.7415100415431
 21
4056.1197903276989
  0
LINE
  5
116
100
AcDbEntity
  8
LAY0_2
  6
CONTINUOUS
 62
             7
100
AcDbLine
 10
1796.554185169952
 20
4059.5677736638272
 11
1795.818108697975
 21
4060.3038272476169
  0
LINE
  5
115
100
AcDbEntity
  8
LAY0_2
  6
CONTINUOUS
 62
             7
100
AcDbLine
 10
1797.507134845345
 20
4052.1937490542568
 11
1797.7168593049489
 21
4051.2071308554459
  0
LINE
  5
114
100
AcDbEntity
  8
LAY0_2
  6
CONTINUOUS
 62
             7
100
AcDbLine
 10
1797.662225202027
 20
4052.425926825536
 11
1797.9108519505289
 21
4051.256218387663
  0
LINE
  5
113
100
AcDbEntity
  8
LAY0_2
  6
CONTINUOUS
 62
             7
100
AcDbLine
 10
1795.9411632219289
 20
4052.1937490542568
 11
1794.791573500632
 21
4051.7752766977042
  0
LINE
  5
112
100
AcDbEntity
  8
LAY0_2
  6
CONTINUOUS
 62
             7
100
AcDbLine
 10
1795.6624690247991
 20
4052.3050924557442
 11
1794.713707887669
 21
4051.9598012631659
  0
LINE
  5
111
100
AcDbEntity
  8
LAY0_2
  6
CONTINUOUS
 62
             7
100
AcDbLine
 10
1799.5333726551989
 20
4059.4596498673441
 11
1799.25682994767
 21
4057.2072538794532
  0
LINE
  5
110
100
AcDbEntity
  8
LAY0_2
  6
CONTINUOUS
 62
             7
100
AcDbLine
 10
1796.6581127987749
 20
4060.6937198877131
 11
1798.4415832360589
 21
4060.6937198877131
  0
LINE
  5
10F
100
AcDbEntity
  8
LAY0_2
  6
CONTINUOUS
 62
             7
100
AcDbLine
 10
1797.54523604769
 20
4051.1936878601459
 11
1795.761780869198
 21
4051.1936878601459
  0
LINE
  5
10E
100
AcDbEntity
  8
LAY0_2
  6
CONTINUOUS
 62
             7
100
AcDbLine
 10
1799.032548600986
 20
4055.3808375735271
 11
1798.6370865019969
 21
4052.1596303964911
  0
LINE
  5
10D
100
AcDbEntity
  8
LAY0_2
  6
CONTINUOUS
 62
             7
100
AcDbLine
 10
1795.244446802594
 20
4057.106606890799
 11
1795.566338638426
 21
4059.7278078689519
  0
LINE
  5
10C
100
AcDbEntity
  8
LAY0_2
  6
CONTINUOUS
 62
             7
100
AcDbLine
 10
1803.0071662371299
 20
4052.1937490542568
 11
1803.2167991439851
 21
4051.2071308554459
  0
LINE
  5
10B
100
AcDbEntity
  8
LAY0_2
  6
CONTINUOUS
 62
             7
100
AcDbLine
 10
1803.162279481998
 20
4052.425926825536
 11
1803.410883342314
 21
4051.256218387663
  0
LINE
  5
10A
100
AcDbEntity
  8
LAY0_2
  6
CONTINUOUS
 62
             7
100
AcDbLine
 10
1794.6700143382441
 20
4052.4277121041409
 11
1795.020211232285
 21
4055.2802211024568
  0
LINE
  5
109
100
AcDbEntity
  8
LAY0_2
  6
CONTINUOUS
 62
             7
100
AcDbLine
 10
1801.441125949151
 20
4052.1937490542568
 11
1800.291582004229
 21
4051.7752766977042
  0
LINE
  5
108
100
AcDbEntity
  8
LAY0_2
  6
CONTINUOUS
 62
             7
100
AcDbLine
 10
1796.2196514253731
 20
4056.8436368782982
 11
1796.554185169952
 21
4059.5677736638272
  0
LINE
  5
107
100
AcDbEntity
  8
LAY0_2
  6
CONTINUOUS
 62
             7
100
AcDbLine
 10
1798.203332465768
 20
4056.832436925346
 11
1798.520516964425
 21
4059.4159944648982
  0
LINE
  5
106
100
AcDbEntity
  8
LAY0_2
  6
CONTINUOUS
 62
             7
100
AcDbLine
 10
1796.426316497284
 20
4056.7437986055929
 11
1797.997956761737
 21
4056.7437986055929
  0
LINE
  5
105
100
AcDbEntity
  8
LAY0_2
  6
CONTINUOUS
 62
             7
100
AcDbLine
 10
1795.6942912344471
 20
4056.2344448869389
 11
1796.2791378239881
 21
4055.743737411482
  0
LINE
  5
104
100
AcDbEntity
  8
LAY0_2
  6
CONTINUOUS
 62
             7
100
AcDbLine
 10
1796.426316497284
 20
4056.7437986055929
 11
1795.6942912344471
 21
4056.2344448869389
  0
LINE
  5
103
100
AcDbEntity
  8
LAY0_2
  6
CONTINUOUS
 62
             7
100
AcDbLine
 10
1795.6624690247991
 20
4052.3050924557442
 11
1796.0737544905619
 21
4055.6549617626051
  0
LINE
  5
102
100
AcDbEntity
  8
LAY0_2
  6
CONTINUOUS
 62
             7
100
AcDbLine
 10
1796.2791378239881
 20
4055.743737411482
 11
1797.8507704590461
 21
4055.743737411482
  0
LINE
  5
101
100
AcDbEntity
  8
LAY0_2
  6
CONTINUOUS
 62
             7
100
AcDbLine
 10
1798.408753946173
 20
4059.6936739523931
 11
1796.7110684346339
 21
4059.6936739523931
  0
LINE
  5
100
100
AcDbEntity
  8
LAY0_2
  6
CONTINUOUS
 62
             7
100
AcDbLine
 10
1797.507134845345
 20
4052.1937490542568
 11
1795.9411632219289
 21
4052.1937490542568
  0
LINE
  5
FF
100
AcDbEntity
  8
LAY0_2
  6
CONTINUOUS
 62
             7
100
AcDbLine
 10
1798.057336348812
 20
4055.643838103611
 11
1797.662225202027
 21
4052.425926825536
  0
LINE
  5
FE
100
AcDbEntity
  8
LAY0_2
  6
CONTINUOUS
 62
             7
100
AcDbLine
 10
1808.497554072693
 20
4047.9232710805609
 11
1807.9938918832629
 21
4048.4269790463659
  0
LINE
  5
FD
100
AcDbEntity
  8
LAY0_2
  6
CONTINUOUS
 62
             7
100
AcDbLine
 10
1808.60489967081
 20
4048.0094985112601
 11
1808.0914337078491
 21
4048.5230026211989
  0
LINE
  5
FC
100
AcDbEntity
  8
LAY0_2
  6
CONTINUOUS
 62
             7
100
AcDbLine
 10
1809.149562232968
 20
4042.8779211575311
 11
1809.293078796306
 21
4042.2028874809021
  0
LINE
  5
FB
100
AcDbEntity
  8
LAY0_2
  6
CONTINUOUS
 62
             7
100
AcDbLine
 10
1809.255740533536
 20
4043.03687198846
 11
1809.4258302822509
 21
4042.236548374924
  0
LINE
  5
FA
100
AcDbEntity
  8
LAY0_2
  6
CONTINUOUS
 62
             7
100
AcDbLine
 10
1809.84302090032
 20
4047.8195875924021
 11
1810.131251842128
 21
4048.6114883530358
  0
LINE
  5
F9
100
AcDbEntity
  8
LAY0_2
  6
CONTINUOUS
 62
             7
100
AcDbLine
 10
1808.1688568158579
 20
4045.2461161140241
 11
1807.7927962702449
 21
4045.5617289571578
  0
LINE
  5
F8
100
AcDbEntity
  8
LAY0_2
  6
CONTINUOUS
 62
             7
100
AcDbLine
 10
1808.2687256061461
 20
4046.059455476699
 11
1807.800669806654
 21
4045.7337718311819
  0
LINE
  5
F7
100
AcDbEntity
  8
LAY0_2
  6
CONTINUOUS
 62
             7
100
AcDbLine
 10
1809.7664751728209
 20
4048.0094985112601
 11
1810.004123220848
 21
4048.6622696111081
  0
LINE
  5
F6
100
AcDbEntity
  8
LAY0_2
  6
CONTINUOUS
 62
             7
100
AcDbLine
 10
1809.625956962009
 20
4046.0517345282069
 11
1810.0018954372899
 21
4045.7363353081528
  0
LINE
  5
F5
100
AcDbEntity
  8
LAY0_2
  6
CONTINUOUS
 62
             7
100
AcDbLine
 10
1807.8874236656579
 20
4042.954123562221
 11
1807.238284158183
 21
4042.7178411760319
  0
LINE
  5
F4
100
AcDbEntity
  8
LAY0_2
  6
CONTINUOUS
 62
             7
100
AcDbLine
 10
1808.54526068428
 20
4051.1936878601459
 11
1806.761790246996
 21
4051.1936878601459
  0
LINE
  5
F3
100
AcDbEntity
  8
LAY0_2
  6
CONTINUOUS
 62
             7
100
AcDbLine
 10
1810.032596125764
 20
4055.3808375735271
 11
1809.6370424740251
 21
4052.1596303964911
  0
LINE
  5
F2
100
AcDbEntity
  8
LAY0_2
  6
CONTINUOUS
 62
             7
100
AcDbLine
 10
1809.408755694576
 20
4059.6936739523931
 11
1807.7110472948491
 21
4059.6936739523931
  0
LINE
  5
F1
100
AcDbEntity
  8
LAY0_2
  6
CONTINUOUS
 62
             7
100
AcDbLine
 10
1807.2196760619629
 20
4056.8436368782982
 11
1807.554171659564
 21
4059.5677736638272
  0
LINE
  5
F0
100
AcDbEntity
  8
LAY0_2
  6
CONTINUOUS
 62
             7
100
AcDbLine
 10
1810.533404921186
 20
4059.4596498673441
 11
1810.2568393254689
 21
4057.2072538794532
  0
LINE
  5
EF
100
AcDbEntity
  8
LAY0_2
  6
CONTINUOUS
 62
             7
100
AcDbLine
 10
1805.669962680877
 20
4052.4277121041409
 11
1806.0202129806889
 21
4055.2802211024568
  0
LINE
  5
EE
100
AcDbEntity
  8
LAY0_2
  6
CONTINUOUS
 62
             7
100
AcDbLine
 10
1808.0780975240889
 20
4042.8779211575311
 11
1807.2915831168491
 21
4042.591696746802
  0
LINE
  5
ED
100
AcDbEntity
  8
LAY0_2
  6
CONTINUOUS
 62
             7
100
AcDbLine
 10
1807.6581450647609
 20
4060.6937198877131
 11
1809.4416155020449
 21
4060.6937198877131
  0
LINE
  5
EC
100
AcDbEntity
  8
LAY0_2
  6
CONTINUOUS
 62
             7
100
AcDbLine
 10
1806.244471439185
 20
4057.106606890799
 11
1806.5663403868291
 21
4059.7278078689519
  0
LINE
  5
EB
100
AcDbEntity
  8
LAY0_2
  6
CONTINUOUS
 62
             7
100
AcDbLine
 10
1808.2687256061461
 20
4046.059455476699
 11
1808.497554072693
 21
4047.9232710805609
  0
LINE
  5
EA
100
AcDbEntity
  8
LAY0_2
  6
CONTINUOUS
 62
             7
100
AcDbLine
 10
1809.1756395076211
 20
4042.193686429634
 11
1807.9553939523389
 21
4042.193686429634
  0
LINE
  5
E9
100
AcDbEntity
  8
LAY0_2
  6
CONTINUOUS
 62
             7
100
AcDbLine
 10
1808.3093521384819
 20
4045.3068461041448
 11
1809.384700209795
 21
4045.3068461041448
  0
LINE
  5
E8
100
AcDbEntity
  8
LAY0_2
  6
CONTINUOUS
 62
             7
100
AcDbLine
 10
1809.7664751728209
 20
4048.0094985112601
 11
1808.60489967081
 21
4048.0094985112601
  0
LINE
  5
E7
100
AcDbEntity
  8
LAY0_2
  6
CONTINUOUS
 62
             7
100
AcDbLine
 10
1810.1932864589221
 20
4045.0585245314719
 11
1809.9227023094679
 21
4042.8546209829292
  0
LINE
  5
E6
100
AcDbEntity
  8
LAY0_2
  6
CONTINUOUS
 62
             7
100
AcDbLine
 10
1807.601504430758
 20
4046.2394329222971
 11
1807.8216735331359
 21
4048.0327681682779
  0
LINE
  5
E5
100
AcDbEntity
  8
LAY0_2
  6
CONTINUOUS
 62
             7
100
AcDbLine
 10
1807.208346409283
 20
4043.0380469154052
 11
1807.448062023557
 21
4044.989661605488
  0
LINE
  5
E4
100
AcDbEntity
  8
LAY0_2
  6
CONTINUOUS
 62
             7
100
AcDbLine
 10
1810.535968398156
 20
4047.8493422358029
 11
1810.3467212367279
 21
4046.3082958482828
  0
LINE
  5
E3
100
AcDbEntity
  8
LAY0_2
  6
CONTINUOUS
 62
             7
100
AcDbLine
 10
1808.5686981880051
 20
4048.6937332391558
 11
1809.7889437432859
 21
4048.6937332391558
  0
LINE
  5
E2
100
AcDbEntity
  8
LAY0_2
  6
CONTINUOUS
 62
             7
100
AcDbLine
 10
1809.5260881717211
 20
4045.23848671828
 11
1809.255740533536
 21
4043.03687198846
  0
LINE
  5
E1
100
AcDbEntity
  8
LAY0_2
  6
CONTINUOUS
 62
             7
100
AcDbLine
 10
1809.384700209795
 20
4045.3068461041448
 11
1809.8855700403819
 21
4045.6553721605178
  0
LINE
  5
E0
100
AcDbEntity
  8
LAY0_2
  6
CONTINUOUS
 62
             7
100
AcDbLine
 10
1807.9092208492971
 20
4045.6425852932521
 11
1808.3093521384819
 21
4045.3068461041448
  0
LINE
  5
DF
100
AcDbEntity
  8
LAY0_2
  6
CONTINUOUS
 62
             7
100
AcDbLine
 10
1809.5260881717211
 20
4045.23848671828
 11
1809.9941821181931
 21
4045.5642161401702
  0
LINE
  5
DE
100
AcDbEntity
  8
LAY0_2
  6
CONTINUOUS
 62
             7
100
AcDbLine
 10
1809.8855700403819
 20
4045.6553721605178
 11
1809.485461639385
 21
4045.9910045380839
  0
LINE
  5
DD
100
AcDbEntity
  8
LAY0_2
  6
CONTINUOUS
 62
             7
100
AcDbLine
 10
1808.4100906798849
 20
4045.9910045380839
 11
1807.9092208492971
 21
4045.6425852932521
  0
LINE
  5
DC
100
AcDbEntity
  8
LAY0_2
  6
CONTINUOUS
 62
             7
100
AcDbLine
 10
1807.8874236656579
 20
4042.954123562221
 11
1808.1688568158579
 21
4045.2461161140241
  0
LINE
  5
DB
100
AcDbEntity
  8
LAY0_2
  6
CONTINUOUS
 62
             7
100
AcDbLine
 10
1809.149562232968
 20
4042.8779211575311
 11
1808.0780975240889
 21
4042.8779211575311
  0
LINE
  5
DA
100
AcDbEntity
  8
LAY0_2
  6
CONTINUOUS
 62
             7
100
AcDbLine
 10
1809.625956962009
 20
4046.0517345282069
 11
1809.84302090032
 21
4047.8195875924021
  0
LINE
  5
D9
100
AcDbEntity
  8
LAY0_2
  6
CONTINUOUS
 62
             7
100
AcDbLine
 10
1808.4100906798849
 20
4045.9910045380839
 11
1809.485461639385
 21
4045.9910045380839
  0
LINE
  5
D8
100
AcDbEntity
  8
LAY0_2
  6
CONTINUOUS
 62
             7
100
AcDbLine
 10
1809.057368614798
 20
4055.643838103611
 11
1808.6622498386171
 21
4052.425926825536
  0
LINE
  5
D7
100
AcDbEntity
  8
LAY0_2
  6
CONTINUOUS
 62
             7
100
AcDbLine
 10
1801.92625633632
 20
4056.7437986055929
 11
1803.497942377147
 21
4056.7437986055929
  0
LINE
  5
D6
100
AcDbEntity
  8
LAY0_2
  6
CONTINUOUS
 62
             7
100
AcDbLine
 10
1803.0071662371299
 20
4052.1937490542568
 11
1801.441125949151
 21
4052.1937490542568
  0
LINE
  5
D5
100
AcDbEntity
  8
LAY0_2
  6
CONTINUOUS
 62
             7
100
AcDbLine
 10
1801.92625633632
 20
4056.7437986055929
 11
1801.194276849857
 21
4056.2344448869389
  0
LINE
  5
D4
100
AcDbEntity
  8
LAY0_2
  6
CONTINUOUS
 62
             7
100
AcDbLine
 10
1803.703264675408
 20
4056.832436925346
 11
1804.0205559856061
 21
4059.4159944648982
  0
LINE
  5
D3
100
AcDbEntity
  8
LAY0_2
  6
CONTINUOUS
 62
             7
100
AcDbLine
 10
1803.557329593619
 20
4055.643838103611
 11
1803.162279481998
 21
4052.425926825536
  0
LINE
  5
D2
100
AcDbEntity
  8
LAY0_2
  6
CONTINUOUS
 62
             7
100
AcDbLine
 10
1801.7196904465529
 20
4056.8436368782982
 11
1802.054132638383
 21
4059.5677736638272
  0
LINE
  5
D1
100
AcDbEntity
  8
LAY0_2
  6
CONTINUOUS
 62
             7
100
AcDbLine
 10
1803.045290327661
 20
4051.1936878601459
 11
1801.261789372795
 21
4051.1936878601459
  0
LINE
  5
D0
100
AcDbEntity
  8
LAY0_2
  6
CONTINUOUS
 62
             7
100
AcDbLine
 10
1801.7791234393969
 20
4055.743737411482
 11
1803.3507789626431
 21
4055.743737411482
  0
LINE
  5
CF
100
AcDbEntity
  8
LAY0_2
  6
CONTINUOUS
 62
             7
100
AcDbLine
 10
1803.908731932187
 20
4059.6936739523931
 11
1802.2110540500439
 21
4059.6936739523931
  0
LINE
  5
CE
100
AcDbEntity
  8
LAY0_2
  6
CONTINUOUS
 62
             7
100
AcDbLine
 10
1801.194276849857
 20
4056.2344448869389
 11
1801.7791234393969
 21
4055.743737411482
  0
LINE
  5
CD
100
AcDbEntity
  8
LAY0_2
  6
CONTINUOUS
 62
             7
100
AcDbLine
 10
1804.0205559856061
 20
4059.4159944648982
 11
1804.4417825540229
 21
4060.5734195756231
  0
LINE
  5
CC
100
AcDbEntity
  8
LAY0_2
  6
CONTINUOUS
 62
             7
100
AcDbLine
 10
1803.908731932187
 20
4059.6936739523931
 11
1804.2560143970541
 21
4060.6478824780829
  0
LINE
  5
CB
100
AcDbEntity
  8
LAY0_2
  6
CONTINUOUS
 62
             7
100
AcDbLine
 10
1802.054132638383
 20
4059.5677736638272
 11
1801.318048537011
 21
4060.3038272476169
  0
LINE
  5
CA
100
AcDbEntity
  8
LAY0_2
  6
CONTINUOUS
 62
             7
100
AcDbLine
 10
1802.2110540500439
 20
4059.6936739523931
 11
1801.460535131924
 21
4060.444299682054
  0
LINE
  5
C9
100
AcDbEntity
  8
LAY0_2
  6
CONTINUOUS
 62
             7
100
AcDbLine
 10
1803.703264675408
 20
4056.832436925346
 11
1804.25284819782
 21
4056.3713925405418
  0
LINE
  5
C8
100
AcDbEntity
  8
LAY0_2
  6
CONTINUOUS
 62
             7
100
AcDbLine
 10
1804.082735560919
 20
4056.2530300949711
 11
1803.497942377147
 21
4056.7437986055929
  0
LINE
  5
C7
100
AcDbEntity
  8
LAY0_2
  6
CONTINUOUS
 62
             7
100
AcDbLine
 10
1803.3507789626431
 20
4055.743737411482
 11
1804.082735560919
 21
4056.2530300949711
  0
LINE
  5
C6
100
AcDbEntity
  8
LAY0_2
  6
CONTINUOUS
 62
             7
100
AcDbLine
 10
1801.7196904465529
 20
4056.8436368782982
 11
1801.0355777889879
 21
4056.3676999130021
  0
LINE
  5
C5
100
AcDbEntity
  8
LAY0_2
  6
CONTINUOUS
 62
             7
100
AcDbLine
 10
1803.557329593619
 20
4055.643838103611
 11
1804.2414651393699
 21
4056.1197903276989
  0
LINE
  5
C4
100
AcDbEntity
  8
LAY0_2
  6
CONTINUOUS
 62
             7
100
AcDbLine
 10
1809.2033036965879
 20
4056.832436925346
 11
1809.752894848396
 21
4056.3713925405418
  0
LINE
  5
C3
100
AcDbEntity
  8
LAY0_2
  6
CONTINUOUS
 62
             7
100
AcDbLine
 10
1807.0736875744039
 20
4055.6549617626051
 11
1806.524172716553
 21
4056.1160824413669
  0
LINE
  5
C2
100
AcDbEntity
  8
LAY0_2
  6
CONTINUOUS
 62
             7
100
AcDbLine
 10
1809.520526342224
 20
4059.4159944648982
 11
1809.941791057619
 21
4060.5734195756231
  0
LINE
  5
C1
100
AcDbEntity
  8
LAY0_2
  6
CONTINUOUS
 62
             7
100
AcDbLine
 10
1809.408755694576
 20
4059.6936739523931
 11
1809.7559847536729
 21
4060.6478824780829
  0
LINE
  5
C0
100
AcDbEntity
  8
LAY0_2
  6
CONTINUOUS
 62
             7
100
AcDbLine
 10
1807.2196760619629
 20
4056.8436368782982
 11
1806.5355176280241
 21
4056.3676999130021
  0
LINE
  5
BF
100
AcDbEntity
  8
LAY0_2
  6
CONTINUOUS
 62
             7
100
AcDbLine
 10
1806.662417367432
 20
4052.3050924557442
 11
1807.0736875744039
 21
4055.6549617626051
  0
LINE
  5
BE
100
AcDbEntity
  8
LAY0_2
  6
CONTINUOUS
 62
             7
100
AcDbLine
 10
1808.507136593747
 20
4052.1937490542568
 11
1806.9411344527491
 21
4052.1937490542568
  0
LINE
  5
BD
100
AcDbEntity
  8
LAY0_2
  6
CONTINUOUS
 62
             7
100
AcDbLine
 10
1809.057368614798
 20
4055.643838103611
 11
1809.7415117899459
 21
4056.1197903276989
  0
LINE
  5
BC
100
AcDbEntity
  8
LAY0_2
  6
CONTINUOUS
 62
             7
100
AcDbLine
 10
1809.2033036965879
 20
4056.832436925346
 11
1809.520526342224
 21
4059.4159944648982
  0
LINE
  5
BB
100
AcDbEntity
  8
LAY0_2
  6
CONTINUOUS
 62
             7
100
AcDbLine
 10
1807.7110472948491
 20
4059.6936739523931
 11
1806.960513117938
 21
4060.444299682054
  0
LINE
  5
BA
100
AcDbEntity
  8
LAY0_2
  6
CONTINUOUS
 62
             7
100
AcDbLine
 10
1802.1581518199559
 20
4060.6937198877131
 11
1803.9415917396559
 21
4060.6937198877131
  0
LINE
  5
B9
100
AcDbEntity
  8
LAY0_2
  6
CONTINUOUS
 62
             7
100
AcDbLine
 10
1800.7444324180051
 20
4057.106606890799
 11
1801.066347142023
 21
4059.7278078689519
  0
LINE
  5
B8
100
AcDbEntity
  8
LAY0_2
  6
CONTINUOUS
 62
             7
100
AcDbLine
 10
1804.5325799927709
 20
4055.3808375735271
 11
1804.1370950055939
 21
4052.1596303964911
  0
LINE
  5
B7
100
AcDbEntity
  8
LAY0_2
  6
CONTINUOUS
 62
             7
100
AcDbLine
 10
1805.0334269351711
 20
4059.4596498673441
 11
1804.756807933685
 21
4057.2072538794532
  0
LINE
  5
B6
100
AcDbEntity
  8
LAY0_2
  6
CONTINUOUS
 62
             7
100
AcDbLine
 10
1806.9411344527491
 20
4052.1937490542568
 11
1805.791628654805
 21
4051.7752766977042
  0
LINE
  5
B5
100
AcDbEntity
  8
LAY0_2
  6
CONTINUOUS
 62
             7
100
AcDbLine
 10
1808.6622498386171
 20
4052.425926825536
 11
1808.910907104703
 21
4051.256218387663
  0
LINE
  5
B4
100
AcDbEntity
  8
LAY0_2
  6
CONTINUOUS
 62
             7
100
AcDbLine
 10
1807.554171659564
 20
4059.5677736638272
 11
1806.8180570406071
 21
4060.3038272476169
  0
LINE
  5
B3
100
AcDbEntity
  8
LAY0_2
  6
CONTINUOUS
 62
             7
100
AcDbLine
 10
1806.662417367432
 20
4052.3050924557442
 11
1805.713686747886
 21
4051.9598012631659
  0
LINE
  5
B2
100
AcDbEntity
  8
LAY0_2
  6
CONTINUOUS
 62
             7
100
AcDbLine
 10
1808.507136593747
 20
4052.1937490542568
 11
1808.716838165165
 21
4051.2071308554459
  0
LINE
  5
B1
100
AcDbEntity
  8
LAY0_2
  6
CONTINUOUS
 62
             7
100
AcDbLine
 10
1785.0737756303461
 20
4055.6549617626051
 11
1784.524230254912
 21
4056.1160824413669
  0
LINE
  5
B0
100
AcDbEntity
  8
LAY0_2
  6
CONTINUOUS
 62
             7
100
AcDbLine
 10
1785.2196649357611
 20
4056.8436368782982
 11
1784.535582795779
 21
4056.3676999130021
  0
LINE
  5
AF
100
AcDbEntity
  8
LAY0_2
  6
CONTINUOUS
 62
             7
100
AcDbLine
 10
1787.4087598271651
 20
4059.6936739523931
 11
1787.7560194038449
 21
4060.6478824780829
  0
LINE
  5
AE
100
AcDbEntity
  8
LAY0_2
  6
CONTINUOUS
 62
             7
100
AcDbLine
 10
1787.203338346761
 20
4056.832436925346
 11
1787.7528760927989
 21
4056.3713925405418
  0
LINE
  5
AD
100
AcDbEntity
  8
LAY0_2
  6
CONTINUOUS
 62
             7
100
AcDbLine
 10
1787.0573498592009
 20
4055.643838103611
 11
1787.741523551932
 21
4056.1197903276989
  0
LINE
  5
AC
100
AcDbEntity
  8
LAY0_2
  6
CONTINUOUS
 62
             7
100
AcDbLine
 10
1784.694297115439
 20
4056.2344448869389
 11
1785.2791437049809
 21
4055.743737411482
  0
LINE
  5
AB
100
AcDbEntity
  8
LAY0_2
  6
CONTINUOUS
 62
             7
100
AcDbLine
 10
1785.426330007672
 20
4056.7437986055929
 11
1784.694297115439
 21
4056.2344448869389
  0
LINE
  5
AA
100
AcDbEntity
  8
LAY0_2
  6
CONTINUOUS
 62
             7
100
AcDbLine
 10
1787.5827863440841
 20
4056.2530300949711
 11
1786.99796264273
 21
4056.7437986055929
  0
LINE
  5
A9
100
AcDbEntity
  8
LAY0_2
  6
CONTINUOUS
 62
             7
100
AcDbLine
 10
1786.85079159883
 20
4055.743737411482
 11
1787.5827863440841
 21
4056.2530300949711
  0
LINE
  5
A8
100
AcDbEntity
  8
LAY0_2
  6
CONTINUOUS
 62
             7
100
AcDbLine
 10
1787.520530474814
 20
4059.4159944648982
 11
1787.9417951902089
 21
4060.5734195756231
  0
LINE
  5
A7
100
AcDbEntity
  8
LAY0_2
  6
CONTINUOUS
 62
             7
100
AcDbLine
 10
1778.170004086244
 20
4052.4277121041409
 11
1778.520208609681
 21
4055.2802211024568
  0
LINE
  5
A6
100
AcDbEntity
  8
LAY0_2
  6
CONTINUOUS
 62
             7
100
AcDbLine
 10
1784.9411691029211
 20
4052.1937490542568
 11
1783.7915870110201
 21
4051.7752766977042
  0
LINE
  5
A5
100
AcDbEntity
  8
LAY0_2
  6
CONTINUOUS
 62
             7
100
AcDbLine
 10
1780.1581101761701
 20
4060.6937198877131
 11
1781.941572984058
 21
4060.6937198877131
  0
LINE
  5
A4
100
AcDbEntity
  8
LAY0_2
  6
CONTINUOUS
 62
             7
100
AcDbLine
 10
1778.7444365505939
 20
4057.106606890799
 11
1779.066328386426
 21
4059.7278078689519
  0
LINE
  5
A3
100
AcDbEntity
  8
LAY0_2
  6
CONTINUOUS
 62
             7
100
AcDbLine
 10
1784.662482535188
 20
4052.3050924557442
 11
1783.7137213980579
 21
4051.9598012631659
  0
LINE
  5
A2
100
AcDbEntity
  8
LAY0_2
  6
CONTINUOUS
 62
             7
100
AcDbLine
 10
1785.5541986803401
 20
4059.5677736638272
 11
1784.8181222083631
 21
4060.3038272476169
  0
LINE
  5
A1
100
AcDbEntity
  8
LAY0_2
  6
CONTINUOUS
 62
             7
100
AcDbLine
 10
1785.711081945022
 20
4059.6936739523931
 11
1784.960563026902
 21
4060.444299682054
  0
LINE
  5
A0
100
AcDbEntity
  8
LAY0_2
  6
CONTINUOUS
 62
             7
100
AcDbLine
 10
1786.507140726337
 20
4052.1937490542568
 11
1786.716872815337
 21
4051.2071308554459
  0
LINE
  5
9F
100
AcDbEntity
  8
LAY0_2
  6
CONTINUOUS
 62
             7
100
AcDbLine
 10
1786.662238712415
 20
4052.425926825536
 11
1786.9108654609181
 21
4051.256218387663
  0
LINE
  5
9E
100
AcDbEntity
  8
LAY0_2
  6
CONTINUOUS
 62
             7
100
AcDbLine
 10
1784.244452683587
 20
4057.106606890799
 11
1784.5663521488141
 21
4059.7278078689519
  0
LINE
  5
9D
100
AcDbEntity
  8
LAY0_2
  6
CONTINUOUS
 62
             7
100
AcDbLine
 10
1783.6700202192369
 20
4052.4277121041409
 11
1784.0202247426739
 21
4055.2802211024568
  0
LINE
  5
9C
100
AcDbEntity
  8
LAY0_2
  6
CONTINUOUS
 62
             7
100
AcDbLine
 10
1788.533378536192
 20
4059.4596498673441
 11
1788.256843458058
 21
4057.2072538794532
  0
LINE
  5
9B
100
AcDbEntity
  8
LAY0_2
  6
CONTINUOUS
 62
             7
100
AcDbLine
 10
1785.658118679768
 20
4060.6937198877131
 11
1787.441596746447
 21
4060.6937198877131
  0
LINE
  5
9A
100
AcDbEntity
  8
LAY0_2
  6
CONTINUOUS
 62
             7
100
AcDbLine
 10
1790.4411928653101
 20
4052.1937490542568
 11
1789.291610773409
 21
4051.7752766977042
  0
LINE
  5
99
100
AcDbEntity
  8
LAY0_2
  6
CONTINUOUS
 62
             7
100
AcDbLine
 10
1792.1622548454079
 20
4052.425926825536
 11
1792.410889223306
 21
4051.256218387663
  0
LINE
  5
98
100
AcDbEntity
  8
LAY0_2
  6
CONTINUOUS
 62
             7
100
AcDbLine
 10
1791.054222442729
 20
4059.5677736638272
 11
1790.318138341356
 21
4060.3038272476169
  0
LINE
  5
97
100
AcDbEntity
  8
LAY0_2
  6
CONTINUOUS
 62
             7
100
AcDbLine
 10
1790.1624986681809
 20
4052.3050924557442
 11
1789.2137299016549
 21
4051.9598012631659
  0
LINE
  5
96
100
AcDbEntity
  8
LAY0_2
  6
CONTINUOUS
 62
             7
100
AcDbLine
 10
1792.0071644887259
 20
4052.1937490542568
 11
1792.2168889483301
 21
4051.2071308554459
  0
LINE
  5
95
100
AcDbEntity
  8
LAY0_2
  6
CONTINUOUS
 62
             7
100
AcDbLine
 10
1788.0325544819791
 20
4055.3808375735271
 11
1787.637100012385
 21
4052.1596303964911
  0
LINE
  5
94
100
AcDbEntity
  8
LAY0_2
  6
CONTINUOUS
 62
             7
100
AcDbLine
 10
1784.662482535188
 20
4052.3050924557442
 11
1785.0737756303461
 21
4055.6549617626051
  0
LINE
  5
93
100
AcDbEntity
  8
LAY0_2
  6
CONTINUOUS
 62
             7
100
AcDbLine
 10
1786.507140726337
 20
4052.1937490542568
 11
1784.9411691029211
 21
4052.1937490542568
  0
LINE
  5
92
100
AcDbEntity
  8
LAY0_2
  6
CONTINUOUS
 62
             7
100
AcDbLine
 10
1787.203338346761
 20
4056.832436925346
 11
1787.520530474814
 21
4059.4159944648982
  0
LINE
  5
91
100
AcDbEntity
  8
LAY0_2
  6
CONTINUOUS
 62
             7
100
AcDbLine
 10
1785.426330007672
 20
4056.7437986055929
 11
1786.99796264273
 21
4056.7437986055929
  0
LINE
  5
90
100
AcDbEntity
  8
LAY0_2
  6
CONTINUOUS
 62
             7
100
AcDbLine
 10
1787.0573498592009
 20
4055.643838103611
 11
1786.662238712415
 21
4052.425926825536
  0
LINE
  5
8F
100
AcDbEntity
  8
LAY0_2
  6
CONTINUOUS
 62
             7
100
AcDbLine
 10
1785.2196649357611
 20
4056.8436368782982
 11
1785.5541986803401
 21
4059.5677736638272
  0
LINE
  5
8E
100
AcDbEntity
  8
LAY0_2
  6
CONTINUOUS
 62
             7
100
AcDbLine
 10
1786.545249558078
 20
4051.1936878601459
 11
1784.7618020089819
 21
4051.1936878601459
  0
LINE
  5
8D
100
AcDbEntity
  8
LAY0_2
  6
CONTINUOUS
 62
             7
100
AcDbLine
 10
1785.2791437049809
 20
4055.743737411482
 11
1786.85079159883
 21
4055.743737411482
  0
LINE
  5
8C
100
AcDbEntity
  8
LAY0_2
  6
CONTINUOUS
 62
             7
100
AcDbLine
 10
1787.4087598271651
 20
4059.6936739523931
 11
1785.711081945022
 21
4059.6936739523931
  0
LINE
  5
8B
100
AcDbEntity
  8
LAY0_2
  6
CONTINUOUS
 62
             7
100
AcDbLine
 10
1783.0333624031989
 20
4059.4596498673441
 11
1782.7568196956699
 21
4057.2072538794532
  0
LINE
  5
8A
100
AcDbEntity
  8
LAY0_2
  6
CONTINUOUS
 62
             7
100
AcDbLine
 10
1779.441152969928
 20
4052.1937490542568
 11
1778.2915632486311
 21
4051.7752766977042
  0
LINE
  5
89
100
AcDbEntity
  8
LAY0_2
  6
CONTINUOUS
 62
             7
100
AcDbLine
 10
1779.162458772799
 20
4052.3050924557442
 11
1778.2137052650651
 21
4051.9598012631659
  0
LINE
  5
88
100
AcDbEntity
  8
LAY0_2
  6
CONTINUOUS
 62
             7
100
AcDbLine
 10
1803.8383202388659
 20
4046.2394329222971
 11
1804.058489341244
 21
4048.0327681682779
  0
LINE
  5
87
100
AcDbEntity
  8
LAY0_2
  6
CONTINUOUS
 62
             7
100
AcDbLine
 10
1803.445185105579
 20
4043.0380469154052
 11
1803.68488546106
 21
4044.989661605488
  0
LINE
  5
86
100
AcDbEntity
  8
LAY0_2
  6
CONTINUOUS
 62
             7
100
AcDbLine
 10
1781.0071245933441
 20
4052.1937490542568
 11
1781.2168566823441
 21
4051.2071308554459
  0
LINE
  5
85
100
AcDbEntity
  8
LAY0_2
  6
CONTINUOUS
 62
             7
100
AcDbLine
 10
1780.211058182633
 20
4059.6936739523931
 11
1779.4605545233051
 21
4060.444299682054
  0
LINE
  5
84
100
AcDbEntity
  8
LAY0_2
  6
CONTINUOUS
 62
             7
100
AcDbLine
 10
1782.020506712425
 20
4059.4159944648982
 11
1782.4417790572161
 21
4060.5734195756231
  0
LINE
  5
83
100
AcDbEntity
  8
LAY0_2
  6
CONTINUOUS
 62
             7
100
AcDbLine
 10
1781.162222579422
 20
4052.425926825536
 11
1781.4108416985291
 21
4051.256218387663
  0
LINE
  5
82
100
AcDbEntity
  8
LAY0_2
  6
CONTINUOUS
 62
             7
100
AcDbLine
 10
1780.0541749179511
 20
4059.5677736638272
 11
1779.3180984459741
 21
4060.3038272476169
  0
LINE
  5
81
100
AcDbEntity
  8
LAY0_2
  6
CONTINUOUS
 62
             7
100
AcDbLine
 10
1804.805506366718
 20
4048.6937332391558
 11
1806.0258053277689
 21
4048.6937332391558
  0
LINE
  5
80
100
AcDbEntity
  8
LAY0_2
  6
CONTINUOUS
 62
             7
100
AcDbLine
 10
1805.7629039798289
 20
4045.23848671828
 11
1805.492548712248
 21
4043.03687198846
  0
LINE
  5
7F
100
AcDbEntity
  8
LAY0_2
  6
CONTINUOUS
 62
             7
100
AcDbLine
 10
1804.5462137229649
 20
4045.3068461041448
 11
1805.6215160179031
 21
4045.3068461041448
  0
LINE
  5
7E
100
AcDbEntity
  8
LAY0_2
  6
CONTINUOUS
 62
             7
100
AcDbLine
 10
1804.1242776207439
 20
4042.954123562221
 11
1804.405718400342
 21
4045.2461161140241
  0
LINE
  5
7D
100
AcDbEntity
  8
LAY0_2
  6
CONTINUOUS
 62
             7
100
AcDbLine
 10
1805.3864238174499
 20
4042.8779211575311
 11
1804.3149591085721
 21
4042.8779211575311
  0
LINE
  5
7C
100
AcDbEntity
  8
LAY0_2
  6
CONTINUOUS
 62
             7
100
AcDbLine
 10
1806.003336757303
 20
4048.0094985112601
 11
1804.8417536258969
 21
4048.0094985112601
  0
LINE
  5
7B
100
AcDbEntity
  8
LAY0_2
  6
CONTINUOUS
 62
             7
100
AcDbLine
 10
1806.4301480434051
 20
4045.0585245314719
 11
1806.1595486351589
 21
4042.8546209829292
  0
LINE
  5
7A
100
AcDbEntity
  8
LAY0_2
  6
CONTINUOUS
 62
             7
100
AcDbLine
 10
1806.7728299826381
 20
4047.8493422358029
 11
1806.5835828212109
 21
4046.3082958482828
  0
LINE
  5
79
100
AcDbEntity
  8
LAY0_2
  6
CONTINUOUS
 62
             7
100
AcDbLine
 10
1804.5055871906291
 20
4046.059455476699
 11
1804.734415657176
 21
4047.9232710805609
  0
LINE
  5
78
100
AcDbEntity
  8
LAY0_2
  6
CONTINUOUS
 62
             7
100
AcDbLine
 10
1805.412501092103
 20
4042.193686429634
 11
1804.192202131052
 21
4042.193686429634
  0
LINE
  5
77
100
AcDbEntity
  8
LAY0_2
  6
CONTINUOUS
 62
             7
100
AcDbLine
 10
1781.0071245933441
 20
4052.1937490542568
 11
1779.441152969928
 21
4052.1937490542568
  0
LINE
  5
76
100
AcDbEntity
  8
LAY0_2
  6
CONTINUOUS
 62
             7
100
AcDbLine
 10
1781.5573337262081
 20
4055.643838103611
 11
1781.162222579422
 21
4052.425926825536
  0
LINE
  5
75
100
AcDbEntity
  8
LAY0_2
  6
CONTINUOUS
 62
             7
100
AcDbLine
 10
1779.9263062452831
 20
4056.7437986055929
 11
1781.4979465097369
 21
4056.7437986055929
  0
LINE
  5
74
100
AcDbEntity
  8
LAY0_2
  6
CONTINUOUS
 62
             7
100
AcDbLine
 10
1779.162458772799
 20
4052.3050924557442
 11
1779.5737518679571
 21
4055.6549617626051
  0
LINE
  5
73
100
AcDbEntity
  8
LAY0_2
  6
CONTINUOUS
 62
             7
100
AcDbLine
 10
1779.7791275719869
 20
4055.743737411482
 11
1781.3507602070461
 21
4055.743737411482
  0
LINE
  5
72
100
AcDbEntity
  8
LAY0_2
  6
CONTINUOUS
 62
             7
100
AcDbLine
 10
1781.0452334250849
 20
4051.1936878601459
 11
1779.2617782465929
 21
4051.1936878601459
  0
LINE
  5
71
100
AcDbEntity
  8
LAY0_2
  6
CONTINUOUS
 62
             7
100
AcDbLine
 10
1782.532538348986
 20
4055.3808375735271
 11
1782.137076249996
 21
4052.1596303964911
  0
LINE
  5
70
100
AcDbEntity
  8
LAY0_2
  6
CONTINUOUS
 62
             7
100
AcDbLine
 10
1781.908743694172
 20
4059.6936739523931
 11
1780.211058182633
 21
4059.6936739523931
  0
LINE
  5
6F
100
AcDbEntity
  8
LAY0_2
  6
CONTINUOUS
 62
             7
100
AcDbLine
 10
1779.719648802768
 20
4056.8436368782982
 11
1780.0541749179511
 21
4059.5677736638272
  0
LINE
  5
6E
100
AcDbEntity
  8
LAY0_2
  6
CONTINUOUS
 62
             7
100
AcDbLine
 10
1781.7033222137679
 20
4056.832436925346
 11
1782.020506712425
 21
4059.4159944648982
  0
LINE
  5
6D
100
AcDbEntity
  8
LAY0_2
  6
CONTINUOUS
 62
             7
100
AcDbLine
 10
1779.5737518679571
 20
4055.6549617626051
 11
1779.0242141219189
 21
4056.1160824413669
  0
LINE
  5
6C
100
AcDbEntity
  8
LAY0_2
  6
CONTINUOUS
 62
             7
100
AcDbLine
 10
1779.719648802768
 20
4056.8436368782982
 11
1779.0355666627861
 21
4056.3676999130021
  0
LINE
  5
6B
100
AcDbEntity
  8
LAY0_2
  6
CONTINUOUS
 62
             7
100
AcDbLine
 10
1781.908743694172
 20
4059.6936739523931
 11
1782.2559956414559
 21
4060.6478824780829
  0
LINE
  5
6A
100
AcDbEntity
  8
LAY0_2
  6
CONTINUOUS
 62
             7
100
AcDbLine
 10
1781.7033222137679
 20
4056.832436925346
 11
1782.2528599598049
 21
4056.3713925405418
  0
LINE
  5
69
100
AcDbEntity
  8
LAY0_2
  6
CONTINUOUS
 62
             7
100
AcDbLine
 10
1781.5573337262081
 20
4055.643838103611
 11
1782.241499789543
 21
4056.1197903276989
  0
LINE
  5
68
100
AcDbEntity
  8
LAY0_2
  6
CONTINUOUS
 62
             7
100
AcDbLine
 10
1779.194280982447
 20
4056.2344448869389
 11
1779.7791275719869
 21
4055.743737411482
  0
LINE
  5
67
100
AcDbEntity
  8
LAY0_2
  6
CONTINUOUS
 62
             7
100
AcDbLine
 10
1779.9263062452831
 20
4056.7437986055929
 11
1779.194280982447
 21
4056.2344448869389
  0
LINE
  5
66
100
AcDbEntity
  8
LAY0_2
  6
CONTINUOUS
 62
             7
100
AcDbLine
 10
1782.0827625816951
 20
4056.2530300949711
 11
1781.4979465097369
 21
4056.7437986055929
  0
LINE
  5
65
100
AcDbEntity
  8
LAY0_2
  6
CONTINUOUS
 62
             7
100
AcDbLine
 10
1781.3507602070461
 20
4055.743737411482
 11
1782.0827625816951
 21
4056.2530300949711
  0
LINE
  5
64
100
AcDbEntity
  8
LAY0_2
  6
CONTINUOUS
 62
             7
100
AcDbLine
 10
1790.9263461406649
 20
4056.7437986055929
 11
1792.4979787757229
 21
4056.7437986055929
  0
LINE
  5
63
100
AcDbEntity
  8
LAY0_2
  6
CONTINUOUS
 62
             7
100
AcDbLine
 10
1790.1624986681809
 20
4052.3050924557442
 11
1790.5737917633389
 21
4055.6549617626051
  0
LINE
  5
62
100
AcDbEntity
  8
LAY0_2
  6
CONTINUOUS
 62
             7
100
AcDbLine
 10
1790.9263461406649
 20
4056.7437986055929
 11
1790.194313248433
 21
4056.2344448869389
  0
LINE
  5
61
100
AcDbEntity
  8
LAY0_2
  6
CONTINUOUS
 62
             7
100
AcDbLine
 10
1792.7033621091491
 20
4056.832436925346
 11
1793.0205542372021
 21
4059.4159944648982
  0
LINE
  5
60
100
AcDbEntity
  8
LAY0_2
  6
CONTINUOUS
 62
             7
100
AcDbLine
 10
1792.0071644887259
 20
4052.1937490542568
 11
1790.4411928653101
 21
4052.1937490542568
  0
LINE
  5
5F
100
AcDbEntity
  8
LAY0_2
  6
CONTINUOUS
 62
             7
100
AcDbLine
 10
1792.9087835895541
 20
4059.6936739523931
 11
1791.2110980780151
 21
4059.6936739523931
  0
LINE
  5
5E
100
AcDbEntity
  8
LAY0_2
  6
CONTINUOUS
 62
             7
100
AcDbLine
 10
1790.719681068754
 20
4056.8436368782982
 11
1791.054222442729
 21
4059.5677736638272
  0
LINE
  5
5D
100
AcDbEntity
  8
LAY0_2
  6
CONTINUOUS
 62
             7
100
AcDbLine
 10
1792.557365992194
 20
4055.643838103611
 11
1792.1622548454079
 21
4052.425926825536
  0
LINE
  5
5C
100
AcDbEntity
  8
LAY0_2
  6
CONTINUOUS
 62
             7
100
AcDbLine
 10
1790.779167467369
 20
4055.743737411482
 11
1792.3508077318229
 21
4055.743737411482
  0
LINE
  5
5B
100
AcDbEntity
  8
LAY0_2
  6
CONTINUOUS
 62
             7
100
AcDbLine
 10
1790.194313248433
 20
4056.2344448869389
 11
1790.779167467369
 21
4055.743737411482
  0
LINE
  5
5A
100
AcDbEntity
  8
LAY0_2
  6
CONTINUOUS
 62
             7
100
AcDbLine
 10
1792.9087835895541
 20
4059.6936739523931
 11
1793.2560431662339
 21
4060.6478824780829
  0
LINE
  5
59
100
AcDbEntity
  8
LAY0_2
  6
CONTINUOUS
 62
             7
100
AcDbLine
 10
1792.7033621091491
 20
4056.832436925346
 11
1793.252892225792
 21
4056.3713925405418
  0
LINE
  5
58
100
AcDbEntity
  8
LAY0_2
  6
CONTINUOUS
 62
             7
100
AcDbLine
 10
1791.2110980780151
 20
4059.6936739523931
 11
1790.460586789291
 21
4060.444299682054
  0
LINE
  5
57
100
AcDbEntity
  8
LAY0_2
  6
CONTINUOUS
 62
             7
100
AcDbLine
 10
1793.0205542372021
 20
4059.4159944648982
 11
1793.441811323202
 21
4060.5734195756231
  0
LINE
  5
56
100
AcDbEntity
  8
LAY0_2
  6
CONTINUOUS
 62
             7
100
AcDbLine
 10
1790.5737917633389
 20
4055.6549617626051
 11
1790.0242463879049
 21
4056.1160824413669
  0
LINE
  5
55
100
AcDbEntity
  8
LAY0_2
  6
CONTINUOUS
 62
             7
100
AcDbLine
 10
1793.0828101064731
 20
4056.2530300949711
 11
1792.4979787757229
 21
4056.7437986055929
  0
LINE
  5
54
100
AcDbEntity
  8
LAY0_2
  6
CONTINUOUS
 62
             7
100
AcDbLine
 10
1792.3508077318229
 20
4055.743737411482
 11
1793.0828101064731
 21
4056.2530300949711
  0
LINE
  5
53
100
AcDbEntity
  8
LAY0_2
  6
CONTINUOUS
 62
             7
100
AcDbLine
 10
1790.719681068754
 20
4056.8436368782982
 11
1790.0356141875641
 21
4056.3676999130021
  0
LINE
  5
52
100
AcDbEntity
  8
LAY0_2
  6
CONTINUOUS
 62
             7
100
AcDbLine
 10
1792.557365992194
 20
4055.643838103611
 11
1793.241532055529
 21
4056.1197903276989
  0
LINE
  5
51
100
AcDbEntity
  8
LAY0_2
  6
CONTINUOUS
 62
             7
100
AcDbLine
 10
1801.1624927871881
 20
4052.3050924557442
 11
1800.213724020663
 21
4051.9598012631659
  0
LINE
  5
50
100
AcDbEntity
  8
LAY0_2
  6
CONTINUOUS
 62
             7
100
AcDbLine
 10
1801.5737858823461
 20
4055.6549617626051
 11
1801.0242328775171
 21
4056.1160824413669
  0
LINE
  5
4F
100
AcDbEntity
  8
LAY0_2
  6
CONTINUOUS
 62
             7
100
AcDbLine
 10
1807.4262877281039
 20
4056.7437986055929
 11
1808.997981398328
 21
4056.7437986055929
  0
LINE
  5
4E
100
AcDbEntity
  8
LAY0_2
  6
CONTINUOUS
 62
             7
100
AcDbLine
 10
1807.2791624605779
 20
4055.743737411482
 11
1808.850779836845
 21
4055.743737411482
  0
LINE
  5
4D
100
AcDbEntity
  8
LAY0_2
  6
CONTINUOUS
 62
             7
100
AcDbLine
 10
1801.1624927871881
 20
4052.3050924557442
 11
1801.5737858823461
 21
4055.6549617626051
  0
LINE
  5
4C
100
AcDbEntity
  8
LAY0_2
  6
CONTINUOUS
 62
             7
100
AcDbLine
 10
1800.170022841842
 20
4052.4277121041409
 11
1800.5202273652781
 21
4055.2802211024568
  0
LINE
  5
4B
100
AcDbEntity
  8
LAY0_2
  6
CONTINUOUS
 62
             7
100
AcDbLine
 10
1807.4262877281039
 20
4056.7437986055929
 11
1806.694292982851
 21
4056.2344448869389
  0
LINE
  5
4A
100
AcDbEntity
  8
LAY0_2
  6
CONTINUOUS
 62
             7
100
AcDbLine
 10
1794.0333946691851
 20
4059.4596498673441
 11
1793.7568595910509
 21
4057.2072538794532
  0
LINE
  5
49
100
AcDbEntity
  8
LAY0_2
  6
CONTINUOUS
 62
             7
100
AcDbLine
 10
1791.158150071552
 20
4060.6937198877131
 11
1792.941620508836
 21
4060.6937198877131
  0
LINE
  5
48
100
AcDbEntity
  8
LAY0_2
  6
CONTINUOUS
 62
             7
100
AcDbLine
 10
1792.0452656910711
 20
4051.1936878601459
 11
1790.261818141975
 21
4051.1936878601459
  0
LINE
  5
47
100
AcDbEntity
  8
LAY0_2
  6
CONTINUOUS
 62
             7
100
AcDbLine
 10
1793.5325782443681
 20
4055.3808375735271
 11
1793.137123774774
 21
4052.1596303964911
  0
LINE
  5
46
100
AcDbEntity
  8
LAY0_2
  6
CONTINUOUS
 62
             7
100
AcDbLine
 10
1789.744476445976
 20
4057.106606890799
 11
1790.066360652412
 21
4059.7278078689519
  0
LINE
  5
45
100
AcDbEntity
  8
LAY0_2
  6
CONTINUOUS
 62
             7
100
AcDbLine
 10
1808.850779836845
 20
4055.743737411482
 11
1809.5827516939121
 21
4056.2530300949711
  0
LINE
  5
44
100
AcDbEntity
  8
LAY0_2
  6
CONTINUOUS
 62
             7
100
AcDbLine
 10
1806.694292982851
 20
4056.2344448869389
 11
1807.2791624605779
 21
4055.743737411482
  0
LINE
  5
43
100
AcDbEntity
  8
LAY0_2
  6
CONTINUOUS
 62
             7
100
AcDbLine
 10
1789.17003635223
 20
4052.4277121041409
 11
1789.520240875667
 21
4055.2802211024568
  0
LINE
  5
42
100
AcDbEntity
  8
LAY0_2
  6
CONTINUOUS
 62
             7
100
AcDbLine
 10
1809.5827516939121
 20
4056.2530300949711
 11
1808.997981398328
 21
4056.7437986055929
  0
LINE
  5
41
100
AcDbEntity
  8
LAY0_2
  6
CONTINUOUS
 62
             7
100
AcDbLine
 10
1864.5416069984469
 20
4025.943760140723
 11
1866.1351436286859
 21
4025.943760140723
  0
LINE
  5
40
100
AcDbEntity
  8
LAY0_2
  6
CONTINUOUS
 62
             7
100
AcDbLine
 10
1864.5416069984469
 20
4067.9437668164442
 11
1865.884746860371
 21
4067.9437668164442
  0
LINE
  5
3F
100
AcDbEntity
  8
LAY0_2
  6
CONTINUOUS
 62
             7
100
AcDbLine
 10
1864.5416069984469
 20
4064.9437510808152
 11
1866.1351436286859
 21
4064.9437510808152
  0
LINE
  5
3E
100
AcDbEntity
  8
LAY0_2
  6
CONTINUOUS
 62
             7
100
AcDbLine
 10
1864.5416069984469
 20
4022.9437596638859
 11
1865.884746860371
 21
4022.9437596638859
  0
LINE
  5
3D
100
AcDbEntity
  8
LAY0_2
  6
CONTINUOUS
 62
             7
100
AcDbLine
 10
1866.041607236865
 20
4023.08307243017
 11
1866.041607236865
 21
4021.6937442064118
  0
LINE
  5
3C
100
AcDbEntity
  8
LAY0_2
  6
CONTINUOUS
 62
             7
100
AcDbLine
 10
1866.041607236865
 20
4064.9437510808152
 11
1866.041607236865
 21
4025.943760140723
  0
LINE
  5
3B
100
AcDbEntity
  8
LAY0_2
  6
CONTINUOUS
 62
             7
100
AcDbLine
 10
1866.041607236865
 20
4069.1937517563351
 11
1866.041607236865
 21
4067.8044235325779
  0
LINE
  5
3A
100
AcDbEntity
  8
LAY0_2
  6
CONTINUOUS
 62
             7
100
AcDbLine
 10
1866.041607236865
 20
4069.1937517563351
 11
1881.0416096210511
 21
4069.1937517563351
  0
LINE
  5
39
100
AcDbEntity
  8
LAY0_2
  6
CONTINUOUS
 62
             7
100
AcDbLine
 10
1872.0416234493309
 20
4042.9437628428
 11
1875.937269210129
 21
4042.9437628428
  0
LINE
  5
38
100
AcDbEntity
  8
LAY0_2
  6
CONTINUOUS
 62
             7
100
AcDbLine
 10
1871.041608031594
 20
4043.943763001746
 11
1871.041608031594
 21
4046.9437482197918
  0
LINE
  5
37
100
AcDbEntity
  8
LAY0_2
  6
CONTINUOUS
 62
             7
100
AcDbLine
 10
1872.0416234493309
 20
4047.9437483787378
 11
1875.937269210129
 21
4047.9437483787378
  0
LINE
  5
36
100
AcDbEntity
  8
LAY0_2
  6
CONTINUOUS
 62
             7
100
AcDbLine
 10
1866.041607236865
 20
4050.4437640348938
 11
1871.7320683464179
 21
4050.4437640348938
  0
LINE
  5
35
100
AcDbEntity
  8
LAY0_2
  6
CONTINUOUS
 62
             7
100
AcDbLine
 10
1866.041607236865
 20
4021.6937442064118
 11
1881.0416096210511
 21
4021.6937442064118
  0
LINE
  5
34
100
AcDbEntity
  8
LAY0_2
  6
CONTINUOUS
 62
             7
100
AcDbLine
 10
1881.0416096210511
 20
4069.1937517563351
 11
1881.0416096210511
 21
4021.6937442064118
  0
LINE
  5
33
100
AcDbEntity
  8
LAY0_2
  6
CONTINUOUS
 62
             7
100
AcDbLine
 10
1866.041607236865
 20
4040.4437471866449
 11
1871.7320683464179
 21
4040.4437471866449
  0
LINE
  5
32
100
AcDbEntity
  8
1
  6
CONTINUOUS
 62
             7
100
AcDbLine
 10
1859.2416067600279
 20
4069.4437823136541
 11
1859.2416067600279
 21
4070.4437823136541
  0
LINE
  5
31
100
AcDbEntity
  8
1
  6
CONTINUOUS
 62
             7
100
AcDbLine
 10
1859.2416067600279
 20
4070.4437823136541
 11
1860.7416067600279
 21
4070.4437823136541
  0
LINE
  5
30
100
AcDbEntity
  8
1
  6
CONTINUOUS
 62
             7
100
AcDbLine
 10
1860.7416067600279
 20
4070.4437823136541
 11
1860.7416067600279
 21
4020.443698390302
  0
LINE
  5
2F
100
AcDbEntity
  8
1
  6
CONTINUOUS
 62
             7
100
AcDbLine
 10
1860.7416067600279
 20
4020.443698390302
 11
1859.2416067600279
 21
4020.443698390302
  0
LINE
  5
2E
100
AcDbEntity
  8
1
  6
CONTINUOUS
 62
             7
100
AcDbLine
 10
1859.2416067600279
 20
4020.443698390302
 11
1859.2416067600279
 21
4021.443698390302
  0
LINE
  5
2D
100
AcDbEntity
  8
1
  6
CONTINUOUS
 62
             7
100
AcDbLine
 10
1768.7415893554701
 20
4020.443698390302
 11
1818.7415893554701
 21
4020.443698390302
  0
LINE
  5
2C
100
AcDbEntity
  8
1
  6
CONTINUOUS
 62
             7
100
AcDbLine
 10
1818.7415893554701
 20
4020.443698390302
 11
1818.7415893554701
 21
4070.4437823136541
  0
LINE
  5
2B
100
AcDbEntity
  8
1
  6
CONTINUOUS
 62
             7
100
AcDbLine
 10
1818.7415893554701
 20
4070.4437823136541
 11
1768.7415893554701
 21
4070.4437823136541
  0
LINE
  5
2A
100
AcDbEntity
  8
1
  6
CONTINUOUS
 62
             7
100
AcDbLine
 10
1768.7415893554701
 20
4070.4437823136541
 11
1768.7415893554701
 21
4020.443698390302
  0
ENDSEC
  0
SECTION
  2
OBJECTS
  0
DICTIONARY
  5
19
100
AcDbDictionary
  3
ACAD_GROUP
350
1A
  3
ACAD_MLINESTYLE
350
1B
  0
DICTIONARY
  5
1A
102
{ACAD_REACTORS
330
19
102
}
100
AcDbDictionary
  0
DICTIONARY
  5
1B
102
{ACAD_REACTORS
330
19
102
}
100
AcDbDictionary
  3
STANDARD
350
1C
  0
MLINESTYLE
  5
1C
102
{ACAD_REACTORS
330
1B
102
}
100
AcDbMlineStyle
  2
STANDARD
 70
             0
  3

 62
             0
 51
90.0
 52
90.0
 71
             2
 49
0.5
 62
           256
  6
BYLAYER
 49
-0.5
 62
           256
  6
BYLAYER
  0
ENDSEC
  0
EOF
