  0
SECTION
  2
HEADER
  9
$ACADVER
  1
AC1014
  9
$ACADMAINTVER
 70
             0
  9
$DWGCODEPAGE
  3
ANSI_1252
  9
$INSBASE
 10
0.0
 20
0.0
 30
0.0
  9
$EXTMIN
 10
1.00000000000000E+20
 20
1.00000000000000E+20
 30
1.00000000000000E+20
  9
$EXTMAX
 10
-1.00000000000000E+20
 20
-1.00000000000000E+20
 30
-1.00000000000000E+20
  9
$LIMMIN
 10
0.0
 20
0.0
  9
$LIMMAX
 10
0.0
 20
0.0
  9
$ORTHOMODE
 70
             0
  9
$REGENMODE
 70
             1
  9
$FILLMODE
 70
             1
  9
$QTEXTMODE
 70
             0
  9
$MIRRTEXT
 70
             1
  9
$DRAGMODE
 70
             2
  9
$LTSCALE
 40
1.0
  9
$OSMODE
 70
             0
  9
$ATTMODE
 70
             1
  9
$TEXTSIZE
 40
0.2
  9
$TRACEWID
 40
0.05
  9
$TEXTSTYLE
  7
STANDARD
  9
$CLAYER
  8
0
  9
$CELTYPE
  6
CONTINUOUS
  9
$CECOLOR
 62
           256
  9
$CELTSCALE
 40
1.0
  9
$DELOBJ
 70
             1
  9
$DISPSILH
 70
             0
  9
$DIMSCALE
 40
1.0
  9
$DIMASZ
 40
0.18
  9
$DIMEXO
 40
0.0625
  9
$DIMDLI
 40
0.38
  9
$DIMRND
 40
0.0
  9
$DIMDLE
 40
0.0
  9
$DIMEXE
 40
0.18
  9
$DIMTP
 40
0.0
  9
$DIMTM
 40
0.0
  9
$DIMTXT
 40
0.18
  9
$DIMCEN
 40
0.09
  9
$DIMTSZ
 40
0.0
  9
$DIMTOL
 70
             0
  9
$DIMLIM
 70
             0
  9
$DIMTIH
 70
             1
  9
$DIMTOH
 70
             1
  9
$DIMSE1
 70
             0
  9
$DIMSE2
 70
             0
  9
$DIMTAD
 70
             0
  9
$DIMZIN
 70
             0
  9
$DIMBLK
  1

  9
$DIMASO
 70
             1
  9
$DIMSHO
 70
             1
  9
$DIMPOST
  1

  9
$DIMAPOST
  1

  9
$DIMALT
 70
             0
  9
$DIMALTD
 70
             2
  9
$DIMALTF
 40
25.4
  9
$DIMLFAC
 40
1.0
  9
$DIMTOFL
 70
             0
  9
$DIMTVP
 40
0.0
  9
$DIMTIX
 70
             0
  9
$DIMSOXD
 70
             0
  9
$DIMSAH
 70
             0
  9
$DIMBLK1
  1

  9
$DIMBLK2
  1

  9
$DIMSTYLE
  2
STANDARD
  9
$DIMCLRD
 70
             0
  9
$DIMCLRE
 70
             0
  9
$DIMCLRT
 70
             0
  9
$DIMTFAC
 40
1.0
  9
$DIMGAP
 40
0.09
  9
$DIMJUST
 70
             0
  9
$DIMSD1
 70
             0
  9
$DIMSD2
 70
             0
  9
$DIMTOLJ
 70
             1
  9
$DIMTZIN
 70
             0
  9
$DIMALTZ
 70
             0
  9
$DIMALTTZ
 70
             0
  9
$DIMFIT
 70
             3
  9
$DIMUPT
 70
             0
  9
$DIMUNIT
 70
             2
  9
$DIMDEC
 70
             4
  9
$DIMTDEC
 70
             4
  9
$DIMALTU
 70
             2
  9
$DIMALTTD
 70
             2
  9
$DIMTXSTY
  7
STANDARD
  9
$DIMAUNIT
 70
             0
  9
$LUNITS
 70
             2
  9
$LUPREC
 70
             4
  9
$SKETCHINC
 40
0.1
  9
$FILLETRAD
 40
0.0
  9
$AUNITS
 70
             0
  9
$AUPREC
 70
             0
  9
$MENU
  1
acad
  9
$ELEVATION
 40
0.0
  9
$PELEVATION
 40
0.0
  9
$THICKNESS
 40
0.0
  9
$LIMCHECK
 70
             0
  9
$BLIPMODE
 70
             1
  9
$CHAMFERA
 40
0.0
  9
$CHAMFERB
 40
0.0
  9
$CHAMFERC
 40
0.0
  9
$CHAMFERD
 40
0.0
  9
$SKPOLY
 70
             0
  9
$TDCREATE
 40
0.000000000
  9
$TDUPDATE
 40
0.000000000
  9
$TDINDWG
 40
0.0000000000
  9
$TDUSRTIMER
 40
0.0000000000
  9
$USRTIMER
 70
             1
  9
$ANGBASE
 50
0.0
  9
$ANGDIR
 70
             0
  9
$PDMODE
 70
             0
  9
$PDSIZE
 40
0.0
  9
$PLINEWID
 40
0.0
  9
$COORDS
 70
             0
  9
$SPLFRAME
 70
             0
  9
$SPLINETYPE
 70
             6
  9
$SPLINESEGS
 70
             8
  9
$ATTDIA
 70
             0
  9
$ATTREQ
 70
             1
  9
$HANDLING
 70
             1
  9
$HANDSEED
  5
270
  9
$SURFTAB1
 70
             6
  9
$SURFTAB2
 70
             6
  9
$SURFTYPE
 70
             6
  9
$SURFU
 70
             6
  9
$SURFV
 70
             6
  9
$UCSNAME
  2

  9
$UCSORG
 10
0.0
 20
0.0
 30
0.0
  9
$UCSXDIR
 10
1.0
 20
0.0
 30
0.0
  9
$UCSYDIR
 10
0.0
 20
1.0
 30
0.0
  9
$PUCSNAME
  2

  9
$PUCSORG
 10
0.0
 20
0.0
 30
0.0
  9
$PUCSXDIR
 10
1.0
 20
0.0
 30
0.0
  9
$PUCSYDIR
 10
0.0
 20
1.0
 30
0.0
  9
$USERI1
 70
             0
  9
$USERI2
 70
             0
  9
$USERI3
 70
             0
  9
$USERI4
 70
             0
  9
$USERI5
 70
             0
  9
$USERR1
 40
11.6
  9
$USERR2
 40
0.0
  9
$USERR3
 40
0.0
  9
$USERR4
 40
0.0
  9
$USERR5
 40
0.0
  9
$WORLDVIEW
 70
             1
  9
$SHADEDGE
 70
             3
  9
$SHADEDIF
 70
            70
  9
$TILEMODE
 70
             1
  9
$MAXACTVP
 70
            16
  9
$PINSBASE
 10
0.0
 20
0.0
 30
0.0
  9
$PLIMCHECK
 70
             0
  9
$PEXTMIN
 10
1.00000000000000E+20
 20
1.00000000000000E+20
 30
1.00000000000000E+20
  9
$PEXTMAX
 10
-1.00000000000000E+20
 20
-1.00000000000000E+20
 30
-1.00000000000000E+20
  9
$PLIMMIN
 10
0.0
 20
0.0
  9
$PLIMMAX
 10
12.0
 20
9.0
  9
$UNITMODE
 70
             0
  9
$VISRETAIN
 70
             0
  9
$PLINEGEN
 70
             1
  9
$PSLTSCALE
 70
             0
  9
$TREEDEPTH
 70
          3020
  9
$PICKSTYLE
 70
             1
  9
$CMLSTYLE
  2
STANDARD
  9
$CMLJUST
 70
             0
  9
$CMLSCALE
 40
1.0
  9
$PROXYGRAPHICS
 70
             0
  9
$MEASUREMENT
 70
             1
  0
ENDSEC
  0
SECTION
  2
CLASSES
  0
CLASS
  1
LWPOLYLINE
  2
AcDbPolyline
  3
"AutoCAD"
 90
        0
280
             0
281
             1
  0
CLASS
  1
IMAGE
  2
AcDbRasterImage
  3
ISM
 90
      127
280
             0
281
             1
  0
CLASS
  1
OLE2FRAME
  2
AcDbOle2Frame
  3
""
 90
        0
280
             0
281
             1
  0
CLASS
  1
HATCH
  2
AcDbHatch
  3
"ACAD_SEDONA"
 90
        0
280
             0
281
             1
  0
CLASS
  1
DICTIONARYVAR
  2
AcDbDictionaryVar
  3
"AutoCAD"
 90
        0
280
             0
281
             0
  0
CLASS
  1
RASTERVARIABLES
  2
AcDbRasterVariables
  3
ISM
 90
        0
280
             0
281
             0
  0
CLASS
  1
IMAGEDEF
  2
AcDbRasterImageDef
  3
ISM
 90
        0
280
             0
281
             0
  0
CLASS
  1
IMAGEDEF_REACTOR
  2
AcDbRasterImageDefReactor
  3
ISM
 90
        1
280
             0
281
             0
  0
CLASS
  1
IDBUFFER
  2
AcDbIdBuffer
  3
"Acad"
 90
        0
280
             0
281
             0
  0
CLASS
  1
SPATIAL_FILTER
  2
AcDbSpatialFilter
  3
"Acad"
 90
        0
280
             0
281
             0
  0
CLASS
  1
XRECORD
  2
AcDbXrecord
  3
"<Built In>"
 90
        0
280
             0
281
             0
  0
CLASS
  1
SORTENTSTABLE
  2
AcDbSortentsTable
  3
"AutoCAD"
 90
        0
280
             0
281
             0
  0
CLASS
  1
LAYER_INDEX
  2
AcDbLayerIndex
  3
"Acad"
 90
        0
280
             0
281
             0
  0
CLASS
  1
SPATIAL_INDEX
  2
AcDbSpatialIndex
  3
"Acad"
 90
        0
280
             0
281
             0
  0
CLASS
  1
OBJECT_PTR
  2
CAseDLPNTableRecord
  3
"ASE-LPNTableRecord"
 90
        1
280
             0
281
             0
  0
CLASS
  1
LAYOUT
  2
AcDbLayout
  3
"AutoCAD 2000"
 90
        1
280
             0
281
             0
  0
CLASS
  1
PLOTSETTINGS
  2
AcDbPlotSettings
  3
"AutoCAD 2000"
 90
        1
280
             0
281
             0
  0
CLASS
  1
ACDBDICTIONARYWDFLT
  2
AcDbDictionaryWithDefault
  3
"AutoCAD 2000"
 90
        1
280
             0
281
             0
  0
CLASS
  1
ACDBPLACEHOLDER
  2
AcDbPlaceHolder
  3
"AutoCAD 2000"
 90
        1
280
             0
281
             0
  0
ENDSEC
  0
SECTION
  2
TABLES
  0
TABLE
  2
VPORT
  5
7
100
AcDbSymbolTable
 70
             1
  0
VPORT
  5
15
100
AcDbSymbolTableRecord
100
AcDbViewportTableRecord
  2
*ACTIVE
 70
             0
 10
0.0
 20
0.0
 11
1.0
 21
1.0
 12
-26.0
 22
0.0
 13
0.0
 23
0.0
 14
1.0
 24
1.0
 15
0.0
 25
0.0
 16
0.0
 26
0.0
 36
1.0
 17
0.0
 27
0.0
 37
0.0
 40
175.70584958217279
 41
1.60267857142857
 42
50.0
 43
0.0
 44
0.0
 50
0.0
 51
0.0
 71
             0
 72
           100
 73
             1
 74
             1
 75
             0
 76
             0
 77
             0
 78
             0
  0
ENDTAB
  0
TABLE
  2
LTYPE
  5
4
100
AcDbSymbolTable
 70
            10
  0
LTYPE
  5
11
100
AcDbSymbolTableRecord
100
AcDbLinetypeTableRecord
  2
BYBLOCK
 70
            64
  3

 72
            65
 73
             0
 40
0.0
  0
LTYPE
  5
12
100
AcDbSymbolTableRecord
100
AcDbLinetypeTableRecord
  2
BYLAYER
 70
            64
  3

 72
            65
 73
             0
 40
0.0
  0
LTYPE
  5
13
100
AcDbSymbolTableRecord
100
AcDbLinetypeTableRecord
  2
CONTINUOUS
 70
            64
  3
Solid line
 72
            65
 73
             0
 40
0.0
  0
LTYPE
  5
1D
100
AcDbSymbolTableRecord
100
AcDbLinetypeTableRecord
  2
DASHED
 70
            64
  3
Dashed
 72
            65
 73
             2
 40
15.0
 49
12.0
 74
             0
 49
-3.0
 74
             0
  0
LTYPE
  5
1E
100
AcDbSymbolTableRecord
100
AcDbLinetypeTableRecord
  2
DOTTED
 70
            64
  3
Dotted
 72
            65
 73
             2
 40
3.5
 49
0.5
 74
             0
 49
-3.0
 74
             0
  0
LTYPE
  5
1F
100
AcDbSymbolTableRecord
100
AcDbLinetypeTableRecord
  2
DOT_CENTER
 70
            64
  3
Dot_Center
 72
            65
 73
             4
 40
2.0
 49
1.25
 74
             0
 49
-0.25
 74
             0
 49
0.25
 74
             0
 49
-0.25
 74
             0
  0
LTYPE
  5
20
100
AcDbSymbolTableRecord
100
AcDbLinetypeTableRecord
  2
LONG_DASHED
 70
            64
  3
Long_Dashed
 72
            65
 73
             2
 40
2.0
 49
1.5
 74
             0
 49
-0.5
 74
             0
  0
LTYPE
  5
21
100
AcDbSymbolTableRecord
100
AcDbLinetypeTableRecord
  2
DASH_CENTER
 70
            64
  3
Dash_Center
 72
            65
 73
             4
 40
36.0
 49
24.0
 74
             0
 49
-3.0
 74
             0
 49
6.0
 74
             0
 49
-3.0
 74
             0
  0
LTYPE
  5
22
100
AcDbSymbolTableRecord
100
AcDbLinetypeTableRecord
  2
PHANTOM
 70
            64
  3
Phantom
 72
            65
 73
             6
 40
2.5
 49
1.25
 74
             0
 49
-0.25
 74
             0
 49
0.25
 74
             0
 49
-0.25
 74
             0
 49
0.25
 74
             0
 49
-0.25
 74
             0
  0
LTYPE
  5
23
100
AcDbSymbolTableRecord
100
AcDbLinetypeTableRecord
  2
CENTER_DASH_DASH
 70
            64
  3
Center_Dash_Dash
 72
            65
 73
             6
 40
22.0
 49
12.0
 74
             0
 49
-3.0
 74
             0
 49
0.5
 74
             0
 49
-3.0
 74
             0
 49
0.5
 74
             0
 49
-3.0
 74
             0
  0
ENDTAB
  0
TABLE
  2
LAYER
  5
2
100
AcDbSymbolTable
 70
             2
  0
LAYER
  5
14
100
AcDbSymbolTableRecord
100
AcDbLayerTableRecord
  2
0
 70
             0
 62
             7
  6
CONTINUOUS
  0
LAYER
  5
24
100
AcDbSymbolTableRecord
100
AcDbLayerTableRecord
  2
1
 70
             0
 62
             7
  6
CONTINUOUS
  0
ENDTAB
  0
TABLE
  2
STYLE
  5
3
100
AcDbSymbolTable
 70
             1
  0
STYLE
  5
17
100
AcDbSymbolTableRecord
100
AcDbTextStyleTableRecord
  2
STANDARD
 70
             0
 40
0.0
 41
1.0
 50
0.0
 71
             0
 42
0.0
  3
txt
  4

  0
ENDTAB
  0
TABLE
  2
VIEW
  5
5
100
AcDbSymbolTable
 70
             0
  0
ENDTAB
  0
TABLE
  2
UCS
  5
6
100
AcDbSymbolTable
 70
             0
  0
ENDTAB
  0
TABLE
  2
APPID
  5
8
100
AcDbSymbolTable
 70
             1
  0
APPID
  5
16
100
AcDbSymbolTableRecord
100
AcDbRegAppTableRecord
  2
ACAD
 70
             0
  0
ENDTAB
  0
TABLE
  2
DIMSTYLE
  5
9
100
AcDbSymbolTable
 70
             1
  0
DIMSTYLE
105
18
100
AcDbSymbolTableRecord
100
AcDbDimStyleTableRecord
  2
STANDARD
 70
             0
  3

  4

  5

  6

  7

 40
1.0
 41
0.18
 42
0.0625
 43
0.38
 44
0.18
 45
0.0
 46
0.0
 47
0.0
 48
0.0
 71
             0
 72
             0
 73
             1
 74
             1
 75
             0
 76
             0
 77
             0
 78
             0
140
0.18
141
0.09
142
0.0
143
25.4
144
1.0
145
0.0
146
1.0
147
0.09
170
             0
171
             2
172
             0
173
             0
174
             0
175
             0
176
             0
177
             0
178
             0
270
             2
271
             4
272
             4
273
             2
274
             2
275
             0
280
             0
281
             0
282
             0
283
             1
284
             0
285
             0
286
             0
287
             0
288
             0
340
17
  0
ENDTAB
  0
TABLE
  2
BLOCK_RECORD
  5
1
100
AcDbSymbolTable
 70
             0
  0
BLOCK_RECORD
  5
A
100
AcDbSymbolTableRecord
100
AcDbBlockTableRecord
  2
*MODEL_SPACE
  0
BLOCK_RECORD
  5
B
100
AcDbSymbolTableRecord
100
AcDbBlockTableRecord
  2
*PAPER_SPACE
  0
ENDTAB
  0
ENDSEC
  0
SECTION
  2
BLOCKS
  0
BLOCK
  5
D
100
AcDbEntity
  8
0
100
AcDbBlockBegin
  2
*MODEL_SPACE
 70
             0
 10
0.0
 20
0.0
 30
0.0
  3
*MODEL_SPACE
  1

  0
ENDBLK
  5
E
100
AcDbEntity
  8
0
100
AcDbBlockEnd
  0
BLOCK
  5
F
100
AcDbEntity
 67
             1
  8
0
100
AcDbBlockBegin
  2
*PAPER_SPACE
 70
             0
 10
0.0
 20
0.0
 30
0.0
  3
*PAPER_SPACE
  1

  0
ENDBLK
  5
10
100
AcDbEntity
 67
             1
  8
0
100
AcDbBlockEnd
  0
ENDSEC
  0
SECTION
  2
ENTITIES
  0
ARC
  5
26E
100
AcDbEntity
  8
1
  6
CONTINUOUS
 62
             7
100
AcDbCircle
 10
-7.5
 20
22.97432796138309
 40
0.5
100
AcDbArc
 50
93.99999999999999
 51
180.0
  0
ARC
  5
26D
100
AcDbEntity
  8
1
  6
CONTINUOUS
 62
             7
100
AcDbCircle
 10
-7.5
 20
-22.97432796138308
 40
0.5
100
AcDbArc
 50
180.0
 51
-94.00000000000001
  0
ARC
  5
26C
100
AcDbEntity
  8
1
  6
CONTINUOUS
 62
             7
100
AcDbCircle
 10
-124.5
 20
-6.25
 40
0.5
100
AcDbArc
 50
0.0
 51
90.0
  0
ARC
  5
26B
100
AcDbEntity
  8
1
  6
CONTINUOUS
 62
             7
100
AcDbCircle
 10
-124.5
 20
-6.75
 40
0.5
100
AcDbArc
 50
-90.0
 51
0.0
  0
ARC
  5
26A
100
AcDbEntity
  8
1
  6
CONTINUOUS
 62
             7
100
AcDbCircle
 10
-144.5
 20
-6.75
 40
0.5
100
AcDbArc
 50
180.0
 51
-90.0
  0
ARC
  5
269
100
AcDbEntity
  8
1
  6
CONTINUOUS
 62
             7
100
AcDbCircle
 10
-144.5
 20
-6.25
 40
0.5
100
AcDbArc
 50
90.0
 51
180.0
  0
ARC
  5
268
100
AcDbEntity
  8
1
  6
CONTINUOUS
 62
             7
100
AcDbCircle
 10
-153.0
 20
23.0
 40
1.0
100
AcDbArc
 50
90.0
 51
180.0
  0
ARC
  5
267
100
AcDbEntity
  8
1
  6
CONTINUOUS
 62
             7
100
AcDbCircle
 10
-153.0
 20
-23.0
 40
1.0
100
AcDbArc
 50
180.0
 51
-90.0
  0
ARC
  5
266
100
AcDbEntity
  8
1
  6
CONTINUOUS
 62
             7
100
AcDbCircle
 10
-59.0
 20
-23.0
 40
1.0
100
AcDbArc
 50
-90.0
 51
0.0
  0
ARC
  5
265
100
AcDbEntity
  8
1
  6
CONTINUOUS
 62
             7
100
AcDbCircle
 10
-59.0
 20
23.0
 40
1.0
100
AcDbArc
 50
0.0
 51
90.0
  0
ARC
  5
264
100
AcDbEntity
  8
1
  6
CONTINUOUS
 62
             7
100
AcDbCircle
 10
-68.5
 20
-1.75
 40
0.5
100
AcDbArc
 50
0.0
 51
90.0
  0
ARC
  5
263
100
AcDbEntity
  8
1
  6
CONTINUOUS
 62
             7
100
AcDbCircle
 10
-68.5
 20
-7.75
 40
0.5
100
AcDbArc
 50
-90.0
 51
0.0
  0
ARC
  5
262
100
AcDbEntity
  8
1
  6
CONTINUOUS
 62
             7
100
AcDbCircle
 10
-77.5
 20
-7.75
 40
0.5
100
AcDbArc
 50
180.0
 51
-90.0
  0
ARC
  5
261
100
AcDbEntity
  8
1
  6
CONTINUOUS
 62
             7
100
AcDbCircle
 10
-77.5
 20
-1.75
 40
0.5
100
AcDbArc
 50
90.0
 51
180.0
  0
ARC
  5
260
100
AcDbEntity
  8
1
  6
CONTINUOUS
 62
             7
100
AcDbCircle
 10
-79.5
 20
-1.75
 40
0.5
100
AcDbArc
 50
0.0
 51
90.0
  0
ARC
  5
25F
100
AcDbEntity
  8
1
  6
CONTINUOUS
 62
             7
100
AcDbCircle
 10
-79.5
 20
-7.75
 40
0.5
100
AcDbArc
 50
-90.0
 51
0.0
  0
ARC
  5
25E
100
AcDbEntity
  8
1
  6
CONTINUOUS
 62
             7
100
AcDbCircle
 10
-88.5
 20
-7.75
 40
0.5
100
AcDbArc
 50
180.0
 51
-90.0
  0
ARC
  5
25D
100
AcDbEntity
  8
1
  6
CONTINUOUS
 62
             7
100
AcDbCircle
 10
-88.5
 20
-1.75
 40
0.5
100
AcDbArc
 50
90.0
 51
180.0
  0
ARC
  5
25C
100
AcDbEntity
  8
1
  6
CONTINUOUS
 62
             7
100
AcDbCircle
 10
-68.5
 20
7.75
 40
0.5
100
AcDbArc
 50
0.0
 51
90.0
  0
ARC
  5
25B
100
AcDbEntity
  8
1
  6
CONTINUOUS
 62
             7
100
AcDbCircle
 10
-68.5
 20
1.75
 40
0.5
100
AcDbArc
 50
-90.0
 51
0.0
  0
ARC
  5
25A
100
AcDbEntity
  8
1
  6
CONTINUOUS
 62
             7
100
AcDbCircle
 10
-77.5
 20
1.75
 40
0.5
100
AcDbArc
 50
180.0
 51
-90.0
  0
ARC
  5
259
100
AcDbEntity
  8
1
  6
CONTINUOUS
 62
             7
100
AcDbCircle
 10
-77.5
 20
7.75
 40
0.5
100
AcDbArc
 50
90.0
 51
180.0
  0
ARC
  5
258
100
AcDbEntity
  8
1
  6
CONTINUOUS
 62
             7
100
AcDbCircle
 10
-79.5
 20
7.75
 40
0.5
100
AcDbArc
 50
0.0
 51
90.0
  0
ARC
  5
257
100
AcDbEntity
  8
1
  6
CONTINUOUS
 62
             7
100
AcDbCircle
 10
-79.5
 20
1.75
 40
0.5
100
AcDbArc
 50
-90.0
 51
0.0
  0
ARC
  5
256
100
AcDbEntity
  8
1
  6
CONTINUOUS
 62
             7
100
AcDbCircle
 10
-88.5
 20
1.75
 40
0.5
100
AcDbArc
 50
180.0
 51
-90.0
  0
ARC
  5
255
100
AcDbEntity
  8
1
  6
CONTINUOUS
 62
             7
100
AcDbCircle
 10
-88.5
 20
7.75
 40
0.5
100
AcDbArc
 50
90.0
 51
180.0
  0
ARC
  5
254
100
AcDbEntity
  8
1
  6
CONTINUOUS
 62
             7
100
AcDbCircle
 10
-93.5
 20
-2.0
 40
0.5
100
AcDbArc
 50
0.0
 51
90.0
  0
ARC
  5
253
100
AcDbEntity
  8
1
  6
CONTINUOUS
 62
             7
100
AcDbCircle
 10
-93.5
 20
-11.0
 40
0.5
100
AcDbArc
 50
-90.0
 51
0.0
  0
ARC
  5
252
100
AcDbEntity
  8
1
  6
CONTINUOUS
 62
             7
100
AcDbCircle
 10
-122.5
 20
-11.0
 40
0.5
100
AcDbArc
 50
180.0
 51
-90.0
  0
ARC
  5
251
100
AcDbEntity
  8
1
  6
CONTINUOUS
 62
             7
100
AcDbCircle
 10
-122.5
 20
-2.0
 40
0.5
100
AcDbArc
 50
90.0
 51
180.0
  0
ARC
  5
250
100
AcDbEntity
  8
1
  6
CONTINUOUS
 62
             7
100
AcDbCircle
 10
-93.5
 20
0.5
 40
0.5
100
AcDbArc
 50
-90.0
 51
0.0
  0
ARC
  5
24F
100
AcDbEntity
  8
1
  6
CONTINUOUS
 62
             7
100
AcDbCircle
 10
-93.5
 20
16.5
 40
0.5
100
AcDbArc
 50
0.0
 51
90.0
  0
ARC
  5
24E
100
AcDbEntity
  8
1
  6
CONTINUOUS
 62
             7
100
AcDbCircle
 10
-144.5
 20
0.5
 40
0.5
100
AcDbArc
 50
180.0
 51
-90.0
  0
ARC
  5
24D
100
AcDbEntity
  8
1
  6
CONTINUOUS
 62
             7
100
AcDbCircle
 10
-144.5
 20
16.5
 40
0.5
100
AcDbArc
 50
90.0
 51
180.0
  0
ARC
  5
24C
100
AcDbEntity
  8
1
  6
CONTINUOUS
 62
             7
100
AcDbCircle
 10
-93.5
 20
-14.75
 40
0.5
100
AcDbArc
 50
0.0
 51
90.0
  0
ARC
  5
24B
100
AcDbEntity
  8
1
  6
CONTINUOUS
 62
             7
100
AcDbCircle
 10
-93.5
 20
-15.25
 40
0.5
100
AcDbArc
 50
-90.0
 51
0.0
  0
ARC
  5
24A
100
AcDbEntity
  8
1
  6
CONTINUOUS
 62
             7
100
AcDbCircle
 10
-144.5
 20
-15.25
 40
0.5
100
AcDbArc
 50
180.0
 51
-90.0
  0
ARC
  5
249
100
AcDbEntity
  8
1
  6
CONTINUOUS
 62
             7
100
AcDbCircle
 10
-144.5
 20
-14.75
 40
0.5
100
AcDbArc
 50
90.0
 51
180.0
  0
ARC
  5
248
100
AcDbEntity
  8
1
  6
CONTINUOUS
 62
             7
100
AcDbCircle
 10
29.0
 20
-20.0
 40
1.0
100
AcDbArc
 50
0.0
 51
90.0
  0
ARC
  5
247
100
AcDbEntity
  8
1
  6
CONTINUOUS
 62
             7
100
AcDbCircle
 10
13.13378091189057
 20
-20.0
 40
1.0
100
AcDbArc
 50
90.0
 51
180.0
  0
ARC
  5
246
100
AcDbEntity
  8
1
  6
CONTINUOUS
 62
             7
100
AcDbCircle
 10
13.13378091189057
 20
20.0
 40
1.0
100
AcDbArc
 50
180.0
 51
-90.0
  0
ARC
  5
245
100
AcDbEntity
  8
1
  6
CONTINUOUS
 62
             7
100
AcDbCircle
 10
29.0
 20
20.0
 40
1.0
100
AcDbArc
 50
-90.0
 51
0.0
  0
ARC
  5
244
100
AcDbEntity
  8
1
  6
CONTINUOUS
 62
             7
100
AcDbCircle
 10
29.0
 20
6.0
 40
1.0
100
AcDbArc
 50
0.0
 51
90.0
  0
ARC
  5
243
100
AcDbEntity
  8
1
  6
CONTINUOUS
 62
             7
100
AcDbCircle
 10
16.0
 20
6.0
 40
1.0
100
AcDbArc
 50
90.0
 51
180.0
  0
ARC
  5
242
100
AcDbEntity
  8
1
  6
CONTINUOUS
 62
             7
100
AcDbCircle
 10
16.0
 20
-6.0
 40
1.0
100
AcDbArc
 50
180.0
 51
-90.0
  0
ARC
  5
241
100
AcDbEntity
  8
1
  6
CONTINUOUS
 62
             7
100
AcDbCircle
 10
29.0
 20
-6.0
 40
1.0
100
AcDbArc
 50
-90.0
 51
0.0
  0
CIRCLE
  5
240
100
AcDbEntity
  8
0
  6
CONTINUOUS
 62
             7
100
AcDbCircle
 10
-116.75
 20
-10.09999999999999
 40
0.55
  0
CIRCLE
  5
23F
100
AcDbEntity
  8
0
  6
CONTINUOUS
 62
             7
100
AcDbCircle
 10
-109.25
 20
-10.09999999999999
 40
0.55
  0
CIRCLE
  5
23E
100
AcDbEntity
  8
0
  6
CONTINUOUS
 62
             7
100
AcDbCircle
 10
-101.75
 20
-10.09999999999999
 40
0.55
  0
CIRCLE
  5
23D
100
AcDbEntity
  8
0
  6
CONTINUOUS
 62
             7
100
AcDbCircle
 10
-94.25
 20
-10.09999999999999
 40
0.55
  0
CIRCLE
  5
23C
100
AcDbEntity
  8
0
  6
CONTINUOUS
 62
             7
100
AcDbCircle
 10
-95.04000000000001
 20
2.29
 40
0.8
  0
CIRCLE
  5
23B
100
AcDbEntity
  8
0
  6
CONTINUOUS
 62
             7
100
AcDbCircle
 10
-107.73999999999999
 20
2.29
 40
0.8
  0
CIRCLE
  5
23A
100
AcDbEntity
  8
0
  6
CONTINUOUS
 62
             7
100
AcDbCircle
 10
-120.64
 20
2.29
 40
0.8
  0
CIRCLE
  5
239
100
AcDbEntity
  8
0
  6
CONTINUOUS
 62
             7
100
AcDbCircle
 10
-133.34
 20
2.29
 40
0.8
  0
LINE
  5
238
100
AcDbEntity
  8
1
  6
CONTINUOUS
 62
             7
100
AcDbLine
 10
-61.5
 20
-12.88
 11
-150.5
 21
-12.88
  0
LINE
  5
237
100
AcDbEntity
  8
1
  6
CONTINUOUS
 62
             7
100
AcDbLine
 10
0.0
 20
24.0
 11
2.0
 21
24.0
  0
LINE
  5
236
100
AcDbEntity
  8
1
  6
CONTINUOUS
 62
             7
100
AcDbLine
 10
0.0
 20
-24.0
 11
2.0
 21
-24.0
  0
LINE
  5
235
100
AcDbEntity
  8
1
  6
CONTINUOUS
 62
             7
100
AcDbLine
 10
90.5
 20
15.25
 11
102.0
 21
15.25
  0
LINE
  5
234
100
AcDbEntity
  8
1
  6
CONTINUOUS
 62
             7
100
AcDbLine
 10
90.5
 20
8.25
 11
102.0
 21
8.25
  0
LINE
  5
233
100
AcDbEntity
  8
1
  6
CONTINUOUS
 62
             7
100
AcDbLine
 10
90.5
 20
8.25
 11
90.5
 21
3.0
  0
LINE
  5
232
100
AcDbEntity
  8
1
  6
CONTINUOUS
 62
             7
100
AcDbLine
 10
90.5
 20
-1.0
 11
90.5
 21
-8.25
  0
LINE
  5
231
100
AcDbEntity
  8
1
  6
CONTINUOUS
 62
             7
100
AcDbLine
 10
90.5
 20
-8.25
 11
102.0
 21
-8.25
  0
LINE
  5
230
100
AcDbEntity
  8
1
  6
CONTINUOUS
 62
             7
100
AcDbLine
 10
90.5
 20
-15.25
 11
102.0
 21
-15.25
  0
LINE
  5
22F
100
AcDbEntity
  8
1
  6
CONTINUOUS
 62
             7
100
AcDbLine
 10
92.0
 20
15.25
 11
92.0
 21
22.5
  0
LINE
  5
22E
100
AcDbEntity
  8
1
  6
CONTINUOUS
 62
             7
100
AcDbLine
 10
92.0
 20
8.25
 11
92.0
 21
3.0
  0
LINE
  5
22D
100
AcDbEntity
  8
1
  6
CONTINUOUS
 62
             7
100
AcDbLine
 10
92.0
 20
-1.0
 11
92.0
 21
-8.25
  0
LINE
  5
22C
100
AcDbEntity
  8
1
  6
CONTINUOUS
 62
             7
100
AcDbLine
 10
92.0
 20
-15.25
 11
92.0
 21
-22.5
  0
LINE
  5
22B
100
AcDbEntity
  8
1
  6
CONTINUOUS
 62
             7
100
AcDbLine
 10
92.0
 20
3.0
 11
82.0
 21
3.0
  0
LINE
  5
22A
100
AcDbEntity
  8
1
  6
CONTINUOUS
 62
             7
100
AcDbLine
 10
82.0
 20
3.0
 11
82.0
 21
-1.0
  0
LINE
  5
229
100
AcDbEntity
  8
1
  6
CONTINUOUS
 62
             7
100
AcDbLine
 10
82.0
 20
-1.0
 11
92.0
 21
-1.0
  0
LINE
  5
228
100
AcDbEntity
  8
1
  6
CONTINUOUS
 62
             7
100
AcDbLine
 10
90.5
 20
20.0
 11
45.40192378864668
 21
20.0
  0
LINE
  5
227
100
AcDbEntity
  8
1
  6
CONTINUOUS
 62
             7
100
AcDbLine
 10
45.40192378864668
 20
20.0
 11
48.0
 21
18.5
  0
LINE
  5
226
100
AcDbEntity
  8
1
  6
CONTINUOUS
 62
             7
100
AcDbLine
 10
48.0
 20
18.5
 11
90.5
 21
18.5
  0
LINE
  5
225
100
AcDbEntity
  8
1
  6
CONTINUOUS
 62
             7
100
AcDbLine
 10
90.5
 20
-18.5
 11
48.0
 21
-18.5
  0
LINE
  5
224
100
AcDbEntity
  8
1
  6
CONTINUOUS
 62
             7
100
AcDbLine
 10
48.0
 20
-18.5
 11
45.40192378864668
 21
-20.0
  0
LINE
  5
223
100
AcDbEntity
  8
1
  6
CONTINUOUS
 62
             7
100
AcDbLine
 10
45.40192378864668
 20
-20.0
 11
90.5
 21
-20.0
  0
LINE
  5
222
100
AcDbEntity
  8
1
  6
CONTINUOUS
 62
             7
100
AcDbLine
 10
90.5
 20
15.25
 11
90.5
 21
22.5
  0
LINE
  5
221
100
AcDbEntity
  8
1
  6
CONTINUOUS
 62
             7
100
AcDbLine
 10
90.5
 20
-15.25
 11
90.5
 21
-22.5
  0
LINE
  5
220
100
AcDbEntity
  8
1
  6
CONTINUOUS
 62
             7
100
AcDbLine
 10
30.0
 20
22.5
 11
30.0
 21
20.0
  0
LINE
  5
21F
100
AcDbEntity
  8
1
  6
CONTINUOUS
 62
             7
100
AcDbLine
 10
15.0
 20
22.5
 11
15.0
 21
22.0
  0
LINE
  5
21E
100
AcDbEntity
  8
1
  6
CONTINUOUS
 62
             7
100
AcDbLine
 10
15.0
 20
-22.5
 11
15.0
 21
-22.0
  0
LINE
  5
21D
100
AcDbEntity
  8
1
  6
CONTINUOUS
 62
             7
100
AcDbLine
 10
30.0
 20
-22.5
 11
30.0
 21
-20.0
  0
LINE
  5
21C
100
AcDbEntity
  8
1
  6
CONTINUOUS
 62
             7
100
AcDbLine
 10
2.0
 20
22.0
 11
6.5
 21
22.0
  0
LINE
  5
21B
100
AcDbEntity
  8
1
  6
CONTINUOUS
 62
             7
100
AcDbLine
 10
2.0
 20
-22.0
 11
6.5
 21
-22.0
  0
LINE
  5
21A
100
AcDbEntity
  8
1
  6
CONTINUOUS
 62
             7
100
AcDbLine
 10
37.0
 20
22.5
 11
37.0
 21
-22.5
  0
LINE
  5
219
100
AcDbEntity
  8
1
  6
CONTINUOUS
 62
             7
100
AcDbLine
 10
4.0
 20
3.0
 11
6.5
 21
3.0
  0
LINE
  5
218
100
AcDbEntity
  8
1
  6
CONTINUOUS
 62
             7
100
AcDbLine
 10
102.0
 20
13.25
 11
101.5
 21
13.25
  0
LINE
  5
217
100
AcDbEntity
  8
1
  6
CONTINUOUS
 62
             7
100
AcDbLine
 10
101.5
 20
13.25
 11
101.5
 21
10.25
  0
LINE
  5
216
100
AcDbEntity
  8
1
  6
CONTINUOUS
 62
             7
100
AcDbLine
 10
101.5
 20
10.25
 11
102.0
 21
10.25
  0
LINE
  5
215
100
AcDbEntity
  8
1
  6
CONTINUOUS
 62
             7
100
AcDbLine
 10
102.0
 20
-10.25
 11
101.5
 21
-10.25
  0
LINE
  5
214
100
AcDbEntity
  8
1
  6
CONTINUOUS
 62
             7
100
AcDbLine
 10
101.5
 20
-10.25
 11
101.5
 21
-13.25
  0
LINE
  5
213
100
AcDbEntity
  8
1
  6
CONTINUOUS
 62
             7
100
AcDbLine
 10
101.5
 20
-13.25
 11
102.0
 21
-13.25
  0
LINE
  5
212
100
AcDbEntity
  8
1
  6
CONTINUOUS
 62
             7
100
AcDbLine
 10
100.0
 20
22.5
 11
102.0
 21
20.5
  0
LINE
  5
211
100
AcDbEntity
  8
1
  6
CONTINUOUS
 62
             7
100
AcDbLine
 10
102.0
 20
20.5
 11
102.0
 21
-20.5
  0
LINE
  5
210
100
AcDbEntity
  8
1
  6
CONTINUOUS
 62
             7
100
AcDbLine
 10
102.0
 20
-20.5
 11
100.0
 21
-22.5
  0
LINE
  5
20F
100
AcDbEntity
  8
1
  6
CONTINUOUS
 62
             7
100
AcDbLine
 10
100.0
 20
22.5
 11
2.0
 21
22.5
  0
LINE
  5
20E
100
AcDbEntity
  8
1
  6
CONTINUOUS
 62
             7
100
AcDbLine
 10
100.0
 20
-22.5
 11
2.0
 21
-22.5
  0
LINE
  5
20D
100
AcDbEntity
  8
1
  6
CONTINUOUS
 62
             7
100
AcDbLine
 10
17.0
 20
6.5
 11
29.86602540378444
 21
6.5
  0
LINE
  5
20C
100
AcDbEntity
  8
1
  6
CONTINUOUS
 62
             7
100
AcDbLine
 10
17.0
 20
7.0
 11
17.0
 21
6.5
  0
LINE
  5
20B
100
AcDbEntity
  8
1
  6
CONTINUOUS
 62
             7
100
AcDbLine
 10
17.0
 20
3.0
 11
30.0
 21
3.0
  0
LINE
  5
20A
100
AcDbEntity
  8
1
  6
CONTINUOUS
 62
             7
100
AcDbLine
 10
30.0
 20
5.0
 11
17.0
 21
5.0
  0
LINE
  5
209
100
AcDbEntity
  8
1
  6
CONTINUOUS
 62
             7
100
AcDbLine
 10
17.0
 20
5.0
 11
17.0
 21
3.0
  0
LINE
  5
208
100
AcDbEntity
  8
1
  6
CONTINUOUS
 62
             7
100
AcDbLine
 10
29.86602540378444
 20
-6.5
 11
17.0
 21
-6.5
  0
LINE
  5
207
100
AcDbEntity
  8
1
  6
CONTINUOUS
 62
             7
100
AcDbLine
 10
17.0
 20
-6.5
 11
17.0
 21
-7.0
  0
LINE
  5
206
100
AcDbEntity
  8
1
  6
CONTINUOUS
 62
             7
100
AcDbLine
 10
30.0
 20
-3.0
 11
17.0
 21
-3.0
  0
LINE
  5
205
100
AcDbEntity
  8
1
  6
CONTINUOUS
 62
             7
100
AcDbLine
 10
17.0
 20
-5.0
 11
30.0
 21
-5.0
  0
LINE
  5
204
100
AcDbEntity
  8
1
  6
CONTINUOUS
 62
             7
100
AcDbLine
 10
17.0
 20
-3.0
 11
17.0
 21
-5.0
  0
LINE
  5
203
100
AcDbEntity
  8
1
  6
CONTINUOUS
 62
             7
100
AcDbLine
 10
39.0
 20
10.0
 11
54.0
 21
10.0
  0
LINE
  5
202
100
AcDbEntity
  8
1
  6
CONTINUOUS
 62
             7
100
AcDbLine
 10
54.0
 20
10.0
 11
54.0
 21
12.0
  0
LINE
  5
201
100
AcDbEntity
  8
1
  6
CONTINUOUS
 62
             7
100
AcDbLine
 10
54.0
 20
12.0
 11
39.0
 21
12.0
  0
LINE
  5
200
100
AcDbEntity
  8
1
  6
CONTINUOUS
 62
             7
100
AcDbLine
 10
39.0
 20
12.0
 11
39.0
 21
10.0
  0
LINE
  5
1FF
100
AcDbEntity
  8
1
  6
CONTINUOUS
 62
             7
100
AcDbLine
 10
39.0
 20
6.5
 11
54.0
 21
6.5
  0
LINE
  5
1FE
100
AcDbEntity
  8
1
  6
CONTINUOUS
 62
             7
100
AcDbLine
 10
54.0
 20
6.5
 11
54.0
 21
8.5
  0
LINE
  5
1FD
100
AcDbEntity
  8
1
  6
CONTINUOUS
 62
             7
100
AcDbLine
 10
54.0
 20
8.5
 11
39.0
 21
8.5
  0
LINE
  5
1FC
100
AcDbEntity
  8
1
  6
CONTINUOUS
 62
             7
100
AcDbLine
 10
39.0
 20
8.5
 11
39.0
 21
6.5
  0
LINE
  5
1FB
100
AcDbEntity
  8
1
  6
CONTINUOUS
 62
             7
100
AcDbLine
 10
39.0
 20
3.0
 11
54.0
 21
3.0
  0
LINE
  5
1FA
100
AcDbEntity
  8
1
  6
CONTINUOUS
 62
             7
100
AcDbLine
 10
54.0
 20
3.0
 11
54.0
 21
5.0
  0
LINE
  5
1F9
100
AcDbEntity
  8
1
  6
CONTINUOUS
 62
             7
100
AcDbLine
 10
54.0
 20
5.0
 11
39.0
 21
5.0
  0
LINE
  5
1F8
100
AcDbEntity
  8
1
  6
CONTINUOUS
 62
             7
100
AcDbLine
 10
39.0
 20
5.0
 11
39.0
 21
3.0
  0
LINE
  5
1F7
100
AcDbEntity
  8
1
  6
CONTINUOUS
 62
             7
100
AcDbLine
 10
54.0
 20
-10.0
 11
39.0
 21
-10.0
  0
LINE
  5
1F6
100
AcDbEntity
  8
1
  6
CONTINUOUS
 62
             7
100
AcDbLine
 10
54.0
 20
-12.0
 11
54.0
 21
-10.0
  0
LINE
  5
1F5
100
AcDbEntity
  8
1
  6
CONTINUOUS
 62
             7
100
AcDbLine
 10
39.0
 20
-12.0
 11
54.0
 21
-12.0
  0
LINE
  5
1F4
100
AcDbEntity
  8
1
  6
CONTINUOUS
 62
             7
100
AcDbLine
 10
39.0
 20
-10.0
 11
39.0
 21
-12.0
  0
LINE
  5
1F3
100
AcDbEntity
  8
1
  6
CONTINUOUS
 62
             7
100
AcDbLine
 10
54.0
 20
-6.5
 11
39.0
 21
-6.5
  0
LINE
  5
1F2
100
AcDbEntity
  8
1
  6
CONTINUOUS
 62
             7
100
AcDbLine
 10
54.0
 20
-8.5
 11
54.0
 21
-6.5
  0
LINE
  5
1F1
100
AcDbEntity
  8
1
  6
CONTINUOUS
 62
             7
100
AcDbLine
 10
39.0
 20
-8.5
 11
54.0
 21
-8.5
  0
LINE
  5
1F0
100
AcDbEntity
  8
1
  6
CONTINUOUS
 62
             7
100
AcDbLine
 10
39.0
 20
-6.5
 11
39.0
 21
-8.5
  0
LINE
  5
1EF
100
AcDbEntity
  8
1
  6
CONTINUOUS
 62
             7
100
AcDbLine
 10
54.0
 20
-3.0
 11
39.0
 21
-3.0
  0
LINE
  5
1EE
100
AcDbEntity
  8
1
  6
CONTINUOUS
 62
             7
100
AcDbLine
 10
54.0
 20
-5.0
 11
54.0
 21
-3.0
  0
LINE
  5
1ED
100
AcDbEntity
  8
1
  6
CONTINUOUS
 62
             7
100
AcDbLine
 10
39.0
 20
-5.0
 11
54.0
 21
-5.0
  0
LINE
  5
1EC
100
AcDbEntity
  8
1
  6
CONTINUOUS
 62
             7
100
AcDbLine
 10
39.0
 20
-3.0
 11
39.0
 21
-5.0
  0
LINE
  5
1EB
100
AcDbEntity
  8
1
  6
CONTINUOUS
 62
             7
100
AcDbLine
 10
59.0
 20
10.0
 11
74.0
 21
10.0
  0
LINE
  5
1EA
100
AcDbEntity
  8
1
  6
CONTINUOUS
 62
             7
100
AcDbLine
 10
74.0
 20
10.0
 11
74.0
 21
12.0
  0
LINE
  5
1E9
100
AcDbEntity
  8
1
  6
CONTINUOUS
 62
             7
100
AcDbLine
 10
74.0
 20
12.0
 11
59.0
 21
12.0
  0
LINE
  5
1E8
100
AcDbEntity
  8
1
  6
CONTINUOUS
 62
             7
100
AcDbLine
 10
59.0
 20
12.0
 11
59.0
 21
10.0
  0
LINE
  5
1E7
100
AcDbEntity
  8
1
  6
CONTINUOUS
 62
             7
100
AcDbLine
 10
59.0
 20
6.5
 11
74.0
 21
6.5
  0
LINE
  5
1E6
100
AcDbEntity
  8
1
  6
CONTINUOUS
 62
             7
100
AcDbLine
 10
74.0
 20
6.5
 11
74.0
 21
8.5
  0
LINE
  5
1E5
100
AcDbEntity
  8
1
  6
CONTINUOUS
 62
             7
100
AcDbLine
 10
74.0
 20
8.5
 11
59.0
 21
8.5
  0
LINE
  5
1E4
100
AcDbEntity
  8
1
  6
CONTINUOUS
 62
             7
100
AcDbLine
 10
59.0
 20
8.5
 11
59.0
 21
6.5
  0
LINE
  5
1E3
100
AcDbEntity
  8
1
  6
CONTINUOUS
 62
             7
100
AcDbLine
 10
74.0
 20
-10.0
 11
59.0
 21
-10.0
  0
LINE
  5
1E2
100
AcDbEntity
  8
1
  6
CONTINUOUS
 62
             7
100
AcDbLine
 10
74.0
 20
-12.0
 11
74.0
 21
-10.0
  0
LINE
  5
1E1
100
AcDbEntity
  8
1
  6
CONTINUOUS
 62
             7
100
AcDbLine
 10
59.0
 20
-12.0
 11
74.0
 21
-12.0
  0
LINE
  5
1E0
100
AcDbEntity
  8
1
  6
CONTINUOUS
 62
             7
100
AcDbLine
 10
59.0
 20
-10.0
 11
59.0
 21
-12.0
  0
LINE
  5
1DF
100
AcDbEntity
  8
1
  6
CONTINUOUS
 62
             7
100
AcDbLine
 10
74.0
 20
-6.5
 11
59.0
 21
-6.5
  0
LINE
  5
1DE
100
AcDbEntity
  8
1
  6
CONTINUOUS
 62
             7
100
AcDbLine
 10
74.0
 20
-8.5
 11
74.0
 21
-6.5
  0
LINE
  5
1DD
100
AcDbEntity
  8
1
  6
CONTINUOUS
 62
             7
100
AcDbLine
 10
59.0
 20
-8.5
 11
74.0
 21
-8.5
  0
LINE
  5
1DC
100
AcDbEntity
  8
1
  6
CONTINUOUS
 62
             7
100
AcDbLine
 10
59.0
 20
-6.5
 11
59.0
 21
-8.5
  0
LINE
  5
1DB
100
AcDbEntity
  8
1
  6
CONTINUOUS
 62
             7
100
AcDbLine
 10
60.0
 20
-2.0
 11
65.0
 21
-2.0
  0
LINE
  5
1DA
100
AcDbEntity
  8
1
  6
CONTINUOUS
 62
             7
100
AcDbLine
 10
65.0
 20
-2.0
 11
65.0
 21
4.0
  0
LINE
  5
1D9
100
AcDbEntity
  8
1
  6
CONTINUOUS
 62
             7
100
AcDbLine
 10
65.0
 20
4.0
 11
60.0
 21
4.0
  0
LINE
  5
1D8
100
AcDbEntity
  8
1
  6
CONTINUOUS
 62
             7
100
AcDbLine
 10
60.0
 20
4.0
 11
60.0
 21
-2.0
  0
LINE
  5
1D7
100
AcDbEntity
  8
1
  6
CONTINUOUS
 62
             7
100
AcDbLine
 10
69.5
 20
15.0
 11
72.5
 21
15.0
  0
LINE
  5
1D6
100
AcDbEntity
  8
1
  6
CONTINUOUS
 62
             7
100
AcDbLine
 10
72.5
 20
15.0
 11
72.5
 21
18.0
  0
LINE
  5
1D5
100
AcDbEntity
  8
1
  6
CONTINUOUS
 62
             7
100
AcDbLine
 10
72.5
 20
18.0
 11
69.5
 21
18.0
  0
LINE
  5
1D4
100
AcDbEntity
  8
1
  6
CONTINUOUS
 62
             7
100
AcDbLine
 10
69.5
 20
18.0
 11
69.5
 21
15.0
  0
LINE
  5
1D3
100
AcDbEntity
  8
1
  6
CONTINUOUS
 62
             7
100
AcDbLine
 10
72.5
 20
-15.0
 11
69.5
 21
-15.0
  0
LINE
  5
1D2
100
AcDbEntity
  8
1
  6
CONTINUOUS
 62
             7
100
AcDbLine
 10
72.5
 20
-18.0
 11
72.5
 21
-15.0
  0
LINE
  5
1D1
100
AcDbEntity
  8
1
  6
CONTINUOUS
 62
             7
100
AcDbLine
 10
69.5
 20
-18.0
 11
72.5
 21
-18.0
  0
LINE
  5
1D0
100
AcDbEntity
  8
1
  6
CONTINUOUS
 62
             7
100
AcDbLine
 10
69.5
 20
-15.0
 11
69.5
 21
-18.0
  0
LINE
  5
1CF
100
AcDbEntity
  8
1
  6
CONTINUOUS
 62
             7
100
AcDbLine
 10
4.0
 20
22.0
 11
4.0
 21
-22.0
  0
LINE
  5
1CE
100
AcDbEntity
  8
1
  6
CONTINUOUS
 62
             7
100
AcDbLine
 10
2.0
 20
24.0
 11
2.0
 21
-24.0
  0
LINE
  5
1CD
100
AcDbEntity
  8
1
  6
CONTINUOUS
 62
             7
100
AcDbLine
 10
1.7
 20
9.0
 11
1.7
 21
-9.0
  0
LINE
  5
1CC
100
AcDbEntity
  8
1
  6
CONTINUOUS
 62
             7
100
AcDbLine
 10
-4.0
 20
7.0
 11
-4.0
 21
-7.0
  0
LINE
  5
1CB
100
AcDbEntity
  8
1
  6
CONTINUOUS
 62
             7
100
AcDbLine
 10
-3.0
 20
7.0
 11
-3.0
 21
-7.0
  0
LINE
  5
1CA
100
AcDbEntity
  8
1
  6
CONTINUOUS
 62
             7
100
AcDbLine
 10
-1.5
 20
7.0
 11
-1.5
 21
-7.0
  0
LINE
  5
1C9
100
AcDbEntity
  8
1
  6
CONTINUOUS
 62
             7
100
AcDbLine
 10
-4.0
 20
7.0
 11
0.0
 21
7.0
  0
LINE
  5
1C8
100
AcDbEntity
  8
1
  6
CONTINUOUS
 62
             7
100
AcDbLine
 10
-4.0
 20
-7.0
 11
0.0
 21
-7.0
  0
LINE
  5
1C7
100
AcDbEntity
  8
1
  6
CONTINUOUS
 62
             7
100
AcDbLine
 10
-5.0
 20
9.0
 11
-5.0
 21
-9.0
  0
LINE
  5
1C6
100
AcDbEntity
  8
1
  6
CONTINUOUS
 62
             7
100
AcDbLine
 10
-6.0
 20
-9.0
 11
-6.0
 21
9.0
  0
LINE
  5
1C5
100
AcDbEntity
  8
1
  6
CONTINUOUS
 62
             7
100
AcDbLine
 10
1.7
 20
9.0
 11
-6.0
 21
9.0
  0
LINE
  5
1C4
100
AcDbEntity
  8
1
  6
CONTINUOUS
 62
             7
100
AcDbLine
 10
1.7
 20
-9.0
 11
-6.0
 21
-9.0
  0
LINE
  5
1C3
100
AcDbEntity
  8
1
  6
CONTINUOUS
 62
             7
100
AcDbLine
 10
0.0
 20
24.0
 11
0.0
 21
-24.0
  0
LINE
  5
1C2
100
AcDbEntity
  8
1
  6
CONTINUOUS
 62
             7
100
AcDbLine
 10
0.0
 20
24.0
 11
-7.53487823687206
 21
23.473109986513
  0
LINE
  5
1C1
100
AcDbEntity
  8
1
  6
CONTINUOUS
 62
             7
100
AcDbLine
 10
-8.0
 20
22.97432796138309
 11
-8.0
 21
-22.97432796138308
  0
LINE
  5
1C0
100
AcDbEntity
  8
1
  6
CONTINUOUS
 62
             7
100
AcDbLine
 10
-7.53487823687206
 20
-23.473109986513
 11
0.0
 21
-24.0
  0
LINE
  5
1BF
100
AcDbEntity
  8
1
  6
CONTINUOUS
 62
             7
100
AcDbLine
 10
-108.0
 20
-14.25
 11
-108.0
 21
-15.75
  0
LINE
  5
1BE
100
AcDbEntity
  8
1
  6
CONTINUOUS
 62
             7
100
AcDbLine
 10
-112.0
 20
-14.25
 11
-112.0
 21
-15.75
  0
LINE
  5
1BD
100
AcDbEntity
  8
1
  6
CONTINUOUS
 62
             7
100
AcDbLine
 10
-125.5
 20
-5.75
 11
-125.5
 21
-7.25
  0
LINE
  5
1BC
100
AcDbEntity
  8
1
  6
CONTINUOUS
 62
             7
100
AcDbLine
 10
-129.5
 20
-5.75
 11
-129.5
 21
-7.25
  0
LINE
  5
1BB
100
AcDbEntity
  8
1
  6
CONTINUOUS
 62
             7
100
AcDbLine
 10
-139.5
 20
-5.75
 11
-139.5
 21
-7.25
  0
LINE
  5
1BA
100
AcDbEntity
  8
1
  6
CONTINUOUS
 62
             7
100
AcDbLine
 10
-143.5
 20
-5.75
 11
-143.5
 21
-7.25
  0
LINE
  5
1B9
100
AcDbEntity
  8
1
  6
CONTINUOUS
 62
             7
100
AcDbLine
 10
-145.0
 20
-6.25
 11
-145.0
 21
-6.75
  0
LINE
  5
1B8
100
AcDbEntity
  8
1
  6
CONTINUOUS
 62
             7
100
AcDbLine
 10
-124.5
 20
-5.75
 11
-144.5
 21
-5.75
  0
LINE
  5
1B7
100
AcDbEntity
  8
1
  6
CONTINUOUS
 62
             7
100
AcDbLine
 10
-124.0
 20
-6.75
 11
-124.0
 21
-6.25
  0
LINE
  5
1B6
100
AcDbEntity
  8
1
  6
CONTINUOUS
 62
             7
100
AcDbLine
 10
-144.5
 20
-7.25
 11
-124.5
 21
-7.25
  0
LINE
  5
1B5
100
AcDbEntity
  8
1
  6
CONTINUOUS
 62
             7
100
AcDbLine
 10
-132.5
 20
-5.75
 11
-132.5
 21
-7.25
  0
LINE
  5
1B4
100
AcDbEntity
  8
1
  6
CONTINUOUS
 62
             7
100
AcDbLine
 10
-136.5
 20
-5.75
 11
-136.5
 21
-7.25
  0
LINE
  5
1B3
100
AcDbEntity
  8
1
  6
CONTINUOUS
 62
             7
100
AcDbLine
 10
-58.0
 20
-23.0
 11
-58.0
 21
23.0
  0
LINE
  5
1B2
100
AcDbEntity
  8
1
  6
CONTINUOUS
 62
             7
100
AcDbLine
 10
-59.0
 20
24.0
 11
-153.0
 21
24.0
  0
LINE
  5
1B1
100
AcDbEntity
  8
1
  6
CONTINUOUS
 62
             7
100
AcDbLine
 10
-154.0
 20
23.0
 11
-154.0
 21
-23.0
  0
LINE
  5
1B0
100
AcDbEntity
  8
1
  6
CONTINUOUS
 62
             7
100
AcDbLine
 10
-153.0
 20
-24.0
 11
-59.0
 21
-24.0
  0
LINE
  5
1AF
100
AcDbEntity
  8
0
  6
CONTINUOUS
 62
             7
100
AcDbLine
 10
-118.736795988571
 20
-10.5
 11
-121.1738198570968
 21
-10.5
  0
LINE
  5
1AE
100
AcDbEntity
  8
0
  6
CONTINUOUS
 62
             7
100
AcDbLine
 10
-121.1738198570968
 20
-10.5
 11
-121.3809021876304
 21
-10.2532088886238
  0
LINE
  5
1AD
100
AcDbEntity
  8
0
  6
CONTINUOUS
 62
             7
100
AcDbLine
 10
-121.8450995620386
 20
-9.7
 11
-121.35138401605489
 21
-6.90000000000001
  0
LINE
  5
1AC
100
AcDbEntity
  8
0
  6
CONTINUOUS
 62
             7
100
AcDbLine
 10
-121.35138401605489
 20
-6.90000000000001
 11
-121.027891467641
 21
-6.62855752193731
  0
LINE
  5
1AB
100
AcDbEntity
  8
0
  6
CONTINUOUS
 62
             7
100
AcDbLine
 10
-117.2803844939756
 20
-6.84729635533387
 11
-117.7607219781285
 21
-9.5714255964913
  0
LINE
  5
1AA
100
AcDbEntity
  8
0
  6
CONTINUOUS
 62
             7
100
AcDbLine
 10
-117.7607219781285
 20
-9.5714255964913
 11
-118.1218221625512
 21
-9.95364185095389
  0
LINE
  5
1A9
100
AcDbEntity
  8
0
  6
CONTINUOUS
 62
             7
100
AcDbLine
 10
-117.14861598394511
 20
-6.09999999999999
 11
-116.6549004379614
 21
-3.3
  0
LINE
  5
1A8
100
AcDbEntity
  8
0
  6
CONTINUOUS
 62
             7
100
AcDbLine
 10
-116.6549004379614
 20
-3.3
 11
-116.861982768495
 21
-3.0532088886238
  0
LINE
  5
1A7
100
AcDbEntity
  8
0
  6
CONTINUOUS
 62
             7
100
AcDbLine
 10
-117.3261801429033
 20
-2.5
 11
-119.7632040114291
 21
-2.5
  0
LINE
  5
1A6
100
AcDbEntity
  8
0
  6
CONTINUOUS
 62
             7
100
AcDbLine
 10
-119.7632040114291
 20
-2.5
 11
-120.08669655984291
 21
-2.7714424780627
  0
LINE
  5
1A5
100
AcDbEntity
  8
0
  6
CONTINUOUS
 62
             7
100
AcDbLine
 10
-120.7166068855044
 20
-3.3
 11
-121.21032243148809
 21
-6.09999999999999
  0
LINE
  5
1A4
100
AcDbEntity
  8
0
  6
CONTINUOUS
 62
             7
100
AcDbLine
 10
-121.21032243148809
 20
-6.09999999999999
 11
-121.0032401009545
 21
-6.34679111137621
  0
LINE
  5
1A3
100
AcDbEntity
  8
0
  6
CONTINUOUS
 62
             7
100
AcDbLine
 10
-118.5503980846231
 20
-9.44288495612538
 11
-118.1218221625512
 21
-9.95364185095389
  0
LINE
  5
1A2
100
AcDbEntity
  8
0
  6
CONTINUOUS
 62
             7
100
AcDbLine
 10
-118.5503980846231
 20
-9.44288495612538
 11
-118.156048579518
 21
-7.20641777724759
  0
LINE
  5
1A1
100
AcDbEntity
  8
0
  6
CONTINUOUS
 62
             7
100
AcDbLine
 10
-118.41330344015709
 20
-10.2285575219373
 11
-118.8568158618707
 21
-9.7
  0
LINE
  5
1A0
100
AcDbEntity
  8
0
  6
CONTINUOUS
 62
             7
100
AcDbLine
 10
-118.41330344015709
 20
-10.2285575219373
 11
-118.736795988571
 21
-10.5
  0
LINE
  5
19F
100
AcDbEntity
  8
0
  6
CONTINUOUS
 62
             7
100
AcDbLine
 10
-121.638017231505
 20
-9.9467911113762
 11
-120.9787285510325
 21
-9.3935822227524
  0
LINE
  5
19E
100
AcDbEntity
  8
0
  6
CONTINUOUS
 62
             7
100
AcDbLine
 10
-121.638017231505
 20
-9.9467911113762
 11
-121.8450995620386
 21
-9.7
  0
LINE
  5
19D
100
AcDbEntity
  8
0
  6
CONTINUOUS
 62
             7
100
AcDbLine
 10
-121.3809021876304
 20
-10.2532088886238
 11
-120.7216135071579
 21
-9.7
  0
LINE
  5
19C
100
AcDbEntity
  8
0
  6
CONTINUOUS
 62
             7
100
AcDbLine
 10
-120.7216135071579
 20
-9.7
 11
-118.8568158618707
 21
-9.7
  0
LINE
  5
19B
100
AcDbEntity
  8
0
  6
CONTINUOUS
 62
             7
100
AcDbLine
 10
-121.0032401009545
 20
-6.34679111137621
 11
-120.343951420482
 21
-5.79358222275241
  0
LINE
  5
19A
100
AcDbEntity
  8
0
  6
CONTINUOUS
 62
             7
100
AcDbLine
 10
-120.343951420482
 20
-5.79358222275241
 11
-119.949601915377
 21
-3.55711504387462
  0
LINE
  5
199
100
AcDbEntity
  8
0
  6
CONTINUOUS
 62
             7
100
AcDbLine
 10
-120.5635378136451
 20
-6.5
 11
-120.08683637660739
 21
-6.09999999999999
  0
LINE
  5
198
100
AcDbEntity
  8
0
  6
CONTINUOUS
 62
             7
100
AcDbLine
 10
-120.5635378136451
 20
-6.5
 11
-120.2779612686798
 21
-6.90000000000001
  0
LINE
  5
197
100
AcDbEntity
  8
0
  6
CONTINUOUS
 62
             7
100
AcDbLine
 10
-121.027891467641
 20
-6.62855752193731
 11
-120.58437904592741
 21
-7.15711504387461
  0
LINE
  5
196
100
AcDbEntity
  8
0
  6
CONTINUOUS
 62
             7
100
AcDbLine
 10
-120.58437904592741
 20
-7.15711504387461
 11
-120.9787285510325
 21
-9.3935822227524
  0
LINE
  5
195
100
AcDbEntity
  8
0
  6
CONTINUOUS
 62
             7
100
AcDbLine
 10
-118.41316362339261
 20
-6.90000000000001
 11
-117.9364621863549
 21
-6.5
  0
LINE
  5
194
100
AcDbEntity
  8
0
  6
CONTINUOUS
 62
             7
100
AcDbLine
 10
-118.41316362339261
 20
-6.90000000000001
 11
-120.2779612686798
 21
-6.90000000000001
  0
LINE
  5
193
100
AcDbEntity
  8
0
  6
CONTINUOUS
 62
             7
100
AcDbLine
 10
-117.9364621863549
 20
-6.5
 11
-118.2220387313202
 21
-6.09999999999999
  0
LINE
  5
192
100
AcDbEntity
  8
0
  6
CONTINUOUS
 62
             7
100
AcDbLine
 10
-118.2220387313202
 20
-6.09999999999999
 11
-120.08683637660739
 21
-6.09999999999999
  0
LINE
  5
191
100
AcDbEntity
  8
0
  6
CONTINUOUS
 62
             7
100
AcDbLine
 10
-117.91562095407259
 20
-5.84288495612539
 11
-117.472108532359
 21
-6.37144247806269
  0
LINE
  5
190
100
AcDbEntity
  8
0
  6
CONTINUOUS
 62
             7
100
AcDbLine
 10
-117.472108532359
 20
-6.37144247806269
 11
-117.14861598394511
 21
-6.09999999999999
  0
LINE
  5
18F
100
AcDbEntity
  8
0
  6
CONTINUOUS
 62
             7
100
AcDbLine
 10
-117.2803844939756
 20
-6.84729635533387
 11
-117.4838827946279
 21
-6.64240371505632
  0
LINE
  5
18E
100
AcDbEntity
  8
0
  6
CONTINUOUS
 62
             7
100
AcDbLine
 10
-117.4838827946279
 20
-6.64240371505632
 11
-118.156048579518
 21
-7.20641777724759
  0
LINE
  5
18D
100
AcDbEntity
  8
0
  6
CONTINUOUS
 62
             7
100
AcDbLine
 10
-120.39311433709049
 20
-3.02855752193731
 11
-119.949601915377
 21
-3.55711504387462
  0
LINE
  5
18C
100
AcDbEntity
  8
0
  6
CONTINUOUS
 62
             7
100
AcDbLine
 10
-120.39311433709049
 20
-3.02855752193731
 11
-120.7166068855044
 21
-3.3
  0
LINE
  5
18B
100
AcDbEntity
  8
0
  6
CONTINUOUS
 62
             7
100
AcDbLine
 10
-119.6431841381294
 20
-3.3
 11
-120.08669655984291
 21
-2.7714424780627
  0
LINE
  5
18A
100
AcDbEntity
  8
0
  6
CONTINUOUS
 62
             7
100
AcDbLine
 10
-119.6431841381294
 20
-3.3
 11
-117.7783864928421
 21
-3.3
  0
LINE
  5
189
100
AcDbEntity
  8
0
  6
CONTINUOUS
 62
             7
100
AcDbLine
 10
-117.7783864928421
 20
-3.3
 11
-117.1190978123697
 21
-2.7467911113762
  0
LINE
  5
188
100
AcDbEntity
  8
0
  6
CONTINUOUS
 62
             7
100
AcDbLine
 10
-117.1190978123697
 20
-2.7467911113762
 11
-117.3261801429033
 21
-2.5
  0
LINE
  5
187
100
AcDbEntity
  8
0
  6
CONTINUOUS
 62
             7
100
AcDbLine
 10
-116.861982768495
 20
-3.0532088886238
 11
-117.5212714489675
 21
-3.60641777724759
  0
LINE
  5
186
100
AcDbEntity
  8
0
  6
CONTINUOUS
 62
             7
100
AcDbLine
 10
-117.5212714489675
 20
-3.60641777724759
 11
-117.91562095407259
 21
-5.84288495612539
  0
LINE
  5
185
100
AcDbEntity
  8
0
  6
CONTINUOUS
 62
             7
100
AcDbLine
 10
-111.236795988571
 20
-10.5
 11
-113.6738198570968
 21
-10.5
  0
LINE
  5
184
100
AcDbEntity
  8
0
  6
CONTINUOUS
 62
             7
100
AcDbLine
 10
-113.6738198570968
 20
-10.5
 11
-113.8809021876304
 21
-10.2532088886238
  0
LINE
  5
183
100
AcDbEntity
  8
0
  6
CONTINUOUS
 62
             7
100
AcDbLine
 10
-114.3450995620386
 20
-9.7
 11
-113.85138401605489
 21
-6.90000000000001
  0
LINE
  5
182
100
AcDbEntity
  8
0
  6
CONTINUOUS
 62
             7
100
AcDbLine
 10
-113.85138401605489
 20
-6.90000000000001
 11
-113.527891467641
 21
-6.62855752193731
  0
LINE
  5
181
100
AcDbEntity
  8
0
  6
CONTINUOUS
 62
             7
100
AcDbLine
 10
-109.7803844939756
 20
-6.84729635533387
 11
-110.2607219781285
 21
-9.5714255964913
  0
LINE
  5
180
100
AcDbEntity
  8
0
  6
CONTINUOUS
 62
             7
100
AcDbLine
 10
-110.2607219781285
 20
-9.5714255964913
 11
-110.6218221625512
 21
-9.95364185095389
  0
LINE
  5
17F
100
AcDbEntity
  8
0
  6
CONTINUOUS
 62
             7
100
AcDbLine
 10
-109.64861598394511
 20
-6.09999999999999
 11
-109.1549004379614
 21
-3.3
  0
LINE
  5
17E
100
AcDbEntity
  8
0
  6
CONTINUOUS
 62
             7
100
AcDbLine
 10
-109.1549004379614
 20
-3.3
 11
-109.361982768495
 21
-3.0532088886238
  0
LINE
  5
17D
100
AcDbEntity
  8
0
  6
CONTINUOUS
 62
             7
100
AcDbLine
 10
-109.8261801429033
 20
-2.5
 11
-112.263204011429
 21
-2.5
  0
LINE
  5
17C
100
AcDbEntity
  8
0
  6
CONTINUOUS
 62
             7
100
AcDbLine
 10
-112.263204011429
 20
-2.5
 11
-112.58669655984291
 21
-2.7714424780627
  0
LINE
  5
17B
100
AcDbEntity
  8
0
  6
CONTINUOUS
 62
             7
100
AcDbLine
 10
-113.2166068855044
 20
-3.3
 11
-113.71032243148809
 21
-6.09999999999999
  0
LINE
  5
17A
100
AcDbEntity
  8
0
  6
CONTINUOUS
 62
             7
100
AcDbLine
 10
-113.71032243148809
 20
-6.09999999999999
 11
-113.5032401009545
 21
-6.34679111137621
  0
LINE
  5
179
100
AcDbEntity
  8
0
  6
CONTINUOUS
 62
             7
100
AcDbLine
 10
-111.0503980846231
 20
-9.44288495612538
 11
-110.6218221625512
 21
-9.95364185095389
  0
LINE
  5
178
100
AcDbEntity
  8
0
  6
CONTINUOUS
 62
             7
100
AcDbLine
 10
-111.0503980846231
 20
-9.44288495612538
 11
-110.656048579518
 21
-7.20641777724759
  0
LINE
  5
177
100
AcDbEntity
  8
0
  6
CONTINUOUS
 62
             7
100
AcDbLine
 10
-110.91330344015709
 20
-10.2285575219373
 11
-111.3568158618707
 21
-9.7
  0
LINE
  5
176
100
AcDbEntity
  8
0
  6
CONTINUOUS
 62
             7
100
AcDbLine
 10
-110.91330344015709
 20
-10.2285575219373
 11
-111.236795988571
 21
-10.5
  0
LINE
  5
175
100
AcDbEntity
  8
0
  6
CONTINUOUS
 62
             7
100
AcDbLine
 10
-114.138017231505
 20
-9.9467911113762
 11
-113.4787285510325
 21
-9.3935822227524
  0
LINE
  5
174
100
AcDbEntity
  8
0
  6
CONTINUOUS
 62
             7
100
AcDbLine
 10
-114.138017231505
 20
-9.9467911113762
 11
-114.3450995620386
 21
-9.7
  0
LINE
  5
173
100
AcDbEntity
  8
0
  6
CONTINUOUS
 62
             7
100
AcDbLine
 10
-113.8809021876304
 20
-10.2532088886238
 11
-113.2216135071579
 21
-9.7
  0
LINE
  5
172
100
AcDbEntity
  8
0
  6
CONTINUOUS
 62
             7
100
AcDbLine
 10
-113.2216135071579
 20
-9.7
 11
-111.3568158618707
 21
-9.7
  0
LINE
  5
171
100
AcDbEntity
  8
0
  6
CONTINUOUS
 62
             7
100
AcDbLine
 10
-113.5032401009545
 20
-6.34679111137621
 11
-112.8439514204821
 21
-5.79358222275241
  0
LINE
  5
170
100
AcDbEntity
  8
0
  6
CONTINUOUS
 62
             7
100
AcDbLine
 10
-112.8439514204821
 20
-5.79358222275241
 11
-112.449601915377
 21
-3.55711504387462
  0
LINE
  5
16F
100
AcDbEntity
  8
0
  6
CONTINUOUS
 62
             7
100
AcDbLine
 10
-113.0635378136451
 20
-6.5
 11
-112.58683637660739
 21
-6.09999999999999
  0
LINE
  5
16E
100
AcDbEntity
  8
0
  6
CONTINUOUS
 62
             7
100
AcDbLine
 10
-113.0635378136451
 20
-6.5
 11
-112.7779612686798
 21
-6.90000000000001
  0
LINE
  5
16D
100
AcDbEntity
  8
0
  6
CONTINUOUS
 62
             7
100
AcDbLine
 10
-113.527891467641
 20
-6.62855752193731
 11
-113.08437904592741
 21
-7.15711504387461
  0
LINE
  5
16C
100
AcDbEntity
  8
0
  6
CONTINUOUS
 62
             7
100
AcDbLine
 10
-113.08437904592741
 20
-7.15711504387461
 11
-113.4787285510325
 21
-9.3935822227524
  0
LINE
  5
16B
100
AcDbEntity
  8
0
  6
CONTINUOUS
 62
             7
100
AcDbLine
 10
-110.91316362339261
 20
-6.90000000000001
 11
-110.4364621863549
 21
-6.5
  0
LINE
  5
16A
100
AcDbEntity
  8
0
  6
CONTINUOUS
 62
             7
100
AcDbLine
 10
-110.91316362339261
 20
-6.90000000000001
 11
-112.7779612686798
 21
-6.90000000000001
  0
LINE
  5
169
100
AcDbEntity
  8
0
  6
CONTINUOUS
 62
             7
100
AcDbLine
 10
-110.4364621863549
 20
-6.5
 11
-110.7220387313202
 21
-6.09999999999999
  0
LINE
  5
168
100
AcDbEntity
  8
0
  6
CONTINUOUS
 62
             7
100
AcDbLine
 10
-110.7220387313202
 20
-6.09999999999999
 11
-112.58683637660739
 21
-6.09999999999999
  0
LINE
  5
167
100
AcDbEntity
  8
0
  6
CONTINUOUS
 62
             7
100
AcDbLine
 10
-110.41562095407259
 20
-5.84288495612539
 11
-109.972108532359
 21
-6.37144247806269
  0
LINE
  5
166
100
AcDbEntity
  8
0
  6
CONTINUOUS
 62
             7
100
AcDbLine
 10
-109.972108532359
 20
-6.37144247806269
 11
-109.64861598394511
 21
-6.09999999999999
  0
LINE
  5
165
100
AcDbEntity
  8
0
  6
CONTINUOUS
 62
             7
100
AcDbLine
 10
-109.7803844939756
 20
-6.84729635533387
 11
-109.9838827946279
 21
-6.64240371505632
  0
LINE
  5
164
100
AcDbEntity
  8
0
  6
CONTINUOUS
 62
             7
100
AcDbLine
 10
-109.9838827946279
 20
-6.64240371505632
 11
-110.656048579518
 21
-7.20641777724759
  0
LINE
  5
163
100
AcDbEntity
  8
0
  6
CONTINUOUS
 62
             7
100
AcDbLine
 10
-112.89311433709049
 20
-3.02855752193731
 11
-112.449601915377
 21
-3.55711504387462
  0
LINE
  5
162
100
AcDbEntity
  8
0
  6
CONTINUOUS
 62
             7
100
AcDbLine
 10
-112.89311433709049
 20
-3.02855752193731
 11
-113.2166068855044
 21
-3.3
  0
LINE
  5
161
100
AcDbEntity
  8
0
  6
CONTINUOUS
 62
             7
100
AcDbLine
 10
-112.1431841381294
 20
-3.3
 11
-112.58669655984291
 21
-2.7714424780627
  0
LINE
  5
160
100
AcDbEntity
  8
0
  6
CONTINUOUS
 62
             7
100
AcDbLine
 10
-112.1431841381294
 20
-3.3
 11
-110.2783864928421
 21
-3.3
  0
LINE
  5
15F
100
AcDbEntity
  8
0
  6
CONTINUOUS
 62
             7
100
AcDbLine
 10
-110.2783864928421
 20
-3.3
 11
-109.6190978123697
 21
-2.7467911113762
  0
LINE
  5
15E
100
AcDbEntity
  8
0
  6
CONTINUOUS
 62
             7
100
AcDbLine
 10
-109.6190978123697
 20
-2.7467911113762
 11
-109.8261801429033
 21
-2.5
  0
LINE
  5
15D
100
AcDbEntity
  8
0
  6
CONTINUOUS
 62
             7
100
AcDbLine
 10
-109.361982768495
 20
-3.0532088886238
 11
-110.0212714489675
 21
-3.60641777724759
  0
LINE
  5
15C
100
AcDbEntity
  8
0
  6
CONTINUOUS
 62
             7
100
AcDbLine
 10
-110.0212714489675
 20
-3.60641777724759
 11
-110.41562095407259
 21
-5.84288495612539
  0
LINE
  5
15B
100
AcDbEntity
  8
0
  6
CONTINUOUS
 62
             7
100
AcDbLine
 10
-103.736795988571
 20
-10.5
 11
-106.1738198570968
 21
-10.5
  0
LINE
  5
15A
100
AcDbEntity
  8
0
  6
CONTINUOUS
 62
             7
100
AcDbLine
 10
-106.1738198570968
 20
-10.5
 11
-106.3809021876304
 21
-10.2532088886238
  0
LINE
  5
159
100
AcDbEntity
  8
0
  6
CONTINUOUS
 62
             7
100
AcDbLine
 10
-106.8450995620386
 20
-9.7
 11
-106.35138401605489
 21
-6.90000000000001
  0
LINE
  5
158
100
AcDbEntity
  8
0
  6
CONTINUOUS
 62
             7
100
AcDbLine
 10
-106.35138401605489
 20
-6.90000000000001
 11
-106.027891467641
 21
-6.62855752193731
  0
LINE
  5
157
100
AcDbEntity
  8
0
  6
CONTINUOUS
 62
             7
100
AcDbLine
 10
-102.2803844939756
 20
-6.84729635533387
 11
-102.7607219781285
 21
-9.5714255964913
  0
LINE
  5
156
100
AcDbEntity
  8
0
  6
CONTINUOUS
 62
             7
100
AcDbLine
 10
-102.7607219781285
 20
-9.5714255964913
 11
-103.1218221625512
 21
-9.95364185095389
  0
LINE
  5
155
100
AcDbEntity
  8
0
  6
CONTINUOUS
 62
             7
100
AcDbLine
 10
-102.14861598394511
 20
-6.09999999999999
 11
-101.6549004379614
 21
-3.3
  0
LINE
  5
154
100
AcDbEntity
  8
0
  6
CONTINUOUS
 62
             7
100
AcDbLine
 10
-101.6549004379614
 20
-3.3
 11
-101.861982768495
 21
-3.0532088886238
  0
LINE
  5
153
100
AcDbEntity
  8
0
  6
CONTINUOUS
 62
             7
100
AcDbLine
 10
-102.3261801429033
 20
-2.5
 11
-104.763204011429
 21
-2.5
  0
LINE
  5
152
100
AcDbEntity
  8
0
  6
CONTINUOUS
 62
             7
100
AcDbLine
 10
-104.763204011429
 20
-2.5
 11
-105.08669655984291
 21
-2.7714424780627
  0
LINE
  5
151
100
AcDbEntity
  8
0
  6
CONTINUOUS
 62
             7
100
AcDbLine
 10
-105.7166068855044
 20
-3.3
 11
-106.21032243148809
 21
-6.09999999999999
  0
LINE
  5
150
100
AcDbEntity
  8
0
  6
CONTINUOUS
 62
             7
100
AcDbLine
 10
-106.21032243148809
 20
-6.09999999999999
 11
-106.0032401009545
 21
-6.34679111137621
  0
LINE
  5
14F
100
AcDbEntity
  8
0
  6
CONTINUOUS
 62
             7
100
AcDbLine
 10
-103.5503980846231
 20
-9.44288495612538
 11
-103.1218221625512
 21
-9.95364185095389
  0
LINE
  5
14E
100
AcDbEntity
  8
0
  6
CONTINUOUS
 62
             7
100
AcDbLine
 10
-103.5503980846231
 20
-9.44288495612538
 11
-103.156048579518
 21
-7.20641777724759
  0
LINE
  5
14D
100
AcDbEntity
  8
0
  6
CONTINUOUS
 62
             7
100
AcDbLine
 10
-103.41330344015709
 20
-10.2285575219373
 11
-103.8568158618707
 21
-9.7
  0
LINE
  5
14C
100
AcDbEntity
  8
0
  6
CONTINUOUS
 62
             7
100
AcDbLine
 10
-103.41330344015709
 20
-10.2285575219373
 11
-103.736795988571
 21
-10.5
  0
LINE
  5
14B
100
AcDbEntity
  8
0
  6
CONTINUOUS
 62
             7
100
AcDbLine
 10
-106.638017231505
 20
-9.9467911113762
 11
-105.9787285510325
 21
-9.3935822227524
  0
LINE
  5
14A
100
AcDbEntity
  8
0
  6
CONTINUOUS
 62
             7
100
AcDbLine
 10
-106.638017231505
 20
-9.9467911113762
 11
-106.8450995620386
 21
-9.7
  0
LINE
  5
149
100
AcDbEntity
  8
0
  6
CONTINUOUS
 62
             7
100
AcDbLine
 10
-106.3809021876304
 20
-10.2532088886238
 11
-105.7216135071579
 21
-9.7
  0
LINE
  5
148
100
AcDbEntity
  8
0
  6
CONTINUOUS
 62
             7
100
AcDbLine
 10
-105.7216135071579
 20
-9.7
 11
-103.8568158618707
 21
-9.7
  0
LINE
  5
147
100
AcDbEntity
  8
0
  6
CONTINUOUS
 62
             7
100
AcDbLine
 10
-106.0032401009545
 20
-6.34679111137621
 11
-105.3439514204821
 21
-5.79358222275241
  0
LINE
  5
146
100
AcDbEntity
  8
0
  6
CONTINUOUS
 62
             7
100
AcDbLine
 10
-105.3439514204821
 20
-5.79358222275241
 11
-104.949601915377
 21
-3.55711504387462
  0
LINE
  5
145
100
AcDbEntity
  8
0
  6
CONTINUOUS
 62
             7
100
AcDbLine
 10
-105.5635378136451
 20
-6.5
 11
-105.08683637660739
 21
-6.09999999999999
  0
LINE
  5
144
100
AcDbEntity
  8
0
  6
CONTINUOUS
 62
             7
100
AcDbLine
 10
-105.5635378136451
 20
-6.5
 11
-105.2779612686798
 21
-6.90000000000001
  0
LINE
  5
143
100
AcDbEntity
  8
0
  6
CONTINUOUS
 62
             7
100
AcDbLine
 10
-106.027891467641
 20
-6.62855752193731
 11
-105.58437904592741
 21
-7.15711504387461
  0
LINE
  5
142
100
AcDbEntity
  8
0
  6
CONTINUOUS
 62
             7
100
AcDbLine
 10
-105.58437904592741
 20
-7.15711504387461
 11
-105.9787285510325
 21
-9.3935822227524
  0
LINE
  5
141
100
AcDbEntity
  8
0
  6
CONTINUOUS
 62
             7
100
AcDbLine
 10
-103.41316362339261
 20
-6.90000000000001
 11
-102.9364621863549
 21
-6.5
  0
LINE
  5
140
100
AcDbEntity
  8
0
  6
CONTINUOUS
 62
             7
100
AcDbLine
 10
-103.41316362339261
 20
-6.90000000000001
 11
-105.2779612686798
 21
-6.90000000000001
  0
LINE
  5
13F
100
AcDbEntity
  8
0
  6
CONTINUOUS
 62
             7
100
AcDbLine
 10
-102.9364621863549
 20
-6.5
 11
-103.2220387313202
 21
-6.09999999999999
  0
LINE
  5
13E
100
AcDbEntity
  8
0
  6
CONTINUOUS
 62
             7
100
AcDbLine
 10
-103.2220387313202
 20
-6.09999999999999
 11
-105.08683637660739
 21
-6.09999999999999
  0
LINE
  5
13D
100
AcDbEntity
  8
0
  6
CONTINUOUS
 62
             7
100
AcDbLine
 10
-102.91562095407259
 20
-5.84288495612539
 11
-102.472108532359
 21
-6.37144247806269
  0
LINE
  5
13C
100
AcDbEntity
  8
0
  6
CONTINUOUS
 62
             7
100
AcDbLine
 10
-102.472108532359
 20
-6.37144247806269
 11
-102.14861598394511
 21
-6.09999999999999
  0
LINE
  5
13B
100
AcDbEntity
  8
0
  6
CONTINUOUS
 62
             7
100
AcDbLine
 10
-102.2803844939756
 20
-6.84729635533387
 11
-102.4838827946279
 21
-6.64240371505632
  0
LINE
  5
13A
100
AcDbEntity
  8
0
  6
CONTINUOUS
 62
             7
100
AcDbLine
 10
-102.4838827946279
 20
-6.64240371505632
 11
-103.156048579518
 21
-7.20641777724759
  0
LINE
  5
139
100
AcDbEntity
  8
0
  6
CONTINUOUS
 62
             7
100
AcDbLine
 10
-105.39311433709049
 20
-3.02855752193731
 11
-104.949601915377
 21
-3.55711504387462
  0
LINE
  5
138
100
AcDbEntity
  8
0
  6
CONTINUOUS
 62
             7
100
AcDbLine
 10
-105.39311433709049
 20
-3.02855752193731
 11
-105.7166068855044
 21
-3.3
  0
LINE
  5
137
100
AcDbEntity
  8
0
  6
CONTINUOUS
 62
             7
100
AcDbLine
 10
-104.6431841381294
 20
-3.3
 11
-105.08669655984291
 21
-2.7714424780627
  0
LINE
  5
136
100
AcDbEntity
  8
0
  6
CONTINUOUS
 62
             7
100
AcDbLine
 10
-104.6431841381294
 20
-3.3
 11
-102.7783864928421
 21
-3.3
  0
LINE
  5
135
100
AcDbEntity
  8
0
  6
CONTINUOUS
 62
             7
100
AcDbLine
 10
-102.7783864928421
 20
-3.3
 11
-102.1190978123697
 21
-2.7467911113762
  0
LINE
  5
134
100
AcDbEntity
  8
0
  6
CONTINUOUS
 62
             7
100
AcDbLine
 10
-102.1190978123697
 20
-2.7467911113762
 11
-102.3261801429033
 21
-2.5
  0
LINE
  5
133
100
AcDbEntity
  8
0
  6
CONTINUOUS
 62
             7
100
AcDbLine
 10
-101.861982768495
 20
-3.0532088886238
 11
-102.5212714489675
 21
-3.60641777724759
  0
LINE
  5
132
100
AcDbEntity
  8
0
  6
CONTINUOUS
 62
             7
100
AcDbLine
 10
-102.5212714489675
 20
-3.60641777724759
 11
-102.91562095407259
 21
-5.84288495612539
  0
LINE
  5
131
100
AcDbEntity
  8
0
  6
CONTINUOUS
 62
             7
100
AcDbLine
 10
-96.23679598857098
 20
-10.5
 11
-98.67381985709676
 21
-10.5
  0
LINE
  5
130
100
AcDbEntity
  8
0
  6
CONTINUOUS
 62
             7
100
AcDbLine
 10
-98.67381985709676
 20
-10.5
 11
-98.88090218763037
 21
-10.2532088886238
  0
LINE
  5
12F
100
AcDbEntity
  8
0
  6
CONTINUOUS
 62
             7
100
AcDbLine
 10
-99.34509956203858
 20
-9.7
 11
-98.85138401605488
 21
-6.90000000000001
  0
LINE
  5
12E
100
AcDbEntity
  8
0
  6
CONTINUOUS
 62
             7
100
AcDbLine
 10
-98.85138401605488
 20
-6.90000000000001
 11
-98.527891467641
 21
-6.62855752193731
  0
LINE
  5
12D
100
AcDbEntity
  8
0
  6
CONTINUOUS
 62
             7
100
AcDbLine
 10
-94.78038449397559
 20
-6.84729635533387
 11
-95.26072197812853
 21
-9.5714255964913
  0
LINE
  5
12C
100
AcDbEntity
  8
0
  6
CONTINUOUS
 62
             7
100
AcDbLine
 10
-95.26072197812853
 20
-9.5714255964913
 11
-95.62182216255121
 21
-9.95364185095389
  0
LINE
  5
12B
100
AcDbEntity
  8
0
  6
CONTINUOUS
 62
             7
100
AcDbLine
 10
-94.64861598394512
 20
-6.09999999999999
 11
-94.15490043796143
 21
-3.3
  0
LINE
  5
12A
100
AcDbEntity
  8
0
  6
CONTINUOUS
 62
             7
100
AcDbLine
 10
-94.15490043796143
 20
-3.3
 11
-94.36198276849503
 21
-3.0532088886238
  0
LINE
  5
129
100
AcDbEntity
  8
0
  6
CONTINUOUS
 62
             7
100
AcDbLine
 10
-94.82618014290325
 20
-2.5
 11
-97.26320401142904
 21
-2.5
  0
LINE
  5
128
100
AcDbEntity
  8
0
  6
CONTINUOUS
 62
             7
100
AcDbLine
 10
-97.26320401142904
 20
-2.5
 11
-97.58669655984294
 21
-2.7714424780627
  0
LINE
  5
127
100
AcDbEntity
  8
0
  6
CONTINUOUS
 62
             7
100
AcDbLine
 10
-98.21660688550441
 20
-3.3
 11
-98.71032243148811
 21
-6.09999999999999
  0
LINE
  5
126
100
AcDbEntity
  8
0
  6
CONTINUOUS
 62
             7
100
AcDbLine
 10
-98.71032243148811
 20
-6.09999999999999
 11
-98.50324010095451
 21
-6.34679111137621
  0
LINE
  5
125
100
AcDbEntity
  8
0
  6
CONTINUOUS
 62
             7
100
AcDbLine
 10
-96.05039808462307
 20
-9.44288495612538
 11
-95.62182216255121
 21
-9.95364185095389
  0
LINE
  5
124
100
AcDbEntity
  8
0
  6
CONTINUOUS
 62
             7
100
AcDbLine
 10
-96.05039808462307
 20
-9.44288495612538
 11
-95.65604857951797
 21
-7.20641777724759
  0
LINE
  5
123
100
AcDbEntity
  8
0
  6
CONTINUOUS
 62
             7
100
AcDbLine
 10
-95.91330344015708
 20
-10.2285575219373
 11
-96.35681586187066
 21
-9.7
  0
LINE
  5
122
100
AcDbEntity
  8
0
  6
CONTINUOUS
 62
             7
100
AcDbLine
 10
-95.91330344015708
 20
-10.2285575219373
 11
-96.23679598857098
 21
-10.5
  0
LINE
  5
121
100
AcDbEntity
  8
0
  6
CONTINUOUS
 62
             7
100
AcDbLine
 10
-99.13801723150499
 20
-9.9467911113762
 11
-98.47872855103252
 21
-9.3935822227524
  0
LINE
  5
120
100
AcDbEntity
  8
0
  6
CONTINUOUS
 62
             7
100
AcDbLine
 10
-99.13801723150499
 20
-9.9467911113762
 11
-99.34509956203858
 21
-9.7
  0
LINE
  5
11F
100
AcDbEntity
  8
0
  6
CONTINUOUS
 62
             7
100
AcDbLine
 10
-98.88090218763037
 20
-10.2532088886238
 11
-98.22161350715791
 21
-9.7
  0
LINE
  5
11E
100
AcDbEntity
  8
0
  6
CONTINUOUS
 62
             7
100
AcDbLine
 10
-98.22161350715791
 20
-9.7
 11
-96.35681586187066
 21
-9.7
  0
LINE
  5
11D
100
AcDbEntity
  8
0
  6
CONTINUOUS
 62
             7
100
AcDbLine
 10
-98.50324010095451
 20
-6.34679111137621
 11
-97.84395142048206
 21
-5.79358222275241
  0
LINE
  5
11C
100
AcDbEntity
  8
0
  6
CONTINUOUS
 62
             7
100
AcDbLine
 10
-97.84395142048206
 20
-5.79358222275241
 11
-97.44960191537695
 21
-3.55711504387462
  0
LINE
  5
11B
100
AcDbEntity
  8
0
  6
CONTINUOUS
 62
             7
100
AcDbLine
 10
-98.06353781364511
 20
-6.5
 11
-97.58683637660744
 21
-6.09999999999999
  0
LINE
  5
11A
100
AcDbEntity
  8
0
  6
CONTINUOUS
 62
             7
100
AcDbLine
 10
-98.06353781364511
 20
-6.5
 11
-97.77796126867983
 21
-6.90000000000001
  0
LINE
  5
119
100
AcDbEntity
  8
0
  6
CONTINUOUS
 62
             7
100
AcDbLine
 10
-98.527891467641
 20
-6.62855752193731
 11
-98.08437904592742
 21
-7.15711504387461
  0
LINE
  5
118
100
AcDbEntity
  8
0
  6
CONTINUOUS
 62
             7
100
AcDbLine
 10
-98.08437904592742
 20
-7.15711504387461
 11
-98.47872855103252
 21
-9.3935822227524
  0
LINE
  5
117
100
AcDbEntity
  8
0
  6
CONTINUOUS
 62
             7
100
AcDbLine
 10
-95.91316362339258
 20
-6.90000000000001
 11
-95.4364621863549
 21
-6.5
  0
LINE
  5
116
100
AcDbEntity
  8
0
  6
CONTINUOUS
 62
             7
100
AcDbLine
 10
-95.91316362339258
 20
-6.90000000000001
 11
-97.77796126867983
 21
-6.90000000000001
  0
LINE
  5
115
100
AcDbEntity
  8
0
  6
CONTINUOUS
 62
             7
100
AcDbLine
 10
-95.4364621863549
 20
-6.5
 11
-95.72203873132017
 21
-6.09999999999999
  0
LINE
  5
114
100
AcDbEntity
  8
0
  6
CONTINUOUS
 62
             7
100
AcDbLine
 10
-95.72203873132017
 20
-6.09999999999999
 11
-97.58683637660744
 21
-6.09999999999999
  0
LINE
  5
113
100
AcDbEntity
  8
0
  6
CONTINUOUS
 62
             7
100
AcDbLine
 10
-95.41562095407258
 20
-5.84288495612539
 11
-94.97210853235902
 21
-6.37144247806269
  0
LINE
  5
112
100
AcDbEntity
  8
0
  6
CONTINUOUS
 62
             7
100
AcDbLine
 10
-94.97210853235902
 20
-6.37144247806269
 11
-94.64861598394512
 21
-6.09999999999999
  0
LINE
  5
111
100
AcDbEntity
  8
0
  6
CONTINUOUS
 62
             7
100
AcDbLine
 10
-94.78038449397559
 20
-6.84729635533387
 11
-94.98388279462787
 21
-6.64240371505632
  0
LINE
  5
110
100
AcDbEntity
  8
0
  6
CONTINUOUS
 62
             7
100
AcDbLine
 10
-94.98388279462787
 20
-6.64240371505632
 11
-95.65604857951797
 21
-7.20641777724759
  0
LINE
  5
10F
100
AcDbEntity
  8
0
  6
CONTINUOUS
 62
             7
100
AcDbLine
 10
-97.89311433709052
 20
-3.02855752193731
 11
-97.44960191537695
 21
-3.55711504387462
  0
LINE
  5
10E
100
AcDbEntity
  8
0
  6
CONTINUOUS
 62
             7
100
AcDbLine
 10
-97.89311433709052
 20
-3.02855752193731
 11
-98.21660688550441
 21
-3.3
  0
LINE
  5
10D
100
AcDbEntity
  8
0
  6
CONTINUOUS
 62
             7
100
AcDbLine
 10
-97.14318413812936
 20
-3.3
 11
-97.58669655984294
 21
-2.7714424780627
  0
LINE
  5
10C
100
AcDbEntity
  8
0
  6
CONTINUOUS
 62
             7
100
AcDbLine
 10
-97.14318413812936
 20
-3.3
 11
-95.27838649284212
 21
-3.3
  0
LINE
  5
10B
100
AcDbEntity
  8
0
  6
CONTINUOUS
 62
             7
100
AcDbLine
 10
-95.27838649284212
 20
-3.3
 11
-94.61909781236965
 21
-2.7467911113762
  0
LINE
  5
10A
100
AcDbEntity
  8
0
  6
CONTINUOUS
 62
             7
100
AcDbLine
 10
-94.61909781236965
 20
-2.7467911113762
 11
-94.82618014290325
 21
-2.5
  0
LINE
  5
109
100
AcDbEntity
  8
0
  6
CONTINUOUS
 62
             7
100
AcDbLine
 10
-94.36198276849503
 20
-3.0532088886238
 11
-95.0212714489675
 21
-3.60641777724759
  0
LINE
  5
108
100
AcDbEntity
  8
0
  6
CONTINUOUS
 62
             7
100
AcDbLine
 10
-95.0212714489675
 20
-3.60641777724759
 11
-95.41562095407258
 21
-5.84288495612539
  0
LINE
  5
107
100
AcDbEntity
  8
0
  6
CONTINUOUS
 62
             7
100
AcDbLine
 10
-115.4431729401547
 20
14.21
 11
-116.3265711135041
 21
9.2
  0
LINE
  5
106
100
AcDbEntity
  8
0
  6
CONTINUOUS
 62
             7
100
AcDbLine
 10
-116.3265711135041
 20
9.2
 11
-115.96417703507031
 21
8.76811555509164
  0
LINE
  5
105
100
AcDbEntity
  8
0
  6
CONTINUOUS
 62
             7
100
AcDbLine
 10
-116.573428886496
 20
7.8
 11
-117.45682705984539
 21
2.79
  0
LINE
  5
104
100
AcDbEntity
  8
0
  6
CONTINUOUS
 62
             7
100
AcDbLine
 10
-117.45682705984539
 20
2.79
 11
-117.0944329814115
 21
2.35811555509164
  0
LINE
  5
103
100
AcDbEntity
  8
0
  6
CONTINUOUS
 62
             7
100
AcDbLine
 10
-111.3252820894772
 20
1.39
 11
-116.2820875761971
 21
1.39
  0
LINE
  5
102
100
AcDbEntity
  8
0
  6
CONTINUOUS
 62
             7
100
AcDbLine
 10
-116.2820875761971
 20
1.39
 11
-116.64448165463099
 21
1.82188444490836
  0
LINE
  5
101
100
AcDbEntity
  8
0
  6
CONTINUOUS
 62
             7
100
AcDbLine
 10
-108.77342888649591
 20
7.8
 11
-109.6568270598453
 21
2.79
  0
LINE
  5
100
100
AcDbEntity
  8
0
  6
CONTINUOUS
 62
             7
100
AcDbLine
 10
-108.5265711135041
 20
9.2
 11
-107.6431729401547
 21
14.21
  0
LINE
  5
FF
100
AcDbEntity
  8
0
  6
CONTINUOUS
 62
             7
100
AcDbLine
 10
-107.6431729401547
 20
14.21
 11
-108.00556701858849
 21
14.64188444490836
  0
LINE
  5
FE
100
AcDbEntity
  8
0
  6
CONTINUOUS
 62
             7
100
AcDbLine
 10
-108.81791242380289
 20
15.61
 11
-113.7747179105228
 21
15.61
  0
LINE
  5
FD
100
AcDbEntity
  8
0
  6
CONTINUOUS
 62
             7
100
AcDbLine
 10
-113.7747179105228
 20
15.61
 11
-114.34082987024711
 21
15.13497566339029
  0
LINE
  5
FC
100
AcDbEntity
  8
0
  6
CONTINUOUS
 62
             7
100
AcDbLine
 10
-109.8688298112271
 20
9.64995132678058
 11
-109.0926830732284
 21
8.72497566339029
  0
LINE
  5
FB
100
AcDbEntity
  8
0
  6
CONTINUOUS
 62
             7
100
AcDbLine
 10
-109.0926830732284
 20
8.72497566339029
 11
-108.5265711135041
 21
9.2
  0
LINE
  5
FA
100
AcDbEntity
  8
0
  6
CONTINUOUS
 62
             7
100
AcDbLine
 10
-110.4050609214104
 20
9.2
 11
-109.85388984680201
 21
8.54313989170135
  0
LINE
  5
F9
100
AcDbEntity
  8
0
  6
CONTINUOUS
 62
             7
100
AcDbLine
 10
-109.85388984680201
 20
8.54313989170135
 11
-110.73952948253709
 21
7.8
  0
LINE
  5
F8
100
AcDbEntity
  8
0
  6
CONTINUOUS
 62
             7
100
AcDbLine
 10
-110.73952948253709
 20
7.8
 11
-114.6949390785896
 21
7.8
  0
LINE
  5
F7
100
AcDbEntity
  8
0
  6
CONTINUOUS
 62
             7
100
AcDbLine
 10
-114.3604705174629
 20
9.2
 11
-115.2823088204137
 21
8.5
  0
LINE
  5
F6
100
AcDbEntity
  8
0
  6
CONTINUOUS
 62
             7
100
AcDbLine
 10
-114.3604705174629
 20
9.2
 11
-110.4050609214104
 21
9.2
  0
LINE
  5
F5
100
AcDbEntity
  8
0
  6
CONTINUOUS
 62
             7
100
AcDbLine
 10
-115.2823088204137
 20
8.5
 11
-114.6949390785896
 21
7.8
  0
LINE
  5
F4
100
AcDbEntity
  8
0
  6
CONTINUOUS
 62
             7
100
AcDbLine
 10
-114.81042184424351
 20
9.73623111018328
 11
-115.96417703507031
 21
8.76811555509164
  0
LINE
  5
F3
100
AcDbEntity
  8
0
  6
CONTINUOUS
 62
             7
100
AcDbLine
 10
-114.81042184424351
 20
9.73623111018328
 11
-114.1009142424316
 21
13.76004867321942
  0
LINE
  5
F2
100
AcDbEntity
  8
0
  6
CONTINUOUS
 62
             7
100
AcDbLine
 10
-116.00731692677159
 20
8.27502433660971
 11
-115.23117018877289
 21
7.35004867321942
  0
LINE
  5
F1
100
AcDbEntity
  8
0
  6
CONTINUOUS
 62
             7
100
AcDbLine
 10
-116.00731692677159
 20
8.27502433660971
 11
-116.573428886496
 21
7.8
  0
LINE
  5
F0
100
AcDbEntity
  8
0
  6
CONTINUOUS
 62
             7
100
AcDbLine
 10
-109.1358229649297
 20
8.23188444490836
 11
-110.2895781557565
 21
7.26376888981672
  0
LINE
  5
EF
100
AcDbEntity
  8
0
  6
CONTINUOUS
 62
             7
100
AcDbLine
 10
-109.1358229649297
 20
8.23188444490836
 11
-108.77342888649591
 21
7.8
  0
LINE
  5
EE
100
AcDbEntity
  8
0
  6
CONTINUOUS
 62
             7
100
AcDbLine
 10
-108.4555183453691
 20
15.17811555509165
 11
-109.6092735361959
 21
14.21
  0
LINE
  5
ED
100
AcDbEntity
  8
0
  6
CONTINUOUS
 62
             7
100
AcDbLine
 10
-108.4555183453691
 20
15.17811555509165
 11
-108.81791242380289
 21
15.61
  0
LINE
  5
EC
100
AcDbEntity
  8
0
  6
CONTINUOUS
 62
             7
100
AcDbLine
 10
-108.00556701858849
 20
14.64188444490836
 11
-109.15932220941529
 21
13.67376888981672
  0
LINE
  5
EB
100
AcDbEntity
  8
0
  6
CONTINUOUS
 62
             7
100
AcDbLine
 10
-109.15932220941529
 20
13.67376888981672
 11
-109.8688298112271
 21
9.64995132678058
  0
LINE
  5
EA
100
AcDbEntity
  8
0
  6
CONTINUOUS
 62
             7
100
AcDbLine
 10
-114.34082987024711
 20
15.13497566339029
 11
-113.56468313224831
 21
14.21
  0
LINE
  5
E9
100
AcDbEntity
  8
0
  6
CONTINUOUS
 62
             7
100
AcDbLine
 10
-113.56468313224831
 20
14.21
 11
-109.6092735361959
 21
14.21
  0
LINE
  5
E8
100
AcDbEntity
  8
0
  6
CONTINUOUS
 62
             7
100
AcDbLine
 10
-114.8770609804304
 20
14.68502433660972
 11
-114.1009142424316
 21
13.76004867321942
  0
LINE
  5
E7
100
AcDbEntity
  8
0
  6
CONTINUOUS
 62
             7
100
AcDbLine
 10
-114.8770609804304
 20
14.68502433660972
 11
-115.4431729401547
 21
14.21
  0
LINE
  5
E6
100
AcDbEntity
  8
0
  6
CONTINUOUS
 62
             7
100
AcDbLine
 10
-117.0944329814115
 20
2.35811555509164
 11
-115.9406777905847
 21
3.32623111018329
  0
LINE
  5
E5
100
AcDbEntity
  8
0
  6
CONTINUOUS
 62
             7
100
AcDbLine
 10
-115.9406777905847
 20
3.32623111018329
 11
-115.23117018877289
 21
7.35004867321942
  0
LINE
  5
E4
100
AcDbEntity
  8
0
  6
CONTINUOUS
 62
             7
100
AcDbLine
 10
-115.49072646380419
 20
2.79
 11
-116.64448165463099
 21
1.82188444490836
  0
LINE
  5
E3
100
AcDbEntity
  8
0
  6
CONTINUOUS
 62
             7
100
AcDbLine
 10
-115.49072646380419
 20
2.79
 11
-111.5353168677517
 21
2.79
  0
LINE
  5
E2
100
AcDbEntity
  8
0
  6
CONTINUOUS
 62
             7
100
AcDbLine
 10
-111.5353168677517
 20
2.79
 11
-110.7591701297529
 21
1.86502433660971
  0
LINE
  5
E1
100
AcDbEntity
  8
0
  6
CONTINUOUS
 62
             7
100
AcDbLine
 10
-110.7591701297529
 20
1.86502433660971
 11
-111.3252820894772
 21
1.39
  0
LINE
  5
E0
100
AcDbEntity
  8
0
  6
CONTINUOUS
 62
             7
100
AcDbLine
 10
-110.22293901956969
 20
2.31497566339029
 11
-110.99908575756839
 21
3.23995132678058
  0
LINE
  5
DF
100
AcDbEntity
  8
0
  6
CONTINUOUS
 62
             7
100
AcDbLine
 10
-110.22293901956969
 20
2.31497566339029
 11
-109.6568270598453
 21
2.79
  0
LINE
  5
DE
100
AcDbEntity
  8
0
  6
CONTINUOUS
 62
             7
100
AcDbLine
 10
-110.99908575756839
 20
3.23995132678058
 11
-110.2895781557565
 21
7.26376888981672
  0
LINE
  5
DD
100
AcDbEntity
  8
0
  6
CONTINUOUS
 62
             7
100
AcDbLine
 10
-98.29908575756839
 20
3.23995132678058
 11
-97.58957815575654
 21
7.26376888981672
  0
LINE
  5
DC
100
AcDbEntity
  8
0
  6
CONTINUOUS
 62
             7
100
AcDbLine
 10
-97.52293901956965
 20
2.31497566339029
 11
-96.95682705984534
 21
2.79
  0
LINE
  5
DB
100
AcDbEntity
  8
0
  6
CONTINUOUS
 62
             7
100
AcDbLine
 10
-97.52293901956965
 20
2.31497566339029
 11
-98.29908575756839
 21
3.23995132678058
  0
LINE
  5
DA
100
AcDbEntity
  8
0
  6
CONTINUOUS
 62
             7
100
AcDbLine
 10
-98.05917012975293
 20
1.86502433660971
 11
-98.62528208947724
 21
1.39
  0
LINE
  5
D9
100
AcDbEntity
  8
0
  6
CONTINUOUS
 62
             7
100
AcDbLine
 10
-98.83531686775169
 20
2.79
 11
-98.05917012975293
 21
1.86502433660971
  0
LINE
  5
D8
100
AcDbEntity
  8
0
  6
CONTINUOUS
 62
             7
100
AcDbLine
 10
-102.79072646380421
 20
2.79
 11
-98.83531686775169
 21
2.79
  0
LINE
  5
D7
100
AcDbEntity
  8
0
  6
CONTINUOUS
 62
             7
100
AcDbLine
 10
-102.79072646380421
 20
2.79
 11
-103.94448165463101
 21
1.82188444490836
  0
LINE
  5
D6
100
AcDbEntity
  8
0
  6
CONTINUOUS
 62
             7
100
AcDbLine
 10
-103.2406777905847
 20
3.32623111018329
 11
-102.5311701887729
 21
7.35004867321942
  0
LINE
  5
D5
100
AcDbEntity
  8
0
  6
CONTINUOUS
 62
             7
100
AcDbLine
 10
-104.3944329814115
 20
2.35811555509164
 11
-103.2406777905847
 21
3.32623111018329
  0
LINE
  5
D4
100
AcDbEntity
  8
0
  6
CONTINUOUS
 62
             7
100
AcDbLine
 10
-102.1770609804304
 20
14.68502433660972
 11
-102.74317294015469
 21
14.21
  0
LINE
  5
D3
100
AcDbEntity
  8
0
  6
CONTINUOUS
 62
             7
100
AcDbLine
 10
-102.1770609804304
 20
14.68502433660972
 11
-101.4009142424316
 21
13.76004867321942
  0
LINE
  5
D2
100
AcDbEntity
  8
0
  6
CONTINUOUS
 62
             7
100
AcDbLine
 10
-100.8646831322483
 20
14.21
 11
-96.90927353619586
 21
14.21
  0
LINE
  5
D1
100
AcDbEntity
  8
0
  6
CONTINUOUS
 62
             7
100
AcDbLine
 10
-101.6408298702471
 20
15.13497566339029
 11
-100.8646831322483
 21
14.21
  0
LINE
  5
D0
100
AcDbEntity
  8
0
  6
CONTINUOUS
 62
             7
100
AcDbLine
 10
-96.45932220941528
 20
13.67376888981672
 11
-97.16882981122714
 21
9.64995132678058
  0
LINE
  5
CF
100
AcDbEntity
  8
0
  6
CONTINUOUS
 62
             7
100
AcDbLine
 10
-95.30556701858848
 20
14.64188444490836
 11
-96.45932220941528
 21
13.67376888981672
  0
LINE
  5
CE
100
AcDbEntity
  8
0
  6
CONTINUOUS
 62
             7
100
AcDbLine
 10
-95.75551834536906
 20
15.17811555509165
 11
-96.11791242380286
 21
15.61
  0
LINE
  5
CD
100
AcDbEntity
  8
0
  6
CONTINUOUS
 62
             7
100
AcDbLine
 10
-95.75551834536906
 20
15.17811555509165
 11
-96.90927353619586
 21
14.21
  0
LINE
  5
CC
100
AcDbEntity
  8
0
  6
CONTINUOUS
 62
             7
100
AcDbLine
 10
-96.43582296492974
 20
8.23188444490836
 11
-96.07342888649593
 21
7.8
  0
LINE
  5
CB
100
AcDbEntity
  8
0
  6
CONTINUOUS
 62
             7
100
AcDbLine
 10
-96.43582296492974
 20
8.23188444490836
 11
-97.58957815575654
 21
7.26376888981672
  0
LINE
  5
CA
100
AcDbEntity
  8
0
  6
CONTINUOUS
 62
             7
100
AcDbLine
 10
-103.30731692677161
 20
8.27502433660971
 11
-103.8734288864959
 21
7.8
  0
LINE
  5
C9
100
AcDbEntity
  8
0
  6
CONTINUOUS
 62
             7
100
AcDbLine
 10
-103.30731692677161
 20
8.27502433660971
 11
-102.5311701887729
 21
7.35004867321942
  0
LINE
  5
C8
100
AcDbEntity
  8
0
  6
CONTINUOUS
 62
             7
100
AcDbLine
 10
-102.1104218442435
 20
9.73623111018328
 11
-101.4009142424316
 21
13.76004867321942
  0
LINE
  5
C7
100
AcDbEntity
  8
0
  6
CONTINUOUS
 62
             7
100
AcDbLine
 10
-102.1104218442435
 20
9.73623111018328
 11
-103.2641770350703
 21
8.76811555509164
  0
LINE
  5
C6
100
AcDbEntity
  8
0
  6
CONTINUOUS
 62
             7
100
AcDbLine
 10
-102.5823088204137
 20
8.5
 11
-101.9949390785896
 21
7.8
  0
LINE
  5
C5
100
AcDbEntity
  8
0
  6
CONTINUOUS
 62
             7
100
AcDbLine
 10
-101.6604705174629
 20
9.2
 11
-97.70506092141042
 21
9.2
  0
LINE
  5
C4
100
AcDbEntity
  8
0
  6
CONTINUOUS
 62
             7
100
AcDbLine
 10
-101.6604705174629
 20
9.2
 11
-102.5823088204137
 21
8.5
  0
LINE
  5
C3
100
AcDbEntity
  8
0
  6
CONTINUOUS
 62
             7
100
AcDbLine
 10
-98.03952948253712
 20
7.8
 11
-101.9949390785896
 21
7.8
  0
LINE
  5
C2
100
AcDbEntity
  8
0
  6
CONTINUOUS
 62
             7
100
AcDbLine
 10
-97.15388984680196
 20
8.54313989170135
 11
-98.03952948253712
 21
7.8
  0
LINE
  5
C1
100
AcDbEntity
  8
0
  6
CONTINUOUS
 62
             7
100
AcDbLine
 10
-97.70506092141042
 20
9.2
 11
-97.15388984680196
 21
8.54313989170135
  0
LINE
  5
C0
100
AcDbEntity
  8
0
  6
CONTINUOUS
 62
             7
100
AcDbLine
 10
-96.39268307322838
 20
8.72497566339029
 11
-95.82657111350407
 21
9.2
  0
LINE
  5
BF
100
AcDbEntity
  8
0
  6
CONTINUOUS
 62
             7
100
AcDbLine
 10
-97.16882981122714
 20
9.64995132678058
 11
-96.39268307322838
 21
8.72497566339029
  0
LINE
  5
BE
100
AcDbEntity
  8
0
  6
CONTINUOUS
 62
             7
100
AcDbLine
 10
-101.07471791052281
 20
15.61
 11
-101.6408298702471
 21
15.13497566339029
  0
LINE
  5
BD
100
AcDbEntity
  8
0
  6
CONTINUOUS
 62
             7
100
AcDbLine
 10
-96.11791242380286
 20
15.61
 11
-101.07471791052281
 21
15.61
  0
LINE
  5
BC
100
AcDbEntity
  8
0
  6
CONTINUOUS
 62
             7
100
AcDbLine
 10
-94.94317294015467
 20
14.21
 11
-95.30556701858848
 21
14.64188444490836
  0
LINE
  5
BB
100
AcDbEntity
  8
0
  6
CONTINUOUS
 62
             7
100
AcDbLine
 10
-95.82657111350407
 20
9.2
 11
-94.94317294015467
 21
14.21
  0
LINE
  5
BA
100
AcDbEntity
  8
0
  6
CONTINUOUS
 62
             7
100
AcDbLine
 10
-96.07342888649593
 20
7.8
 11
-96.95682705984534
 21
2.79
  0
LINE
  5
B9
100
AcDbEntity
  8
0
  6
CONTINUOUS
 62
             7
100
AcDbLine
 10
-103.5820875761972
 20
1.39
 11
-103.94448165463101
 21
1.82188444490836
  0
LINE
  5
B8
100
AcDbEntity
  8
0
  6
CONTINUOUS
 62
             7
100
AcDbLine
 10
-98.62528208947724
 20
1.39
 11
-103.5820875761972
 21
1.39
  0
LINE
  5
B7
100
AcDbEntity
  8
0
  6
CONTINUOUS
 62
             7
100
AcDbLine
 10
-104.75682705984531
 20
2.79
 11
-104.3944329814115
 21
2.35811555509164
  0
LINE
  5
B6
100
AcDbEntity
  8
0
  6
CONTINUOUS
 62
             7
100
AcDbLine
 10
-103.8734288864959
 20
7.8
 11
-104.75682705984531
 21
2.79
  0
LINE
  5
B5
100
AcDbEntity
  8
0
  6
CONTINUOUS
 62
             7
100
AcDbLine
 10
-103.6265711135041
 20
9.2
 11
-103.2641770350703
 21
8.76811555509164
  0
LINE
  5
B4
100
AcDbEntity
  8
0
  6
CONTINUOUS
 62
             7
100
AcDbLine
 10
-102.74317294015469
 20
14.21
 11
-103.6265711135041
 21
9.2
  0
LINE
  5
B3
100
AcDbEntity
  8
0
  6
CONTINUOUS
 62
             7
100
AcDbLine
 10
-141.0431729401547
 20
14.21
 11
-141.92657111350411
 21
9.2
  0
LINE
  5
B2
100
AcDbEntity
  8
0
  6
CONTINUOUS
 62
             7
100
AcDbLine
 10
-141.92657111350411
 20
9.2
 11
-141.56417703507029
 21
8.76811555509164
  0
LINE
  5
B1
100
AcDbEntity
  8
0
  6
CONTINUOUS
 62
             7
100
AcDbLine
 10
-142.17342888649591
 20
7.8
 11
-143.0568270598454
 21
2.79
  0
LINE
  5
B0
100
AcDbEntity
  8
0
  6
CONTINUOUS
 62
             7
100
AcDbLine
 10
-143.0568270598454
 20
2.79
 11
-142.69443298141161
 21
2.35811555509164
  0
LINE
  5
AF
100
AcDbEntity
  8
0
  6
CONTINUOUS
 62
             7
100
AcDbLine
 10
-136.92528208947721
 20
1.39
 11
-141.88208757619711
 21
1.39
  0
LINE
  5
AE
100
AcDbEntity
  8
0
  6
CONTINUOUS
 62
             7
100
AcDbLine
 10
-141.88208757619711
 20
1.39
 11
-142.24448165463099
 21
1.82188444490836
  0
LINE
  5
AD
100
AcDbEntity
  8
0
  6
CONTINUOUS
 62
             7
100
AcDbLine
 10
-134.3734288864959
 20
7.8
 11
-135.25682705984531
 21
2.79
  0
LINE
  5
AC
100
AcDbEntity
  8
0
  6
CONTINUOUS
 62
             7
100
AcDbLine
 10
-134.1265711135041
 20
9.2
 11
-133.24317294015469
 21
14.21
  0
LINE
  5
AB
100
AcDbEntity
  8
0
  6
CONTINUOUS
 62
             7
100
AcDbLine
 10
-133.24317294015469
 20
14.21
 11
-133.60556701858849
 21
14.64188444490836
  0
LINE
  5
AA
100
AcDbEntity
  8
0
  6
CONTINUOUS
 62
             7
100
AcDbLine
 10
-134.4179124238029
 20
15.61
 11
-139.3747179105228
 21
15.61
  0
LINE
  5
A9
100
AcDbEntity
  8
0
  6
CONTINUOUS
 62
             7
100
AcDbLine
 10
-139.3747179105228
 20
15.61
 11
-139.94082987024709
 21
15.13497566339029
  0
LINE
  5
A8
100
AcDbEntity
  8
0
  6
CONTINUOUS
 62
             7
100
AcDbLine
 10
-135.46882981122721
 20
9.64995132678058
 11
-134.69268307322841
 21
8.72497566339029
  0
LINE
  5
A7
100
AcDbEntity
  8
0
  6
CONTINUOUS
 62
             7
100
AcDbLine
 10
-134.69268307322841
 20
8.72497566339029
 11
-134.1265711135041
 21
9.2
  0
LINE
  5
A6
100
AcDbEntity
  8
0
  6
CONTINUOUS
 62
             7
100
AcDbLine
 10
-136.0050609214104
 20
9.2
 11
-135.45388984680201
 21
8.54313989170135
  0
LINE
  5
A5
100
AcDbEntity
  8
0
  6
CONTINUOUS
 62
             7
100
AcDbLine
 10
-135.45388984680201
 20
8.54313989170135
 11
-136.3395294825371
 21
7.8
  0
LINE
  5
A4
100
AcDbEntity
  8
0
  6
CONTINUOUS
 62
             7
100
AcDbLine
 10
-136.3395294825371
 20
7.8
 11
-140.29493907858961
 21
7.8
  0
LINE
  5
A3
100
AcDbEntity
  8
0
  6
CONTINUOUS
 62
             7
100
AcDbLine
 10
-139.96047051746291
 20
9.2
 11
-140.8823088204137
 21
8.5
  0
LINE
  5
A2
100
AcDbEntity
  8
0
  6
CONTINUOUS
 62
             7
100
AcDbLine
 10
-139.96047051746291
 20
9.2
 11
-136.0050609214104
 21
9.2
  0
LINE
  5
A1
100
AcDbEntity
  8
0
  6
CONTINUOUS
 62
             7
100
AcDbLine
 10
-140.8823088204137
 20
8.5
 11
-140.29493907858961
 21
7.8
  0
LINE
  5
A0
100
AcDbEntity
  8
0
  6
CONTINUOUS
 62
             7
100
AcDbLine
 10
-140.4104218442435
 20
9.73623111018328
 11
-141.56417703507029
 21
8.76811555509164
  0
LINE
  5
9F
100
AcDbEntity
  8
0
  6
CONTINUOUS
 62
             7
100
AcDbLine
 10
-140.4104218442435
 20
9.73623111018328
 11
-139.70091424243159
 21
13.76004867321942
  0
LINE
  5
9E
100
AcDbEntity
  8
0
  6
CONTINUOUS
 62
             7
100
AcDbLine
 10
-141.6073169267716
 20
8.27502433660971
 11
-140.83117018877289
 21
7.35004867321942
  0
LINE
  5
9D
100
AcDbEntity
  8
0
  6
CONTINUOUS
 62
             7
100
AcDbLine
 10
-141.6073169267716
 20
8.27502433660971
 11
-142.17342888649591
 21
7.8
  0
LINE
  5
9C
100
AcDbEntity
  8
0
  6
CONTINUOUS
 62
             7
100
AcDbLine
 10
-134.73582296492981
 20
8.23188444490836
 11
-135.88957815575651
 21
7.26376888981672
  0
LINE
  5
9B
100
AcDbEntity
  8
0
  6
CONTINUOUS
 62
             7
100
AcDbLine
 10
-134.73582296492981
 20
8.23188444490836
 11
-134.3734288864959
 21
7.8
  0
LINE
  5
9A
100
AcDbEntity
  8
0
  6
CONTINUOUS
 62
             7
100
AcDbLine
 10
-134.05551834536911
 20
15.17811555509165
 11
-135.20927353619589
 21
14.21
  0
LINE
  5
99
100
AcDbEntity
  8
0
  6
CONTINUOUS
 62
             7
100
AcDbLine
 10
-134.05551834536911
 20
15.17811555509165
 11
-134.4179124238029
 21
15.61
  0
LINE
  5
98
100
AcDbEntity
  8
0
  6
CONTINUOUS
 62
             7
100
AcDbLine
 10
-133.60556701858849
 20
14.64188444490836
 11
-134.7593222094153
 21
13.67376888981672
  0
LINE
  5
97
100
AcDbEntity
  8
0
  6
CONTINUOUS
 62
             7
100
AcDbLine
 10
-134.7593222094153
 20
13.67376888981672
 11
-135.46882981122721
 21
9.64995132678058
  0
LINE
  5
96
100
AcDbEntity
  8
0
  6
CONTINUOUS
 62
             7
100
AcDbLine
 10
-139.94082987024709
 20
15.13497566339029
 11
-139.16468313224831
 21
14.21
  0
LINE
  5
95
100
AcDbEntity
  8
0
  6
CONTINUOUS
 62
             7
100
AcDbLine
 10
-139.16468313224831
 20
14.21
 11
-135.20927353619589
 21
14.21
  0
LINE
  5
94
100
AcDbEntity
  8
0
  6
CONTINUOUS
 62
             7
100
AcDbLine
 10
-140.47706098043039
 20
14.68502433660972
 11
-139.70091424243159
 21
13.76004867321942
  0
LINE
  5
93
100
AcDbEntity
  8
0
  6
CONTINUOUS
 62
             7
100
AcDbLine
 10
-140.47706098043039
 20
14.68502433660972
 11
-141.0431729401547
 21
14.21
  0
LINE
  5
92
100
AcDbEntity
  8
0
  6
CONTINUOUS
 62
             7
100
AcDbLine
 10
-142.69443298141161
 20
2.35811555509164
 11
-141.54067779058471
 21
3.32623111018329
  0
LINE
  5
91
100
AcDbEntity
  8
0
  6
CONTINUOUS
 62
             7
100
AcDbLine
 10
-141.54067779058471
 20
3.32623111018329
 11
-140.83117018877289
 21
7.35004867321942
  0
LINE
  5
90
100
AcDbEntity
  8
0
  6
CONTINUOUS
 62
             7
100
AcDbLine
 10
-141.0907264638042
 20
2.79
 11
-142.24448165463099
 21
1.82188444490836
  0
LINE
  5
8F
100
AcDbEntity
  8
0
  6
CONTINUOUS
 62
             7
100
AcDbLine
 10
-141.0907264638042
 20
2.79
 11
-137.1353168677517
 21
2.79
  0
LINE
  5
8E
100
AcDbEntity
  8
0
  6
CONTINUOUS
 62
             7
100
AcDbLine
 10
-137.1353168677517
 20
2.79
 11
-136.3591701297529
 21
1.86502433660971
  0
LINE
  5
8D
100
AcDbEntity
  8
0
  6
CONTINUOUS
 62
             7
100
AcDbLine
 10
-136.3591701297529
 20
1.86502433660971
 11
-136.92528208947721
 21
1.39
  0
LINE
  5
8C
100
AcDbEntity
  8
0
  6
CONTINUOUS
 62
             7
100
AcDbLine
 10
-135.8229390195697
 20
2.31497566339029
 11
-136.59908575756839
 21
3.23995132678058
  0
LINE
  5
8B
100
AcDbEntity
  8
0
  6
CONTINUOUS
 62
             7
100
AcDbLine
 10
-135.8229390195697
 20
2.31497566339029
 11
-135.25682705984531
 21
2.79
  0
LINE
  5
8A
100
AcDbEntity
  8
0
  6
CONTINUOUS
 62
             7
100
AcDbLine
 10
-136.59908575756839
 20
3.23995132678058
 11
-135.88957815575651
 21
7.26376888981672
  0
LINE
  5
89
100
AcDbEntity
  8
0
  6
CONTINUOUS
 62
             7
100
AcDbLine
 10
-123.8990857575684
 20
3.23995132678058
 11
-123.18957815575649
 21
7.26376888981672
  0
LINE
  5
88
100
AcDbEntity
  8
0
  6
CONTINUOUS
 62
             7
100
AcDbLine
 10
-123.1229390195696
 20
2.31497566339029
 11
-122.5568270598454
 21
2.79
  0
LINE
  5
87
100
AcDbEntity
  8
0
  6
CONTINUOUS
 62
             7
100
AcDbLine
 10
-123.1229390195696
 20
2.31497566339029
 11
-123.8990857575684
 21
3.23995132678058
  0
LINE
  5
86
100
AcDbEntity
  8
0
  6
CONTINUOUS
 62
             7
100
AcDbLine
 10
-123.65917012975289
 20
1.86502433660971
 11
-124.2252820894772
 21
1.39
  0
LINE
  5
85
100
AcDbEntity
  8
0
  6
CONTINUOUS
 62
             7
100
AcDbLine
 10
-124.43531686775169
 20
2.79
 11
-123.65917012975289
 21
1.86502433660971
  0
LINE
  5
84
100
AcDbEntity
  8
0
  6
CONTINUOUS
 62
             7
100
AcDbLine
 10
-128.39072646380421
 20
2.79
 11
-124.43531686775169
 21
2.79
  0
LINE
  5
83
100
AcDbEntity
  8
0
  6
CONTINUOUS
 62
             7
100
AcDbLine
 10
-128.39072646380421
 20
2.79
 11
-129.544481654631
 21
1.82188444490836
  0
LINE
  5
82
100
AcDbEntity
  8
0
  6
CONTINUOUS
 62
             7
100
AcDbLine
 10
-128.84067779058469
 20
3.32623111018329
 11
-128.1311701887729
 21
7.35004867321942
  0
LINE
  5
81
100
AcDbEntity
  8
0
  6
CONTINUOUS
 62
             7
100
AcDbLine
 10
-129.99443298141151
 20
2.35811555509164
 11
-128.84067779058469
 21
3.32623111018329
  0
LINE
  5
80
100
AcDbEntity
  8
0
  6
CONTINUOUS
 62
             7
100
AcDbLine
 10
-127.77706098043041
 20
14.68502433660972
 11
-128.34317294015469
 21
14.21
  0
LINE
  5
7F
100
AcDbEntity
  8
0
  6
CONTINUOUS
 62
             7
100
AcDbLine
 10
-127.77706098043041
 20
14.68502433660972
 11
-127.00091424243161
 21
13.76004867321942
  0
LINE
  5
7E
100
AcDbEntity
  8
0
  6
CONTINUOUS
 62
             7
100
AcDbLine
 10
-126.4646831322483
 20
14.21
 11
-122.50927353619591
 21
14.21
  0
LINE
  5
7D
100
AcDbEntity
  8
0
  6
CONTINUOUS
 62
             7
100
AcDbLine
 10
-127.2408298702471
 20
15.13497566339029
 11
-126.4646831322483
 21
14.21
  0
LINE
  5
7C
100
AcDbEntity
  8
0
  6
CONTINUOUS
 62
             7
100
AcDbLine
 10
-122.0593222094153
 20
13.67376888981672
 11
-122.76882981122711
 21
9.64995132678058
  0
LINE
  5
7B
100
AcDbEntity
  8
0
  6
CONTINUOUS
 62
             7
100
AcDbLine
 10
-120.9055670185885
 20
14.64188444490836
 11
-122.0593222094153
 21
13.67376888981672
  0
LINE
  5
7A
100
AcDbEntity
  8
0
  6
CONTINUOUS
 62
             7
100
AcDbLine
 10
-121.35551834536911
 20
15.17811555509165
 11
-121.7179124238029
 21
15.61
  0
LINE
  5
79
100
AcDbEntity
  8
0
  6
CONTINUOUS
 62
             7
100
AcDbLine
 10
-121.35551834536911
 20
15.17811555509165
 11
-122.50927353619591
 21
14.21
  0
LINE
  5
78
100
AcDbEntity
  8
0
  6
CONTINUOUS
 62
             7
100
AcDbLine
 10
-122.03582296492969
 20
8.23188444490836
 11
-121.6734288864959
 21
7.8
  0
LINE
  5
77
100
AcDbEntity
  8
0
  6
CONTINUOUS
 62
             7
100
AcDbLine
 10
-122.03582296492969
 20
8.23188444490836
 11
-123.18957815575649
 21
7.26376888981672
  0
LINE
  5
76
100
AcDbEntity
  8
0
  6
CONTINUOUS
 62
             7
100
AcDbLine
 10
-128.90731692677161
 20
8.27502433660971
 11
-129.4734288864959
 21
7.8
  0
LINE
  5
75
100
AcDbEntity
  8
0
  6
CONTINUOUS
 62
             7
100
AcDbLine
 10
-128.90731692677161
 20
8.27502433660971
 11
-128.1311701887729
 21
7.35004867321942
  0
LINE
  5
74
100
AcDbEntity
  8
0
  6
CONTINUOUS
 62
             7
100
AcDbLine
 10
-127.7104218442435
 20
9.73623111018328
 11
-127.00091424243161
 21
13.76004867321942
  0
LINE
  5
73
100
AcDbEntity
  8
0
  6
CONTINUOUS
 62
             7
100
AcDbLine
 10
-127.7104218442435
 20
9.73623111018328
 11
-128.8641770350703
 21
8.76811555509164
  0
LINE
  5
72
100
AcDbEntity
  8
0
  6
CONTINUOUS
 62
             7
100
AcDbLine
 10
-128.18230882041371
 20
8.5
 11
-127.5949390785896
 21
7.8
  0
LINE
  5
71
100
AcDbEntity
  8
0
  6
CONTINUOUS
 62
             7
100
AcDbLine
 10
-127.26047051746291
 20
9.2
 11
-123.3050609214104
 21
9.2
  0
LINE
  5
70
100
AcDbEntity
  8
0
  6
CONTINUOUS
 62
             7
100
AcDbLine
 10
-127.26047051746291
 20
9.2
 11
-128.18230882041371
 21
8.5
  0
LINE
  5
6F
100
AcDbEntity
  8
0
  6
CONTINUOUS
 62
             7
100
AcDbLine
 10
-123.6395294825371
 20
7.8
 11
-127.5949390785896
 21
7.8
  0
LINE
  5
6E
100
AcDbEntity
  8
0
  6
CONTINUOUS
 62
             7
100
AcDbLine
 10
-122.753889846802
 20
8.54313989170135
 11
-123.6395294825371
 21
7.8
  0
LINE
  5
6D
100
AcDbEntity
  8
0
  6
CONTINUOUS
 62
             7
100
AcDbLine
 10
-123.3050609214104
 20
9.2
 11
-122.753889846802
 21
8.54313989170135
  0
LINE
  5
6C
100
AcDbEntity
  8
0
  6
CONTINUOUS
 62
             7
100
AcDbLine
 10
-121.99268307322841
 20
8.72497566339029
 11
-121.4265711135041
 21
9.2
  0
LINE
  5
6B
100
AcDbEntity
  8
0
  6
CONTINUOUS
 62
             7
100
AcDbLine
 10
-122.76882981122711
 20
9.64995132678058
 11
-121.99268307322841
 21
8.72497566339029
  0
LINE
  5
6A
100
AcDbEntity
  8
0
  6
CONTINUOUS
 62
             7
100
AcDbLine
 10
-126.6747179105228
 20
15.61
 11
-127.2408298702471
 21
15.13497566339029
  0
LINE
  5
69
100
AcDbEntity
  8
0
  6
CONTINUOUS
 62
             7
100
AcDbLine
 10
-121.7179124238029
 20
15.61
 11
-126.6747179105228
 21
15.61
  0
LINE
  5
68
100
AcDbEntity
  8
0
  6
CONTINUOUS
 62
             7
100
AcDbLine
 10
-120.5431729401547
 20
14.21
 11
-120.9055670185885
 21
14.64188444490836
  0
LINE
  5
67
100
AcDbEntity
  8
0
  6
CONTINUOUS
 62
             7
100
AcDbLine
 10
-121.4265711135041
 20
9.2
 11
-120.5431729401547
 21
14.21
  0
LINE
  5
66
100
AcDbEntity
  8
0
  6
CONTINUOUS
 62
             7
100
AcDbLine
 10
-121.6734288864959
 20
7.8
 11
-122.5568270598454
 21
2.79
  0
LINE
  5
65
100
AcDbEntity
  8
0
  6
CONTINUOUS
 62
             7
100
AcDbLine
 10
-129.1820875761972
 20
1.39
 11
-129.544481654631
 21
1.82188444490836
  0
LINE
  5
64
100
AcDbEntity
  8
0
  6
CONTINUOUS
 62
             7
100
AcDbLine
 10
-124.2252820894772
 20
1.39
 11
-129.1820875761972
 21
1.39
  0
LINE
  5
63
100
AcDbEntity
  8
0
  6
CONTINUOUS
 62
             7
100
AcDbLine
 10
-130.3568270598453
 20
2.79
 11
-129.99443298141151
 21
2.35811555509164
  0
LINE
  5
62
100
AcDbEntity
  8
0
  6
CONTINUOUS
 62
             7
100
AcDbLine
 10
-129.4734288864959
 20
7.8
 11
-130.3568270598453
 21
2.79
  0
LINE
  5
61
100
AcDbEntity
  8
0
  6
CONTINUOUS
 62
             7
100
AcDbLine
 10
-129.22657111350409
 20
9.2
 11
-128.8641770350703
 21
8.76811555509164
  0
LINE
  5
60
100
AcDbEntity
  8
0
  6
CONTINUOUS
 62
             7
100
AcDbLine
 10
-128.34317294015469
 20
14.21
 11
-129.22657111350409
 21
9.2
  0
LINE
  5
5F
100
AcDbEntity
  8
1
  6
CONTINUOUS
 62
             7
100
AcDbLine
 10
-86.0
 20
3.75
 11
-84.0
 21
6.13350718518842
  0
LINE
  5
5E
100
AcDbEntity
  8
1
  6
CONTINUOUS
 62
             7
100
AcDbLine
 10
-84.0
 20
6.13350718518842
 11
-82.0
 21
3.75
  0
LINE
  5
5D
100
AcDbEntity
  8
1
  6
CONTINUOUS
 62
             7
100
AcDbLine
 10
-82.0
 20
3.75
 11
-86.0
 21
3.75
  0
LINE
  5
5C
100
AcDbEntity
  8
1
  6
CONTINUOUS
 62
             7
100
AcDbLine
 10
-82.0
 20
-3.75
 11
-84.0
 21
-6.13350718518842
  0
LINE
  5
5B
100
AcDbEntity
  8
1
  6
CONTINUOUS
 62
             7
100
AcDbLine
 10
-86.0
 20
-3.75
 11
-82.0
 21
-3.75
  0
LINE
  5
5A
100
AcDbEntity
  8
1
  6
CONTINUOUS
 62
             7
100
AcDbLine
 10
-84.0
 20
-6.13350718518842
 11
-86.0
 21
-3.75
  0
LINE
  5
59
100
AcDbEntity
  8
1
  6
CONTINUOUS
 62
             7
100
AcDbLine
 10
-145.0
 20
-14.75
 11
-145.0
 21
-15.25
  0
LINE
  5
58
100
AcDbEntity
  8
1
  6
CONTINUOUS
 62
             7
100
AcDbLine
 10
-93.5
 20
-14.25
 11
-144.5
 21
-14.25
  0
LINE
  5
57
100
AcDbEntity
  8
1
  6
CONTINUOUS
 62
             7
100
AcDbLine
 10
-93.0
 20
-15.25
 11
-93.0
 21
-14.75
  0
LINE
  5
56
100
AcDbEntity
  8
1
  6
CONTINUOUS
 62
             7
100
AcDbLine
 10
-144.5
 20
-15.75
 11
-93.5
 21
-15.75
  0
LINE
  5
55
100
AcDbEntity
  8
1
  6
CONTINUOUS
 62
             7
100
AcDbLine
 10
-135.0
 20
-14.25
 11
-135.0
 21
-15.75
  0
LINE
  5
54
100
AcDbEntity
  8
1
  6
CONTINUOUS
 62
             7
100
AcDbLine
 10
-139.0
 20
-14.25
 11
-139.0
 21
-15.75
  0
LINE
  5
53
100
AcDbEntity
  8
1
  6
CONTINUOUS
 62
             7
100
AcDbLine
 10
-99.0
 20
-14.25
 11
-99.0
 21
-15.75
  0
LINE
  5
52
100
AcDbEntity
  8
1
  6
CONTINUOUS
 62
             7
100
AcDbLine
 10
-103.0
 20
-14.25
 11
-103.0
 21
-15.75
  0
LINE
  5
51
100
AcDbEntity
  8
1
  6
CONTINUOUS
 62
             7
100
AcDbLine
 10
-117.0
 20
-14.25
 11
-117.0
 21
-15.75
  0
LINE
  5
50
100
AcDbEntity
  8
1
  6
CONTINUOUS
 62
             7
100
AcDbLine
 10
-121.0
 20
-14.25
 11
-121.0
 21
-15.75
  0
LINE
  5
4F
100
AcDbEntity
  8
1
  6
CONTINUOUS
 62
             7
100
AcDbLine
 10
-123.0
 20
-2.0
 11
-123.0
 21
-11.0
  0
LINE
  5
4E
100
AcDbEntity
  8
1
  6
CONTINUOUS
 62
             7
100
AcDbLine
 10
-93.5
 20
-1.5
 11
-122.5
 21
-1.5
  0
LINE
  5
4D
100
AcDbEntity
  8
1
  6
CONTINUOUS
 62
             7
100
AcDbLine
 10
-93.0
 20
-11.0
 11
-93.0
 21
-2.0
  0
LINE
  5
4C
100
AcDbEntity
  8
1
  6
CONTINUOUS
 62
             7
100
AcDbLine
 10
-145.0
 20
16.5
 11
-145.0
 21
0.5
  0
LINE
  5
4B
100
AcDbEntity
  8
1
  6
CONTINUOUS
 62
             7
100
AcDbLine
 10
-93.5
 20
17.0
 11
-144.5
 21
17.0
  0
LINE
  5
4A
100
AcDbEntity
  8
1
  6
CONTINUOUS
 62
             7
100
AcDbLine
 10
-93.0
 20
0.5
 11
-93.0
 21
16.5
  0
LINE
  5
49
100
AcDbEntity
  8
1
  6
CONTINUOUS
 62
             7
100
AcDbLine
 10
-144.5
 20
0.0
 11
-93.5
 21
0.0
  0
LINE
  5
48
100
AcDbEntity
  8
1
  6
CONTINUOUS
 62
             7
100
AcDbLine
 10
-122.5
 20
-11.5
 11
-93.5
 21
-11.5
  0
LINE
  5
47
100
AcDbEntity
  8
1
  6
CONTINUOUS
 62
             7
100
AcDbLine
 10
-61.5
 20
22.0
 11
-150.5
 21
22.0
  0
LINE
  5
46
100
AcDbEntity
  8
1
  6
CONTINUOUS
 62
             7
100
AcDbLine
 10
-150.5
 20
22.0
 11
-150.5
 21
-22.0
  0
LINE
  5
45
100
AcDbEntity
  8
1
  6
CONTINUOUS
 62
             7
100
AcDbLine
 10
-150.5
 20
-22.0
 11
-61.5
 21
-22.0
  0
LINE
  5
44
100
AcDbEntity
  8
1
  6
CONTINUOUS
 62
             7
100
AcDbLine
 10
-61.5
 20
-22.0
 11
-61.5
 21
22.0
  0
LINE
  5
43
100
AcDbEntity
  8
1
  6
CONTINUOUS
 62
             7
100
AcDbLine
 10
-77.5
 20
1.25
 11
-68.5
 21
1.25
  0
LINE
  5
42
100
AcDbEntity
  8
1
  6
CONTINUOUS
 62
             7
100
AcDbLine
 10
-68.0
 20
1.75
 11
-68.0
 21
7.75
  0
LINE
  5
41
100
AcDbEntity
  8
1
  6
CONTINUOUS
 62
             7
100
AcDbLine
 10
-68.5
 20
8.25
 11
-77.5
 21
8.25
  0
LINE
  5
40
100
AcDbEntity
  8
1
  6
CONTINUOUS
 62
             7
100
AcDbLine
 10
-78.0
 20
7.75
 11
-78.0
 21
1.75
  0
LINE
  5
3F
100
AcDbEntity
  8
1
  6
CONTINUOUS
 62
             7
100
AcDbLine
 10
-88.5
 20
-8.25
 11
-79.5
 21
-8.25
  0
LINE
  5
3E
100
AcDbEntity
  8
1
  6
CONTINUOUS
 62
             7
100
AcDbLine
 10
-79.0
 20
-7.75
 11
-79.0
 21
-1.75
  0
LINE
  5
3D
100
AcDbEntity
  8
1
  6
CONTINUOUS
 62
             7
100
AcDbLine
 10
-79.5
 20
-1.25
 11
-88.5
 21
-1.25
  0
LINE
  5
3C
100
AcDbEntity
  8
1
  6
CONTINUOUS
 62
             7
100
AcDbLine
 10
-89.0
 20
-1.75
 11
-89.0
 21
-7.75
  0
LINE
  5
3B
100
AcDbEntity
  8
1
  6
CONTINUOUS
 62
             7
100
AcDbLine
 10
-77.5
 20
-8.25
 11
-68.5
 21
-8.25
  0
LINE
  5
3A
100
AcDbEntity
  8
1
  6
CONTINUOUS
 62
             7
100
AcDbLine
 10
-68.0
 20
-7.75
 11
-68.0
 21
-1.75
  0
LINE
  5
39
100
AcDbEntity
  8
1
  6
CONTINUOUS
 62
             7
100
AcDbLine
 10
-68.5
 20
-1.25
 11
-77.5
 21
-1.25
  0
LINE
  5
38
100
AcDbEntity
  8
1
  6
CONTINUOUS
 62
             7
100
AcDbLine
 10
-78.0
 20
-1.75
 11
-78.0
 21
-7.75
  0
LINE
  5
37
100
AcDbEntity
  8
1
  6
CONTINUOUS
 62
             7
100
AcDbLine
 10
-88.5
 20
1.25
 11
-79.5
 21
1.25
  0
LINE
  5
36
100
AcDbEntity
  8
1
  6
CONTINUOUS
 62
             7
100
AcDbLine
 10
-79.0
 20
1.75
 11
-79.0
 21
7.75
  0
LINE
  5
35
100
AcDbEntity
  8
1
  6
CONTINUOUS
 62
             7
100
AcDbLine
 10
-79.5
 20
8.25
 11
-88.5
 21
8.25
  0
LINE
  5
34
100
AcDbEntity
  8
1
  6
CONTINUOUS
 62
             7
100
AcDbLine
 10
-89.0
 20
7.75
 11
-89.0
 21
1.75
  0
LINE
  5
33
100
AcDbEntity
  8
1
  6
CONTINUOUS
 62
             7
100
AcDbLine
 10
12.13378091189057
 20
22.0
 11
15.0
 21
22.0
  0
LINE
  5
32
100
AcDbEntity
  8
1
  6
CONTINUOUS
 62
             7
100
AcDbLine
 10
12.13378091189057
 20
22.5
 11
12.13378091189057
 21
20.0
  0
LINE
  5
31
100
AcDbEntity
  8
1
  6
CONTINUOUS
 62
             7
100
AcDbLine
 10
6.5
 20
22.5
 11
6.50000000000001
 21
-22.49999999999998
  0
LINE
  5
30
100
AcDbEntity
  8
1
  6
CONTINUOUS
 62
             7
100
AcDbLine
 10
12.13378091189057
 20
-22.0
 11
15.0
 21
-22.0
  0
LINE
  5
2F
100
AcDbEntity
  8
1
  6
CONTINUOUS
 62
             7
100
AcDbLine
 10
6.5
 20
-3.0
 11
4.0
 21
-3.0
  0
LINE
  5
2E
100
AcDbEntity
  8
1
  6
CONTINUOUS
 62
             7
100
AcDbLine
 10
12.13378091189057
 20
-22.5
 11
12.13378091189057
 21
-20.0
  0
LINE
  5
2D
100
AcDbEntity
  8
1
  6
CONTINUOUS
 62
             7
100
AcDbLine
 10
13.13378091189057
 20
19.0
 11
29.0
 21
19.0
  0
LINE
  5
2C
100
AcDbEntity
  8
1
  6
CONTINUOUS
 62
             7
100
AcDbLine
 10
13.13378091189057
 20
-19.0
 11
29.0
 21
-19.0
  0
LINE
  5
2B
100
AcDbEntity
  8
1
  6
CONTINUOUS
 62
             7
100
AcDbLine
 10
16.0
 20
-7.0
 11
29.0
 21
-7.0
  0
LINE
  5
2A
100
AcDbEntity
  8
1
  6
CONTINUOUS
 62
             7
100
AcDbLine
 10
30.0
 20
-6.0
 11
30.0
 21
6.0
  0
LINE
  5
29
100
AcDbEntity
  8
1
  6
CONTINUOUS
 62
             7
100
AcDbLine
 10
29.0
 20
7.0
 11
16.0
 21
7.0
  0
LINE
  5
28
100
AcDbEntity
  8
1
  6
CONTINUOUS
 62
             7
100
AcDbLine
 10
15.0
 20
6.0
 11
15.0
 21
-6.0
  0
ENDSEC
  0
SECTION
  2
OBJECTS
  0
DICTIONARY
  5
19
100
AcDbDictionary
  3
ACAD_GROUP
350
1A
  3
ACAD_MLINESTYLE
350
1B
  0
DICTIONARY
  5
1A
102
{ACAD_REACTORS
330
19
102
}
100
AcDbDictionary
  0
DICTIONARY
  5
1B
102
{ACAD_REACTORS
330
19
102
}
100
AcDbDictionary
  3
STANDARD
350
1C
  0
MLINESTYLE
  5
1C
102
{ACAD_REACTORS
330
1B
102
}
100
AcDbMlineStyle
  2
STANDARD
 70
             0
  3

 62
             0
 51
90.0
 52
90.0
 71
             2
 49
0.5
 62
           256
  6
BYLAYER
 49
-0.5
 62
           256
  6
BYLAYER
  0
ENDSEC
  0
EOF
