  0
SECTION
  2
HEADER
  9
$ACADVER
  1
AC1014
  9
$ACADMAINTVER
 70
             0
  9
$DWGCODEPAGE
  3
ANSI_1252
  9
$INSBASE
 10
0.0
 20
0.0
 30
0.0
  9
$EXTMIN
 10
1.00000000000000E+20
 20
1.00000000000000E+20
 30
1.00000000000000E+20
  9
$EXTMAX
 10
-1.00000000000000E+20
 20
-1.00000000000000E+20
 30
-1.00000000000000E+20
  9
$LIMMIN
 10
0.0
 20
0.0
  9
$LIMMAX
 10
0.0
 20
0.0
  9
$ORTHOMODE
 70
             0
  9
$REGENMODE
 70
             1
  9
$FILLMODE
 70
             1
  9
$QTEXTMODE
 70
             0
  9
$MIRRTEXT
 70
             1
  9
$DRAGMODE
 70
             2
  9
$LTSCALE
 40
1.0
  9
$OSMODE
 70
             0
  9
$ATTMODE
 70
             1
  9
$TEXTSIZE
 40
0.2
  9
$TRACEWID
 40
0.05
  9
$TEXTSTYLE
  7
STANDARD
  9
$CLAYER
  8
0
  9
$CELTYPE
  6
CONTINUOUS
  9
$CECOLOR
 62
           256
  9
$CELTSCALE
 40
1.0
  9
$DELOBJ
 70
             1
  9
$DISPSILH
 70
             0
  9
$DIMSCALE
 40
1.0
  9
$DIMASZ
 40
0.18
  9
$DIMEXO
 40
0.0625
  9
$DIMDLI
 40
0.38
  9
$DIMRND
 40
0.0
  9
$DIMDLE
 40
0.0
  9
$DIMEXE
 40
0.18
  9
$DIMTP
 40
0.0
  9
$DIMTM
 40
0.0
  9
$DIMTXT
 40
0.18
  9
$DIMCEN
 40
0.09
  9
$DIMTSZ
 40
0.0
  9
$DIMTOL
 70
             0
  9
$DIMLIM
 70
             0
  9
$DIMTIH
 70
             1
  9
$DIMTOH
 70
             1
  9
$DIMSE1
 70
             0
  9
$DIMSE2
 70
             0
  9
$DIMTAD
 70
             0
  9
$DIMZIN
 70
             0
  9
$DIMBLK
  1

  9
$DIMASO
 70
             1
  9
$DIMSHO
 70
             1
  9
$DIMPOST
  1

  9
$DIMAPOST
  1

  9
$DIMALT
 70
             0
  9
$DIMALTD
 70
             2
  9
$DIMALTF
 40
25.4
  9
$DIMLFAC
 40
1.0
  9
$DIMTOFL
 70
             0
  9
$DIMTVP
 40
0.0
  9
$DIMTIX
 70
             0
  9
$DIMSOXD
 70
             0
  9
$DIMSAH
 70
             0
  9
$DIMBLK1
  1

  9
$DIMBLK2
  1

  9
$DIMSTYLE
  2
STANDARD
  9
$DIMCLRD
 70
             0
  9
$DIMCLRE
 70
             0
  9
$DIMCLRT
 70
             0
  9
$DIMTFAC
 40
1.0
  9
$DIMGAP
 40
0.09
  9
$DIMJUST
 70
             0
  9
$DIMSD1
 70
             0
  9
$DIMSD2
 70
             0
  9
$DIMTOLJ
 70
             1
  9
$DIMTZIN
 70
             0
  9
$DIMALTZ
 70
             0
  9
$DIMALTTZ
 70
             0
  9
$DIMFIT
 70
             3
  9
$DIMUPT
 70
             0
  9
$DIMUNIT
 70
             2
  9
$DIMDEC
 70
             4
  9
$DIMTDEC
 70
             4
  9
$DIMALTU
 70
             2
  9
$DIMALTTD
 70
             2
  9
$DIMTXSTY
  7
STANDARD
  9
$DIMAUNIT
 70
             0
  9
$LUNITS
 70
             2
  9
$LUPREC
 70
             4
  9
$SKETCHINC
 40
0.1
  9
$FILLETRAD
 40
0.0
  9
$AUNITS
 70
             0
  9
$AUPREC
 70
             0
  9
$MENU
  1
acad
  9
$ELEVATION
 40
0.0
  9
$PELEVATION
 40
0.0
  9
$THICKNESS
 40
0.0
  9
$LIMCHECK
 70
             0
  9
$BLIPMODE
 70
             1
  9
$CHAMFERA
 40
0.0
  9
$CHAMFERB
 40
0.0
  9
$CHAMFERC
 40
0.0
  9
$CHAMFERD
 40
0.0
  9
$SKPOLY
 70
             0
  9
$TDCREATE
 40
0.000000000
  9
$TDUPDATE
 40
0.000000000
  9
$TDINDWG
 40
0.0000000000
  9
$TDUSRTIMER
 40
0.0000000000
  9
$USRTIMER
 70
             1
  9
$ANGBASE
 50
0.0
  9
$ANGDIR
 70
             0
  9
$PDMODE
 70
             0
  9
$PDSIZE
 40
0.0
  9
$PLINEWID
 40
0.0
  9
$COORDS
 70
             0
  9
$SPLFRAME
 70
             0
  9
$SPLINETYPE
 70
             6
  9
$SPLINESEGS
 70
             8
  9
$ATTDIA
 70
             0
  9
$ATTREQ
 70
             1
  9
$HANDLING
 70
             1
  9
$HANDSEED
  5
495
  9
$SURFTAB1
 70
             6
  9
$SURFTAB2
 70
             6
  9
$SURFTYPE
 70
             6
  9
$SURFU
 70
             6
  9
$SURFV
 70
             6
  9
$UCSNAME
  2

  9
$UCSORG
 10
0.0
 20
0.0
 30
0.0
  9
$UCSXDIR
 10
1.0
 20
0.0
 30
0.0
  9
$UCSYDIR
 10
0.0
 20
1.0
 30
0.0
  9
$PUCSNAME
  2

  9
$PUCSORG
 10
0.0
 20
0.0
 30
0.0
  9
$PUCSXDIR
 10
1.0
 20
0.0
 30
0.0
  9
$PUCSYDIR
 10
0.0
 20
1.0
 30
0.0
  9
$USERI1
 70
             0
  9
$USERI2
 70
             0
  9
$USERI3
 70
             0
  9
$USERI4
 70
             0
  9
$USERI5
 70
             0
  9
$USERR1
 40
11.6
  9
$USERR2
 40
0.0
  9
$USERR3
 40
0.0
  9
$USERR4
 40
0.0
  9
$USERR5
 40
0.0
  9
$WORLDVIEW
 70
             1
  9
$SHADEDGE
 70
             3
  9
$SHADEDIF
 70
            70
  9
$TILEMODE
 70
             1
  9
$MAXACTVP
 70
            16
  9
$PINSBASE
 10
0.0
 20
0.0
 30
0.0
  9
$PLIMCHECK
 70
             0
  9
$PEXTMIN
 10
1.00000000000000E+20
 20
1.00000000000000E+20
 30
1.00000000000000E+20
  9
$PEXTMAX
 10
-1.00000000000000E+20
 20
-1.00000000000000E+20
 30
-1.00000000000000E+20
  9
$PLIMMIN
 10
0.0
 20
0.0
  9
$PLIMMAX
 10
12.0
 20
9.0
  9
$UNITMODE
 70
             0
  9
$VISRETAIN
 70
             0
  9
$PLINEGEN
 70
             1
  9
$PSLTSCALE
 70
             0
  9
$TREEDEPTH
 70
          3020
  9
$PICKSTYLE
 70
             1
  9
$CMLSTYLE
  2
STANDARD
  9
$CMLJUST
 70
             0
  9
$CMLSCALE
 40
1.0
  9
$PROXYGRAPHICS
 70
             0
  9
$MEASUREMENT
 70
             1
  0
ENDSEC
  0
SECTION
  2
CLASSES
  0
CLASS
  1
LWPOLYLINE
  2
AcDbPolyline
  3
"AutoCAD"
 90
        0
280
             0
281
             1
  0
CLASS
  1
IMAGE
  2
AcDbRasterImage
  3
ISM
 90
      127
280
             0
281
             1
  0
CLASS
  1
OLE2FRAME
  2
AcDbOle2Frame
  3
""
 90
        0
280
             0
281
             1
  0
CLASS
  1
HATCH
  2
AcDbHatch
  3
"ACAD_SEDONA"
 90
        0
280
             0
281
             1
  0
CLASS
  1
DICTIONARYVAR
  2
AcDbDictionaryVar
  3
"AutoCAD"
 90
        0
280
             0
281
             0
  0
CLASS
  1
RASTERVARIABLES
  2
AcDbRasterVariables
  3
ISM
 90
        0
280
             0
281
             0
  0
CLASS
  1
IMAGEDEF
  2
AcDbRasterImageDef
  3
ISM
 90
        0
280
             0
281
             0
  0
CLASS
  1
IMAGEDEF_REACTOR
  2
AcDbRasterImageDefReactor
  3
ISM
 90
        1
280
             0
281
             0
  0
CLASS
  1
IDBUFFER
  2
AcDbIdBuffer
  3
"Acad"
 90
        0
280
             0
281
             0
  0
CLASS
  1
SPATIAL_FILTER
  2
AcDbSpatialFilter
  3
"Acad"
 90
        0
280
             0
281
             0
  0
CLASS
  1
XRECORD
  2
AcDbXrecord
  3
"<Built In>"
 90
        0
280
             0
281
             0
  0
CLASS
  1
SORTENTSTABLE
  2
AcDbSortentsTable
  3
"AutoCAD"
 90
        0
280
             0
281
             0
  0
CLASS
  1
LAYER_INDEX
  2
AcDbLayerIndex
  3
"Acad"
 90
        0
280
             0
281
             0
  0
CLASS
  1
SPATIAL_INDEX
  2
AcDbSpatialIndex
  3
"Acad"
 90
        0
280
             0
281
             0
  0
CLASS
  1
OBJECT_PTR
  2
CAseDLPNTableRecord
  3
"ASE-LPNTableRecord"
 90
        1
280
             0
281
             0
  0
CLASS
  1
LAYOUT
  2
AcDbLayout
  3
"AutoCAD 2000"
 90
        1
280
             0
281
             0
  0
CLASS
  1
PLOTSETTINGS
  2
AcDbPlotSettings
  3
"AutoCAD 2000"
 90
        1
280
             0
281
             0
  0
CLASS
  1
ACDBDICTIONARYWDFLT
  2
AcDbDictionaryWithDefault
  3
"AutoCAD 2000"
 90
        1
280
             0
281
             0
  0
CLASS
  1
ACDBPLACEHOLDER
  2
AcDbPlaceHolder
  3
"AutoCAD 2000"
 90
        1
280
             0
281
             0
  0
ENDSEC
  0
SECTION
  2
TABLES
  0
TABLE
  2
VPORT
  5
7
100
AcDbSymbolTable
 70
             1
  0
VPORT
  5
15
100
AcDbSymbolTableRecord
100
AcDbViewportTableRecord
  2
*ACTIVE
 70
             0
 10
0.0
 20
0.0
 11
1.0
 21
1.0
 12
77.49999999999994
 22
-8.99999999999999
 13
0.0
 23
0.0
 14
1.0
 24
1.0
 15
0.0
 25
0.0
 16
0.0
 26
0.0
 36
1.0
 17
0.0
 27
0.0
 37
0.0
 40
131.09303621169931
 41
1.60267857142857
 42
50.0
 43
0.0
 44
0.0
 50
0.0
 51
0.0
 71
             0
 72
           100
 73
             1
 74
             1
 75
             0
 76
             0
 77
             0
 78
             0
  0
ENDTAB
  0
TABLE
  2
LTYPE
  5
4
100
AcDbSymbolTable
 70
            10
  0
LTYPE
  5
11
100
AcDbSymbolTableRecord
100
AcDbLinetypeTableRecord
  2
BYBLOCK
 70
            64
  3

 72
            65
 73
             0
 40
0.0
  0
LTYPE
  5
12
100
AcDbSymbolTableRecord
100
AcDbLinetypeTableRecord
  2
BYLAYER
 70
            64
  3

 72
            65
 73
             0
 40
0.0
  0
LTYPE
  5
13
100
AcDbSymbolTableRecord
100
AcDbLinetypeTableRecord
  2
CONTINUOUS
 70
            64
  3
Solid line
 72
            65
 73
             0
 40
0.0
  0
LTYPE
  5
1D
100
AcDbSymbolTableRecord
100
AcDbLinetypeTableRecord
  2
DASHED
 70
            64
  3
Dashed
 72
            65
 73
             2
 40
15.0
 49
12.0
 74
             0
 49
-3.0
 74
             0
  0
LTYPE
  5
1E
100
AcDbSymbolTableRecord
100
AcDbLinetypeTableRecord
  2
DOTTED
 70
            64
  3
Dotted
 72
            65
 73
             2
 40
3.5
 49
0.5
 74
             0
 49
-3.0
 74
             0
  0
LTYPE
  5
1F
100
AcDbSymbolTableRecord
100
AcDbLinetypeTableRecord
  2
DOT_CENTER
 70
            64
  3
Dot_Center
 72
            65
 73
             4
 40
2.0
 49
1.25
 74
             0
 49
-0.25
 74
             0
 49
0.25
 74
             0
 49
-0.25
 74
             0
  0
LTYPE
  5
20
100
AcDbSymbolTableRecord
100
AcDbLinetypeTableRecord
  2
LONG_DASHED
 70
            64
  3
Long_Dashed
 72
            65
 73
             2
 40
2.0
 49
1.5
 74
             0
 49
-0.5
 74
             0
  0
LTYPE
  5
21
100
AcDbSymbolTableRecord
100
AcDbLinetypeTableRecord
  2
DASH_CENTER
 70
            64
  3
Dash_Center
 72
            65
 73
             4
 40
36.0
 49
24.0
 74
             0
 49
-3.0
 74
             0
 49
6.0
 74
             0
 49
-3.0
 74
             0
  0
LTYPE
  5
22
100
AcDbSymbolTableRecord
100
AcDbLinetypeTableRecord
  2
PHANTOM
 70
            64
  3
Phantom
 72
            65
 73
             6
 40
2.5
 49
1.25
 74
             0
 49
-0.25
 74
             0
 49
0.25
 74
             0
 49
-0.25
 74
             0
 49
0.25
 74
             0
 49
-0.25
 74
             0
  0
LTYPE
  5
23
100
AcDbSymbolTableRecord
100
AcDbLinetypeTableRecord
  2
CENTER_DASH_DASH
 70
            64
  3
Center_Dash_Dash
 72
            65
 73
             6
 40
22.0
 49
12.0
 74
             0
 49
-3.0
 74
             0
 49
0.5
 74
             0
 49
-3.0
 74
             0
 49
0.5
 74
             0
 49
-3.0
 74
             0
  0
ENDTAB
  0
TABLE
  2
LAYER
  5
2
100
AcDbSymbolTable
 70
             2
  0
LAYER
  5
14
100
AcDbSymbolTableRecord
100
AcDbLayerTableRecord
  2
0
 70
             0
 62
             7
  6
CONTINUOUS
  0
LAYER
  5
24
100
AcDbSymbolTableRecord
100
AcDbLayerTableRecord
  2
1
 70
             0
 62
             7
  6
CONTINUOUS
  0
ENDTAB
  0
TABLE
  2
STYLE
  5
3
100
AcDbSymbolTable
 70
             1
  0
STYLE
  5
17
100
AcDbSymbolTableRecord
100
AcDbTextStyleTableRecord
  2
STANDARD
 70
             0
 40
0.0
 41
1.0
 50
0.0
 71
             0
 42
0.0
  3
txt
  4

  0
ENDTAB
  0
TABLE
  2
VIEW
  5
5
100
AcDbSymbolTable
 70
             0
  0
ENDTAB
  0
TABLE
  2
UCS
  5
6
100
AcDbSymbolTable
 70
             0
  0
ENDTAB
  0
TABLE
  2
APPID
  5
8
100
AcDbSymbolTable
 70
             1
  0
APPID
  5
16
100
AcDbSymbolTableRecord
100
AcDbRegAppTableRecord
  2
ACAD
 70
             0
  0
ENDTAB
  0
TABLE
  2
DIMSTYLE
  5
9
100
AcDbSymbolTable
 70
             1
  0
DIMSTYLE
105
18
100
AcDbSymbolTableRecord
100
AcDbDimStyleTableRecord
  2
STANDARD
 70
             0
  3

  4

  5

  6

  7

 40
1.0
 41
0.18
 42
0.0625
 43
0.38
 44
0.18
 45
0.0
 46
0.0
 47
0.0
 48
0.0
 71
             0
 72
             0
 73
             1
 74
             1
 75
             0
 76
             0
 77
             0
 78
             0
140
0.18
141
0.09
142
0.0
143
25.4
144
1.0
145
0.0
146
1.0
147
0.09
170
             0
171
             2
172
             0
173
             0
174
             0
175
             0
176
             0
177
             0
178
             0
270
             2
271
             4
272
             4
273
             2
274
             2
275
             0
280
             0
281
             0
282
             0
283
             1
284
             0
285
             0
286
             0
287
             0
288
             0
340
17
  0
ENDTAB
  0
TABLE
  2
BLOCK_RECORD
  5
1
100
AcDbSymbolTable
 70
             0
  0
BLOCK_RECORD
  5
A
100
AcDbSymbolTableRecord
100
AcDbBlockTableRecord
  2
*MODEL_SPACE
  0
BLOCK_RECORD
  5
B
100
AcDbSymbolTableRecord
100
AcDbBlockTableRecord
  2
*PAPER_SPACE
  0
ENDTAB
  0
ENDSEC
  0
SECTION
  2
BLOCKS
  0
BLOCK
  5
D
100
AcDbEntity
  8
0
100
AcDbBlockBegin
  2
*MODEL_SPACE
 70
             0
 10
0.0
 20
0.0
 30
0.0
  3
*MODEL_SPACE
  1

  0
ENDBLK
  5
E
100
AcDbEntity
  8
0
100
AcDbBlockEnd
  0
BLOCK
  5
F
100
AcDbEntity
 67
             1
  8
0
100
AcDbBlockBegin
  2
*PAPER_SPACE
 70
             0
 10
0.0
 20
0.0
 30
0.0
  3
*PAPER_SPACE
  1

  0
ENDBLK
  5
10
100
AcDbEntity
 67
             1
  8
0
100
AcDbBlockEnd
  0
ENDSEC
  0
SECTION
  2
ENTITIES
  0
ARC
  5
493
100
AcDbEntity
  8
1
  6
CONTINUOUS
 62
             7
100
AcDbCircle
 10
22.75
 20
-33.5
 40
1.5
100
AcDbArc
 50
-90.0
 51
0.0
  0
ARC
  5
492
100
AcDbEntity
  8
1
  6
CONTINUOUS
 62
             7
100
AcDbCircle
 10
22.75
 20
-28.5
 40
1.5
100
AcDbArc
 50
0.0
 51
90.0
  0
ARC
  5
491
100
AcDbEntity
  8
1
  6
CONTINUOUS
 62
             7
100
AcDbCircle
 10
22.75
 20
-39.5
 40
1.5
100
AcDbArc
 50
0.0
 51
90.0
  0
ARC
  5
490
100
AcDbEntity
  8
1
  6
CONTINUOUS
 62
             7
100
AcDbCircle
 10
-10.75
 20
-39.5
 40
1.5
100
AcDbArc
 50
90.0
 51
180.0
  0
ARC
  5
48F
100
AcDbEntity
  8
1
  6
CONTINUOUS
 62
             7
100
AcDbCircle
 10
-10.75
 20
-44.5
 40
1.5
100
AcDbArc
 50
180.0
 51
-90.0
  0
ARC
  5
48E
100
AcDbEntity
  8
1
  6
CONTINUOUS
 62
             7
100
AcDbCircle
 10
22.75
 20
-44.5
 40
1.5
100
AcDbArc
 50
-90.0
 51
0.0
  0
ARC
  5
48D
100
AcDbEntity
  8
1
  6
CONTINUOUS
 62
             7
100
AcDbCircle
 10
-10.75
 20
-33.5
 40
1.5
100
AcDbArc
 50
180.0
 51
-90.0
  0
ARC
  5
48C
100
AcDbEntity
  8
1
  6
CONTINUOUS
 62
             7
100
AcDbCircle
 10
-10.75
 20
-28.5
 40
1.5
100
AcDbArc
 50
90.0
 51
180.0
  0
ARC
  5
48B
100
AcDbEntity
  8
1
  6
CONTINUOUS
 62
             7
100
AcDbCircle
 10
24.0
 20
-27.0
 40
2.0
100
AcDbArc
 50
0.0
 51
90.0
  0
ARC
  5
48A
100
AcDbEntity
  8
1
  6
CONTINUOUS
 62
             7
100
AcDbCircle
 10
24.0
 20
-46.0
 40
2.0
100
AcDbArc
 50
-90.0
 51
0.0
  0
ARC
  5
489
100
AcDbEntity
  8
1
  6
CONTINUOUS
 62
             7
100
AcDbCircle
 10
-12.0
 20
-45.99999999999994
 40
2.0
100
AcDbArc
 50
-179.99999999999838
 51
-90.0
  0
ARC
  5
488
100
AcDbEntity
  8
1
  6
CONTINUOUS
 62
             7
100
AcDbCircle
 10
-12.0
 20
-27.0
 40
2.0
100
AcDbArc
 50
90.0
 51
180.0
  0
ARC
  5
487
100
AcDbEntity
  8
1
  6
CONTINUOUS
 62
             7
100
AcDbCircle
 10
-12.0
 20
-21.0
 40
2.0
100
AcDbArc
 50
180.0
 51
-90.0
  0
ARC
  5
486
100
AcDbEntity
  8
1
  6
CONTINUOUS
 62
             7
100
AcDbCircle
 10
24.0
 20
-21.0
 40
2.0
100
AcDbArc
 50
-90.0
 51
0.0
  0
ARC
  5
485
100
AcDbEntity
  8
1
  6
CONTINUOUS
 62
             7
100
AcDbCircle
 10
24.0
 20
31.0
 40
2.0
100
AcDbArc
 50
0.0
 51
90.0
  0
ARC
  5
484
100
AcDbEntity
  8
1
  6
CONTINUOUS
 62
             7
100
AcDbCircle
 10
-12.0
 20
31.0
 40
2.0
100
AcDbArc
 50
90.0
 51
180.0
  0
ARC
  5
483
100
AcDbEntity
  8
1
  6
CONTINUOUS
 62
             7
100
AcDbCircle
 10
-5.0
 20
-2.90000000000015
 40
0.5
100
AcDbArc
 50
0.0
 51
90.0
  0
ARC
  5
482
100
AcDbEntity
  8
1
  6
CONTINUOUS
 62
             7
100
AcDbCircle
 10
-9.0
 20
-2.90000000000015
 40
0.5
100
AcDbArc
 50
90.0
 51
180.0
  0
ARC
  5
481
100
AcDbEntity
  8
1
  6
CONTINUOUS
 62
             7
100
AcDbCircle
 10
21.0
 20
-15.49999999999997
 40
0.5
100
AcDbArc
 50
0.0
 51
90.0
  0
ARC
  5
480
100
AcDbEntity
  8
1
  6
CONTINUOUS
 62
             7
100
AcDbCircle
 10
17.0
 20
-15.49999999999997
 40
0.5
100
AcDbArc
 50
90.0
 51
180.0
  0
ARC
  5
47F
100
AcDbEntity
  8
1
  6
CONTINUOUS
 62
             7
100
AcDbCircle
 10
14.5
 20
-15.49999999999997
 40
0.5
100
AcDbArc
 50
0.0
 51
90.0
  0
ARC
  5
47E
100
AcDbEntity
  8
1
  6
CONTINUOUS
 62
             7
100
AcDbCircle
 10
10.5
 20
-15.49999999999997
 40
0.5
100
AcDbArc
 50
90.0
 51
180.0
  0
ARC
  5
47D
100
AcDbEntity
  8
1
  6
CONTINUOUS
 62
             7
100
AcDbCircle
 10
1.5
 20
-15.49999999999997
 40
0.5
100
AcDbArc
 50
0.0
 51
90.0
  0
ARC
  5
47C
100
AcDbEntity
  8
1
  6
CONTINUOUS
 62
             7
100
AcDbCircle
 10
-2.5
 20
-15.49999999999997
 40
0.5
100
AcDbArc
 50
90.0
 51
180.0
  0
ARC
  5
47B
100
AcDbEntity
  8
1
  6
CONTINUOUS
 62
             7
100
AcDbCircle
 10
-9.0
 20
-15.49999999999997
 40
0.5
100
AcDbArc
 50
90.0
 51
180.0
  0
ARC
  5
47A
100
AcDbEntity
  8
1
  6
CONTINUOUS
 62
             7
100
AcDbCircle
 10
-5.0
 20
-15.49999999999997
 40
0.5
100
AcDbArc
 50
0.0
 51
90.0
  0
ARC
  5
479
100
AcDbEntity
  8
1
  6
CONTINUOUS
 62
             7
100
AcDbCircle
 10
-5.0
 20
-3.90000000000015
 40
0.5
100
AcDbArc
 50
-90.0
 51
0.0
  0
ARC
  5
478
100
AcDbEntity
  8
1
  6
CONTINUOUS
 62
             7
100
AcDbCircle
 10
-9.0
 20
-3.90000000000015
 40
0.5
100
AcDbArc
 50
180.0
 51
-90.0
  0
ARC
  5
477
100
AcDbEntity
  8
1
  6
CONTINUOUS
 62
             7
100
AcDbCircle
 10
17.0
 20
-18.89999999999995
 40
0.5
100
AcDbArc
 50
90.0
 51
180.0
  0
ARC
  5
476
100
AcDbEntity
  8
1
  6
CONTINUOUS
 62
             7
100
AcDbCircle
 10
21.0
 20
-18.89999999999995
 40
0.5
100
AcDbArc
 50
0.0
 51
90.0
  0
ARC
  5
475
100
AcDbEntity
  8
1
  6
CONTINUOUS
 62
             7
100
AcDbCircle
 10
21.0
 20
-16.49999999999997
 40
0.5
100
AcDbArc
 50
-90.0
 51
0.0
  0
ARC
  5
474
100
AcDbEntity
  8
1
  6
CONTINUOUS
 62
             7
100
AcDbCircle
 10
17.0
 20
-16.49999999999997
 40
0.5
100
AcDbArc
 50
180.0
 51
-90.0
  0
ARC
  5
473
100
AcDbEntity
  8
1
  6
CONTINUOUS
 62
             7
100
AcDbCircle
 10
10.5
 20
-18.89999999999995
 40
0.5
100
AcDbArc
 50
90.0
 51
180.0
  0
ARC
  5
472
100
AcDbEntity
  8
1
  6
CONTINUOUS
 62
             7
100
AcDbCircle
 10
14.5
 20
-18.89999999999995
 40
0.5
100
AcDbArc
 50
0.0
 51
90.0
  0
ARC
  5
471
100
AcDbEntity
  8
1
  6
CONTINUOUS
 62
             7
100
AcDbCircle
 10
14.5
 20
-16.49999999999997
 40
0.5
100
AcDbArc
 50
-90.0
 51
0.0
  0
ARC
  5
470
100
AcDbEntity
  8
1
  6
CONTINUOUS
 62
             7
100
AcDbCircle
 10
10.5
 20
-16.49999999999997
 40
0.5
100
AcDbArc
 50
180.0
 51
-90.0
  0
ARC
  5
46F
100
AcDbEntity
  8
1
  6
CONTINUOUS
 62
             7
100
AcDbCircle
 10
4.0
 20
-18.89999999999995
 40
0.5
100
AcDbArc
 50
90.0
 51
180.0
  0
ARC
  5
46E
100
AcDbEntity
  8
1
  6
CONTINUOUS
 62
             7
100
AcDbCircle
 10
8.0
 20
-18.89999999999995
 40
0.5
100
AcDbArc
 50
0.0
 51
90.0
  0
ARC
  5
46D
100
AcDbEntity
  8
1
  6
CONTINUOUS
 62
             7
100
AcDbCircle
 10
1.5
 20
-16.49999999999997
 40
0.5
100
AcDbArc
 50
-90.0
 51
0.0
  0
ARC
  5
46C
100
AcDbEntity
  8
1
  6
CONTINUOUS
 62
             7
100
AcDbCircle
 10
-2.5
 20
-16.49999999999997
 40
0.5
100
AcDbArc
 50
180.0
 51
-90.0
  0
ARC
  5
46B
100
AcDbEntity
  8
1
  6
CONTINUOUS
 62
             7
100
AcDbCircle
 10
-9.0
 20
-16.49999999999997
 40
0.5
100
AcDbArc
 50
180.0
 51
-90.0
  0
ARC
  5
46A
100
AcDbEntity
  8
1
  6
CONTINUOUS
 62
             7
100
AcDbCircle
 10
-5.0
 20
-16.49999999999997
 40
0.5
100
AcDbArc
 50
-90.0
 51
0.0
  0
ARC
  5
469
100
AcDbEntity
  8
1
  6
CONTINUOUS
 62
             7
100
AcDbCircle
 10
17.0
 20
-19.89999999999995
 40
0.5
100
AcDbArc
 50
180.0
 51
-90.0
  0
ARC
  5
468
100
AcDbEntity
  8
1
  6
CONTINUOUS
 62
             7
100
AcDbCircle
 10
21.0
 20
-19.89999999999995
 40
0.5
100
AcDbArc
 50
-90.0
 51
0.0
  0
ARC
  5
467
100
AcDbEntity
  8
1
  6
CONTINUOUS
 62
             7
100
AcDbCircle
 10
10.5
 20
-19.89999999999995
 40
0.5
100
AcDbArc
 50
180.0
 51
-90.0
  0
ARC
  5
466
100
AcDbEntity
  8
1
  6
CONTINUOUS
 62
             7
100
AcDbCircle
 10
14.5
 20
-19.89999999999995
 40
0.5
100
AcDbArc
 50
-90.0
 51
0.0
  0
ARC
  5
465
100
AcDbEntity
  8
1
  6
CONTINUOUS
 62
             7
100
AcDbCircle
 10
4.0
 20
-19.89999999999995
 40
0.5
100
AcDbArc
 50
180.0
 51
-90.0
  0
ARC
  5
464
100
AcDbEntity
  8
1
  6
CONTINUOUS
 62
             7
100
AcDbCircle
 10
8.0
 20
-19.89999999999995
 40
0.5
100
AcDbArc
 50
-90.0
 51
0.0
  0
ARC
  5
463
100
AcDbEntity
  8
1
  6
CONTINUOUS
 62
             7
100
AcDbCircle
 10
-9.0
 20
-7.30000000000015
 40
0.5
100
AcDbArc
 50
180.0
 51
-90.0
  0
ARC
  5
462
100
AcDbEntity
  8
1
  6
CONTINUOUS
 62
             7
100
AcDbCircle
 10
-5.0
 20
-7.30000000000015
 40
0.5
100
AcDbArc
 50
-90.0
 51
0.0
  0
ARC
  5
461
100
AcDbEntity
  8
1
  6
CONTINUOUS
 62
             7
100
AcDbCircle
 10
-9.0
 20
-6.30000000000015
 40
0.5
100
AcDbArc
 50
90.0
 51
180.0
  0
ARC
  5
460
100
AcDbEntity
  8
1
  6
CONTINUOUS
 62
             7
100
AcDbCircle
 10
-5.0
 20
-6.30000000000015
 40
0.5
100
AcDbArc
 50
0.0
 51
90.0
  0
ARC
  5
45F
100
AcDbEntity
  8
0
  6
CONTINUOUS
 62
             7
100
AcDbCircle
 10
167.28615612366929
 20
-47.68860009363283
 40
0.20000000000002
100
AcDbArc
 50
0.0
 51
69.44395478040296
  0
ARC
  5
45E
100
AcDbEntity
  8
0
  6
CONTINUOUS
 62
             7
100
AcDbCircle
 10
167.28615612366929
 20
-45.911399906367
 40
0.19999999999999
100
AcDbArc
 50
-69.44395478040153
 51
0.0
  0
ARC
  5
45D
100
AcDbEntity
  8
0
  6
CONTINUOUS
 62
             7
100
AcDbCircle
 10
166.28615612366929
 20
-47.68860009363283
 40
0.20000000000002
100
AcDbArc
 50
0.0
 51
69.44395478040296
  0
ARC
  5
45C
100
AcDbEntity
  8
0
  6
CONTINUOUS
 62
             7
100
AcDbCircle
 10
166.28615612366929
 20
-45.911399906367
 40
0.19999999999999
100
AcDbArc
 50
-69.44395478040153
 51
0.0
  0
ARC
  5
45B
100
AcDbEntity
  8
0
  6
CONTINUOUS
 62
             7
100
AcDbCircle
 10
167.28615612366929
 20
-39.28860009363285
 40
0.20000000000002
100
AcDbArc
 50
0.0
 51
69.44395478040509
  0
ARC
  5
45A
100
AcDbEntity
  8
0
  6
CONTINUOUS
 62
             7
100
AcDbCircle
 10
167.28615612366929
 20
-37.51139990636699
 40
0.20000000000002
100
AcDbArc
 50
-69.44395478040509
 51
0.0
  0
ARC
  5
459
100
AcDbEntity
  8
0
  6
CONTINUOUS
 62
             7
100
AcDbCircle
 10
166.28615612366929
 20
-39.28860009363285
 40
0.20000000000002
100
AcDbArc
 50
0.0
 51
69.44395478040509
  0
ARC
  5
458
100
AcDbEntity
  8
0
  6
CONTINUOUS
 62
             7
100
AcDbCircle
 10
166.28615612366929
 20
-37.51139990636699
 40
0.20000000000002
100
AcDbArc
 50
-69.44395478040509
 51
0.0
  0
ARC
  5
457
100
AcDbEntity
  8
0
  6
CONTINUOUS
 62
             7
100
AcDbCircle
 10
167.28615612366929
 20
-30.88860009363287
 40
0.20000000000002
100
AcDbArc
 50
0.0
 51
69.44395478040474
  0
ARC
  5
456
100
AcDbEntity
  8
0
  6
CONTINUOUS
 62
             7
100
AcDbCircle
 10
167.28615612366929
 20
-29.11139990636701
 40
0.20000000000002
100
AcDbArc
 50
-69.44395478040509
 51
0.0
  0
ARC
  5
455
100
AcDbEntity
  8
0
  6
CONTINUOUS
 62
             7
100
AcDbCircle
 10
166.28615612366929
 20
-30.88860009363287
 40
0.20000000000002
100
AcDbArc
 50
0.0
 51
69.44395478040474
  0
ARC
  5
454
100
AcDbEntity
  8
0
  6
CONTINUOUS
 62
             7
100
AcDbCircle
 10
166.28615612366929
 20
-29.11139990636701
 40
0.20000000000002
100
AcDbArc
 50
-69.44395478040509
 51
0.0
  0
ARC
  5
453
100
AcDbEntity
  8
0
  6
CONTINUOUS
 62
             7
100
AcDbCircle
 10
167.28615612366929
 20
-22.48860009363293
 40
0.20000000000002
100
AcDbArc
 50
0.0
 51
69.44395478040867
  0
ARC
  5
452
100
AcDbEntity
  8
0
  6
CONTINUOUS
 62
             7
100
AcDbCircle
 10
167.28615612366929
 20
-20.71139990636703
 40
0.2
100
AcDbArc
 50
-69.44395478040261
 51
0.0
  0
ARC
  5
451
100
AcDbEntity
  8
0
  6
CONTINUOUS
 62
             7
100
AcDbCircle
 10
166.28615612366929
 20
-22.48860009363293
 40
0.20000000000002
100
AcDbArc
 50
0.0
 51
69.44395478040867
  0
ARC
  5
450
100
AcDbEntity
  8
0
  6
CONTINUOUS
 62
             7
100
AcDbCircle
 10
166.28615612366929
 20
-20.71139990636703
 40
0.2
100
AcDbArc
 50
-69.44395478040261
 51
0.0
  0
ARC
  5
44F
100
AcDbEntity
  8
0
  6
CONTINUOUS
 62
             7
100
AcDbCircle
 10
167.28615612366929
 20
-14.08860009363295
 40
0.20000000000002
100
AcDbArc
 50
0.0
 51
69.44395478040474
  0
ARC
  5
44E
100
AcDbEntity
  8
0
  6
CONTINUOUS
 62
             7
100
AcDbCircle
 10
167.28615612366929
 20
-12.31139990636709
 40
0.19999999999996
100
AcDbArc
 50
-69.44395478039886
 51
0.0
  0
ARC
  5
44D
100
AcDbEntity
  8
0
  6
CONTINUOUS
 62
             7
100
AcDbCircle
 10
166.28615612366929
 20
-14.08860009363295
 40
0.20000000000002
100
AcDbArc
 50
0.0
 51
69.44395478040474
  0
ARC
  5
44C
100
AcDbEntity
  8
0
  6
CONTINUOUS
 62
             7
100
AcDbCircle
 10
166.28615612366929
 20
-12.31139990636709
 40
0.19999999999996
100
AcDbArc
 50
-69.44395478039886
 51
0.0
  0
ARC
  5
44B
100
AcDbEntity
  8
0
  6
CONTINUOUS
 62
             7
100
AcDbCircle
 10
167.28615612366929
 20
-5.68860009363297
 40
0.20000000000002
100
AcDbArc
 50
0.0
 51
69.44395478040509
  0
ARC
  5
44A
100
AcDbEntity
  8
0
  6
CONTINUOUS
 62
             7
100
AcDbCircle
 10
167.28615612366929
 20
-3.91139990636711
 40
0.19999999999997
100
AcDbArc
 50
-69.44395478039934
 51
0.0
  0
ARC
  5
449
100
AcDbEntity
  8
0
  6
CONTINUOUS
 62
             7
100
AcDbCircle
 10
166.28615612366929
 20
-5.68860009363297
 40
0.20000000000002
100
AcDbArc
 50
0.0
 51
69.44395478040509
  0
ARC
  5
448
100
AcDbEntity
  8
0
  6
CONTINUOUS
 62
             7
100
AcDbCircle
 10
166.28615612366929
 20
-3.91139990636711
 40
0.19999999999997
100
AcDbArc
 50
-69.44395478039934
 51
0.0
  0
ARC
  5
447
100
AcDbEntity
  8
0
  6
CONTINUOUS
 62
             7
100
AcDbCircle
 10
167.28615612366929
 20
2.71139990636703
 40
0.20000000000002
100
AcDbArc
 50
0.0
 51
69.44395478040219
  0
ARC
  5
446
100
AcDbEntity
  8
0
  6
CONTINUOUS
 62
             7
100
AcDbCircle
 10
167.28615612366929
 20
4.48860009363287
 40
0.19999999999996
100
AcDbArc
 50
-69.44395478039921
 51
0.0
  0
ARC
  5
445
100
AcDbEntity
  8
0
  6
CONTINUOUS
 62
             7
100
AcDbCircle
 10
166.28615612366929
 20
2.71139990636703
 40
0.20000000000002
100
AcDbArc
 50
0.0
 51
69.44395478040219
  0
ARC
  5
444
100
AcDbEntity
  8
0
  6
CONTINUOUS
 62
             7
100
AcDbCircle
 10
166.28615612366929
 20
4.48860009363287
 40
0.19999999999996
100
AcDbArc
 50
-69.44395478039921
 51
0.0
  0
ARC
  5
443
100
AcDbEntity
  8
0
  6
CONTINUOUS
 62
             7
100
AcDbCircle
 10
167.28615612366929
 20
11.11139990636701
 40
0.20000000000002
100
AcDbArc
 50
0.0
 51
69.44395478040474
  0
ARC
  5
442
100
AcDbEntity
  8
0
  6
CONTINUOUS
 62
             7
100
AcDbCircle
 10
167.28615612366929
 20
12.88860009363285
 40
0.19999999999997
100
AcDbArc
 50
-69.44395478039975
 51
0.0
  0
ARC
  5
441
100
AcDbEntity
  8
0
  6
CONTINUOUS
 62
             7
100
AcDbCircle
 10
166.28615612366929
 20
11.11139990636701
 40
0.20000000000002
100
AcDbArc
 50
0.0
 51
69.44395478040474
  0
ARC
  5
440
100
AcDbEntity
  8
0
  6
CONTINUOUS
 62
             7
100
AcDbCircle
 10
166.28615612366929
 20
12.88860009363285
 40
0.19999999999997
100
AcDbArc
 50
-69.44395478039975
 51
0.0
  0
ARC
  5
43F
100
AcDbEntity
  8
0
  6
CONTINUOUS
 62
             7
100
AcDbCircle
 10
167.28615612366929
 20
19.51139990636699
 40
0.20000000000002
100
AcDbArc
 50
0.0
 51
69.44395478040474
  0
ARC
  5
43E
100
AcDbEntity
  8
0
  6
CONTINUOUS
 62
             7
100
AcDbCircle
 10
167.28615612366929
 20
21.28860009363285
 40
0.19999999999999
100
AcDbArc
 50
-69.44395478040188
 51
0.0
  0
ARC
  5
43D
100
AcDbEntity
  8
0
  6
CONTINUOUS
 62
             7
100
AcDbCircle
 10
166.28615612366929
 20
19.51139990636699
 40
0.20000000000002
100
AcDbArc
 50
0.0
 51
69.44395478040474
  0
ARC
  5
43C
100
AcDbEntity
  8
0
  6
CONTINUOUS
 62
             7
100
AcDbCircle
 10
166.28615612366929
 20
21.28860009363285
 40
0.19999999999999
100
AcDbArc
 50
-69.44395478040188
 51
0.0
  0
ARC
  5
43B
100
AcDbEntity
  8
0
  6
CONTINUOUS
 62
             7
100
AcDbCircle
 10
167.28615612366929
 20
27.91139990636697
 40
0.20000000000002
100
AcDbArc
 50
0.0
 51
69.44395478040474
  0
ARC
  5
43A
100
AcDbEntity
  8
0
  6
CONTINUOUS
 62
             7
100
AcDbCircle
 10
167.28615612366929
 20
29.68860009363283
 40
0.2
100
AcDbArc
 50
-69.44395478040261
 51
0.0
  0
ARC
  5
439
100
AcDbEntity
  8
0
  6
CONTINUOUS
 62
             7
100
AcDbCircle
 10
166.28615612366929
 20
27.91139990636697
 40
0.20000000000002
100
AcDbArc
 50
0.0
 51
69.44395478040474
  0
ARC
  5
438
100
AcDbEntity
  8
0
  6
CONTINUOUS
 62
             7
100
AcDbCircle
 10
166.28615612366929
 20
29.68860009363283
 40
0.2
100
AcDbArc
 50
-69.44395478040261
 51
0.0
  0
ARC
  5
437
100
AcDbEntity
  8
1
  6
CONTINUOUS
 62
             7
100
AcDbCircle
 10
136.0
 20
42.90000000000001
 40
1.2
100
AcDbArc
 50
90.0
 51
180.0
  0
ARC
  5
436
100
AcDbEntity
  8
1
  6
CONTINUOUS
 62
             7
100
AcDbCircle
 10
159.59999999999999
 20
42.90000000000001
 40
1.20000000000002
100
AcDbArc
 50
0.0
 51
90.0
  0
ARC
  5
435
100
AcDbEntity
  8
1
  6
CONTINUOUS
 62
             7
100
AcDbCircle
 10
168.5
 20
41.75000000000001
 40
1.0
100
AcDbArc
 50
0.0
 51
90.0
  0
ARC
  5
434
100
AcDbEntity
  8
1
  6
CONTINUOUS
 62
             7
100
AcDbCircle
 10
168.5
 20
38.25000000000001
 40
1.0
100
AcDbArc
 50
-90.0
 51
0.0
  0
ARC
  5
433
100
AcDbEntity
  8
1
  6
CONTINUOUS
 62
             7
100
AcDbCircle
 10
136.0
 20
-60.89999999999998
 40
1.19999999999999
100
AcDbArc
 50
180.0
 51
-90.0
  0
ARC
  5
432
100
AcDbEntity
  8
1
  6
CONTINUOUS
 62
             7
100
AcDbCircle
 10
159.59999999999999
 20
-60.89999999999998
 40
1.2
100
AcDbArc
 50
-90.0
 51
0.0
  0
ARC
  5
431
100
AcDbEntity
  8
1
  6
CONTINUOUS
 62
             7
100
AcDbCircle
 10
168.5
 20
-59.75
 40
1.0
100
AcDbArc
 50
-90.0
 51
0.0
  0
ARC
  5
430
100
AcDbEntity
  8
1
  6
CONTINUOUS
 62
             7
100
AcDbCircle
 10
168.5
 20
-56.25
 40
1.0
100
AcDbArc
 50
0.0
 51
90.0
  0
CIRCLE
  5
42F
100
AcDbEntity
  8
1
  6
CONTINUOUS
 62
             7
100
AcDbCircle
 10
156.49999999999989
 20
23.33499999999998
 40
0.24500000000012
  0
CIRCLE
  5
42E
100
AcDbEntity
  8
1
  6
CONTINUOUS
 62
             7
100
AcDbCircle
 10
14.69999999999999
 20
0.7999999999999
 40
0.69999999999999
  0
CIRCLE
  5
42D
100
AcDbEntity
  8
1
  6
CONTINUOUS
 62
             7
100
AcDbCircle
 10
8.19999999999999
 20
0.7999999999999
 40
0.69999999999999
  0
CIRCLE
  5
42C
100
AcDbEntity
  8
1
  6
CONTINUOUS
 62
             7
100
AcDbCircle
 10
1.69999999999999
 20
0.7999999999999
 40
0.69999999999999
  0
CIRCLE
  5
42B
100
AcDbEntity
  8
1
  6
CONTINUOUS
 62
             7
100
AcDbCircle
 10
1.69999999999999
 20
15.80000000000013
 40
0.69999999999999
  0
CIRCLE
  5
42A
100
AcDbEntity
  8
1
  6
CONTINUOUS
 62
             7
100
AcDbCircle
 10
8.19999999999999
 20
15.80000000000013
 40
0.69999999999999
  0
CIRCLE
  5
429
100
AcDbEntity
  8
1
  6
CONTINUOUS
 62
             7
100
AcDbCircle
 10
14.69999999999999
 20
15.80000000000013
 40
0.69999999999999
  0
CIRCLE
  5
428
100
AcDbEntity
  8
1
  6
CONTINUOUS
 62
             7
100
AcDbCircle
 10
20.25
 20
-42.0
 40
2.5
  0
CIRCLE
  5
427
100
AcDbEntity
  8
1
  6
CONTINUOUS
 62
             7
100
AcDbCircle
 10
20.25
 20
-42.0
 40
2.0
  0
ARC
  5
426
100
AcDbEntity
  8
1
  6
CONTINUOUS
 62
             7
100
AcDbCircle
 10
112.0
 20
-49.50000000000006
 40
1.0
100
AcDbArc
 50
90.0
 51
-90.0
  0
ARC
  5
425
100
AcDbEntity
  8
1
  6
CONTINUOUS
 62
             7
100
AcDbCircle
 10
124.5
 20
-49.50000000000006
 40
1.0
100
AcDbArc
 50
-90.0
 51
90.0
  0
ARC
  5
424
100
AcDbEntity
  8
1
  6
CONTINUOUS
 62
             7
100
AcDbCircle
 10
87.0
 20
-39.50000000000006
 40
1.0
100
AcDbArc
 50
90.0
 51
-90.0
  0
ARC
  5
423
100
AcDbEntity
  8
1
  6
CONTINUOUS
 62
             7
100
AcDbCircle
 10
99.5
 20
-39.50000000000006
 40
1.0
100
AcDbArc
 50
-90.0
 51
90.0
  0
ARC
  5
422
100
AcDbEntity
  8
1
  6
CONTINUOUS
 62
             7
100
AcDbCircle
 10
156.49999999999989
 20
26.4235244785437
 40
0.20999999999944
100
AcDbArc
 50
30.00000000007479
 51
150.00000000001828
  0
ARC
  5
421
100
AcDbEntity
  8
1
  6
CONTINUOUS
 62
             7
100
AcDbCircle
 10
154.41373066958889
 20
22.80999999999978
 40
0.21000000000022
100
AcDbArc
 50
149.99999999997704
 51
-90.0
  0
ARC
  5
420
100
AcDbEntity
  8
1
  6
CONTINUOUS
 62
             7
100
AcDbCircle
 10
158.58626933040961
 20
22.80999999999978
 40
0.20999999999993
100
AcDbArc
 50
-90.0
 51
30.00000000005012
  0
ARC
  5
41F
100
AcDbEntity
  8
1
  6
CONTINUOUS
 62
             7
100
AcDbCircle
 10
156.49999999999989
 20
25.18999999999977
 40
0.27999999999966
100
AcDbArc
 50
-6.75632703055554
 51
-173.24367296946497
  0
ARC
  5
41E
100
AcDbEntity
  8
1
  6
CONTINUOUS
 62
             7
100
AcDbCircle
 10
156.49999999999989
 20
23.99999999999989
 40
0.14000000000076
100
AcDbArc
 50
-173.24367296947588
 51
-6.75632703059526
  0
ARC
  5
41D
100
AcDbEntity
  8
1
  6
CONTINUOUS
 62
             7
100
AcDbCircle
 10
99.5
 20
-29.00000000000006
 40
1.0
100
AcDbArc
 50
-90.0
 51
90.0
  0
ARC
  5
41C
100
AcDbEntity
  8
1
  6
CONTINUOUS
 62
             7
100
AcDbCircle
 10
87.0
 20
-29.00000000000006
 40
1.0
100
AcDbArc
 50
90.0
 51
-90.0
  0
ARC
  5
41B
100
AcDbEntity
  8
1
  6
CONTINUOUS
 62
             7
100
AcDbCircle
 10
87.0
 20
-32.50000000000006
 40
1.0
100
AcDbArc
 50
90.0
 51
-90.0
  0
ARC
  5
41A
100
AcDbEntity
  8
1
  6
CONTINUOUS
 62
             7
100
AcDbCircle
 10
99.5
 20
-32.50000000000006
 40
1.0
100
AcDbArc
 50
-90.0
 51
90.0
  0
ARC
  5
419
100
AcDbEntity
  8
1
  6
CONTINUOUS
 62
             7
100
AcDbCircle
 10
99.5
 20
-36.00000000000006
 40
1.0
100
AcDbArc
 50
-90.0
 51
90.0
  0
ARC
  5
418
100
AcDbEntity
  8
1
  6
CONTINUOUS
 62
             7
100
AcDbCircle
 10
87.0
 20
-36.00000000000006
 40
1.0
100
AcDbArc
 50
90.0
 51
-90.0
  0
ARC
  5
417
100
AcDbEntity
  8
1
  6
CONTINUOUS
 62
             7
100
AcDbCircle
 10
112.0
 20
-46.00000000000006
 40
1.0
100
AcDbArc
 50
90.0
 51
-90.0
  0
ARC
  5
416
100
AcDbEntity
  8
1
  6
CONTINUOUS
 62
             7
100
AcDbCircle
 10
124.5
 20
-46.00000000000006
 40
1.0
100
AcDbArc
 50
-90.0
 51
90.0
  0
ARC
  5
415
100
AcDbEntity
  8
1
  6
CONTINUOUS
 62
             7
100
AcDbCircle
 10
144.0
 20
-46.00000000000006
 40
1.0
100
AcDbArc
 50
-90.0
 51
90.0
  0
ARC
  5
414
100
AcDbEntity
  8
1
  6
CONTINUOUS
 62
             7
100
AcDbCircle
 10
131.5
 20
-46.00000000000006
 40
1.0
100
AcDbArc
 50
90.0
 51
-90.0
  0
ARC
  5
413
100
AcDbEntity
  8
1
  6
CONTINUOUS
 62
             7
100
AcDbCircle
 10
131.5
 20
-49.50000000000006
 40
1.0
100
AcDbArc
 50
90.0
 51
-90.0
  0
ARC
  5
412
100
AcDbEntity
  8
1
  6
CONTINUOUS
 62
             7
100
AcDbCircle
 10
144.0
 20
-49.50000000000006
 40
1.0
100
AcDbArc
 50
-90.0
 51
90.0
  0
ARC
  5
411
100
AcDbEntity
  8
1
  6
CONTINUOUS
 62
             7
100
AcDbCircle
 10
29.0
 20
-56.0
 40
1.0
100
AcDbArc
 50
-90.0
 51
0.0
  0
ARC
  5
410
100
AcDbEntity
  8
1
  6
CONTINUOUS
 62
             7
100
AcDbCircle
 10
-17.00000000000011
 20
-56.0
 40
0.99999999999988
100
AcDbArc
 50
180.0
 51
-90.0
  0
ARC
  5
40F
100
AcDbEntity
  8
1
  6
CONTINUOUS
 62
             7
100
AcDbCircle
 10
-17.00000000000011
 20
38.0
 40
1.0
100
AcDbArc
 50
89.99999999999308
 51
180.0
  0
ARC
  5
40E
100
AcDbEntity
  8
1
  6
CONTINUOUS
 62
             7
100
AcDbCircle
 10
29.0
 20
38.0
 40
1.0
100
AcDbArc
 50
0.0
 51
90.0
  0
ARC
  5
40D
100
AcDbEntity
  8
1
  6
CONTINUOUS
 62
             7
100
AcDbCircle
 10
63.50000000000001
 20
38.19809375960232
 40
0.49999999999999
100
AcDbArc
 50
93.99999999999575
 51
180.0
  0
ARC
  5
40C
100
AcDbEntity
  8
1
  6
CONTINUOUS
 62
             7
100
AcDbCircle
 10
63.50000000000001
 20
-56.1980937596023
 40
0.5
100
AcDbArc
 50
180.0
 51
-93.99999999999575
  0
ARC
  5
40B
100
AcDbEntity
  8
1
  6
CONTINUOUS
 62
             7
100
AcDbCircle
 10
19.387714697587
 20
4.59999999999982
 40
2.00000000000003
100
AcDbArc
 50
-40.99035378321434
 51
-5.00000000000056
  0
ARC
  5
40A
100
AcDbEntity
  8
1
  6
CONTINUOUS
 62
             7
100
AcDbCircle
 10
20.56328732550833
 20
12.29999999999981
 40
1.49999999999998
100
AcDbArc
 50
-4.99999999999979
 51
36.56696455522385
  0
ARC
  5
409
100
AcDbEntity
  8
1
  6
CONTINUOUS
 62
             7
100
AcDbCircle
 10
18.612285302413
 20
11.79999999999981
 40
2.0
100
AcDbArc
 50
90.0
 51
118.80487601619608
  0
ARC
  5
408
100
AcDbEntity
  8
1
  6
CONTINUOUS
 62
             7
100
AcDbCircle
 10
20.56328732550833
 20
12.29999999999981
 40
1.50000000000001
100
AcDbArc
 50
63.55377746230577
 51
90.0
  0
ARC
  5
407
100
AcDbEntity
  8
1
  6
CONTINUOUS
 62
             7
100
AcDbCircle
 10
18.612285302413
 20
11.79999999999981
 40
2.00000000000004
100
AcDbArc
 50
139.00964621678028
 51
174.9999999999994
  0
ARC
  5
406
100
AcDbEntity
  8
1
  6
CONTINUOUS
 62
             7
100
AcDbCircle
 10
17.43671267449167
 20
4.09999999999982
 40
1.49999999999998
100
AcDbArc
 50
175.00000000000017
 51
-143.43303544478411
  0
ARC
  5
405
100
AcDbEntity
  8
1
  6
CONTINUOUS
 62
             7
100
AcDbCircle
 10
19.387714697587
 20
4.59999999999982
 40
2.0
100
AcDbArc
 50
-90.0
 51
-61.1951239837999
  0
ARC
  5
404
100
AcDbEntity
  8
1
  6
CONTINUOUS
 62
             7
100
AcDbCircle
 10
17.43671267449167
 20
4.09999999999982
 40
1.49999999999998
100
AcDbArc
 50
-116.44622253770468
 51
-90.0
  0
ARC
  5
403
100
AcDbEntity
  8
1
  6
CONTINUOUS
 62
             7
100
AcDbCircle
 10
10.93671267449167
 20
4.09999999999982
 40
1.49999999999998
100
AcDbArc
 50
-116.4462225377046
 51
-90.0
  0
ARC
  5
402
100
AcDbEntity
  8
1
  6
CONTINUOUS
 62
             7
100
AcDbCircle
 10
12.887714697587
 20
4.59999999999982
 40
2.0
100
AcDbArc
 50
-90.0
 51
-61.1951239837999
  0
ARC
  5
401
100
AcDbEntity
  8
1
  6
CONTINUOUS
 62
             7
100
AcDbCircle
 10
10.93671267449167
 20
4.09999999999982
 40
1.49999999999998
100
AcDbArc
 50
175.00000000000017
 51
-143.43303544478411
  0
ARC
  5
400
100
AcDbEntity
  8
1
  6
CONTINUOUS
 62
             7
100
AcDbCircle
 10
12.112285302413
 20
11.79999999999981
 40
2.00000000000004
100
AcDbArc
 50
139.00964621678025
 51
174.9999999999994
  0
ARC
  5
3FF
100
AcDbEntity
  8
1
  6
CONTINUOUS
 62
             7
100
AcDbCircle
 10
14.06328732550833
 20
12.29999999999981
 40
1.50000000000001
100
AcDbArc
 50
63.55377746230577
 51
90.0
  0
ARC
  5
3FE
100
AcDbEntity
  8
1
  6
CONTINUOUS
 62
             7
100
AcDbCircle
 10
12.112285302413
 20
11.79999999999981
 40
2.0
100
AcDbArc
 50
90.0
 51
118.80487601619608
  0
ARC
  5
3FD
100
AcDbEntity
  8
1
  6
CONTINUOUS
 62
             7
100
AcDbCircle
 10
14.06328732550833
 20
12.29999999999981
 40
1.49999999999998
100
AcDbArc
 50
-4.99999999999979
 51
36.56696455522385
  0
ARC
  5
3FC
100
AcDbEntity
  8
1
  6
CONTINUOUS
 62
             7
100
AcDbCircle
 10
12.887714697587
 20
4.59999999999982
 40
1.99999999999999
100
AcDbArc
 50
-40.99035378321543
 51
-5.00000000000056
  0
ARC
  5
3FB
100
AcDbEntity
  8
1
  6
CONTINUOUS
 62
             7
100
AcDbCircle
 10
4.43671267449167
 20
4.09999999999982
 40
1.49999999999998
100
AcDbArc
 50
-116.44622253770481
 51
-90.0
  0
ARC
  5
3FA
100
AcDbEntity
  8
1
  6
CONTINUOUS
 62
             7
100
AcDbCircle
 10
6.387714697587
 20
4.59999999999982
 40
2.0
100
AcDbArc
 50
-90.0
 51
-61.19512398379982
  0
ARC
  5
3F9
100
AcDbEntity
  8
1
  6
CONTINUOUS
 62
             7
100
AcDbCircle
 10
4.43671267449167
 20
4.09999999999982
 40
1.49999999999999
100
AcDbArc
 50
175.00000000000017
 51
-143.4330354447842
  0
ARC
  5
3F8
100
AcDbEntity
  8
1
  6
CONTINUOUS
 62
             7
100
AcDbCircle
 10
5.612285302413
 20
11.79999999999981
 40
2.00000000000004
100
AcDbArc
 50
139.00964621678028
 51
174.9999999999994
  0
ARC
  5
3F7
100
AcDbEntity
  8
1
  6
CONTINUOUS
 62
             7
100
AcDbCircle
 10
7.56328732550833
 20
12.29999999999981
 40
1.50000000000001
100
AcDbArc
 50
63.55377746230553
 51
90.0
  0
ARC
  5
3F6
100
AcDbEntity
  8
1
  6
CONTINUOUS
 62
             7
100
AcDbCircle
 10
5.612285302413
 20
11.79999999999981
 40
2.0
100
AcDbArc
 50
90.0
 51
118.80487601619608
  0
ARC
  5
3F5
100
AcDbEntity
  8
1
  6
CONTINUOUS
 62
             7
100
AcDbCircle
 10
7.56328732550833
 20
12.29999999999981
 40
1.49999999999999
100
AcDbArc
 50
-4.99999999999977
 51
36.56696455522385
  0
ARC
  5
3F4
100
AcDbEntity
  8
1
  6
CONTINUOUS
 62
             7
100
AcDbCircle
 10
6.387714697587
 20
4.59999999999982
 40
1.99999999999999
100
AcDbArc
 50
-40.99035378321549
 51
-5.00000000000056
  0
ARC
  5
3F3
100
AcDbEntity
  8
1
  6
CONTINUOUS
 62
             7
100
AcDbCircle
 10
-2.06328732550833
 20
4.09999999999982
 40
1.49999999999998
100
AcDbArc
 50
-116.44622253770481
 51
-90.0
  0
ARC
  5
3F2
100
AcDbEntity
  8
1
  6
CONTINUOUS
 62
             7
100
AcDbCircle
 10
-0.112285302413
 20
4.59999999999982
 40
2.0
100
AcDbArc
 50
-90.0
 51
-61.19512398379981
  0
ARC
  5
3F1
100
AcDbEntity
  8
1
  6
CONTINUOUS
 62
             7
100
AcDbCircle
 10
-2.06328732550833
 20
4.09999999999982
 40
1.49999999999999
100
AcDbArc
 50
175.00000000000017
 51
-143.4330354447842
  0
ARC
  5
3F0
100
AcDbEntity
  8
1
  6
CONTINUOUS
 62
             7
100
AcDbCircle
 10
-0.88771469758706
 20
11.79999999999981
 40
2.0
100
AcDbArc
 50
139.00964621677923
 51
174.99999999999926
  0
ARC
  5
3EF
100
AcDbEntity
  8
1
  6
CONTINUOUS
 62
             7
100
AcDbCircle
 10
1.06328732550833
 20
12.29999999999981
 40
1.50000000000001
100
AcDbArc
 50
63.55377746230555
 51
90.0
  0
ARC
  5
3EE
100
AcDbEntity
  8
1
  6
CONTINUOUS
 62
             7
100
AcDbCircle
 10
-0.88771469758706
 20
11.79999999999981
 40
2.0
100
AcDbArc
 50
90.0
 51
118.80487601619463
  0
ARC
  5
3ED
100
AcDbEntity
  8
1
  6
CONTINUOUS
 62
             7
100
AcDbCircle
 10
1.06328732550833
 20
12.29999999999981
 40
1.49999999999999
100
AcDbArc
 50
-4.99999999999977
 51
36.56696455522384
  0
ARC
  5
3EC
100
AcDbEntity
  8
1
  6
CONTINUOUS
 62
             7
100
AcDbCircle
 10
-0.112285302413
 20
4.59999999999982
 40
1.99999999999999
100
AcDbArc
 50
-40.99035378321548
 51
-5.00000000000055
  0
ARC
  5
3EB
100
AcDbEntity
  8
1
  6
CONTINUOUS
 62
             7
100
AcDbCircle
 10
-0.112285302413
 20
19.60000000000002
 40
1.99999999999999
100
AcDbArc
 50
-40.99035378321539
 51
-4.99999999999974
  0
ARC
  5
3EA
100
AcDbEntity
  8
1
  6
CONTINUOUS
 62
             7
100
AcDbCircle
 10
1.06328732550833
 20
27.30000000000001
 40
1.49999999999999
100
AcDbArc
 50
-4.99999999999984
 51
36.56696455522439
  0
ARC
  5
3E9
100
AcDbEntity
  8
1
  6
CONTINUOUS
 62
             7
100
AcDbCircle
 10
-0.88771469758706
 20
26.80000000000001
 40
2.0
100
AcDbArc
 50
90.0
 51
118.8048760161944
  0
ARC
  5
3E8
100
AcDbEntity
  8
1
  6
CONTINUOUS
 62
             7
100
AcDbCircle
 10
1.06328732550833
 20
27.30000000000001
 40
1.49999999999999
100
AcDbArc
 50
63.55377746230501
 51
90.0
  0
ARC
  5
3E7
100
AcDbEntity
  8
1
  6
CONTINUOUS
 62
             7
100
AcDbCircle
 10
-0.88771469758706
 20
26.80000000000001
 40
2.0
100
AcDbArc
 50
139.00964621677926
 51
174.99999999999932
  0
ARC
  5
3E6
100
AcDbEntity
  8
1
  6
CONTINUOUS
 62
             7
100
AcDbCircle
 10
-2.06328732550833
 20
19.10000000000002
 40
1.49999999999999
100
AcDbArc
 50
174.99999999999974
 51
-143.43303544478428
  0
ARC
  5
3E5
100
AcDbEntity
  8
1
  6
CONTINUOUS
 62
             7
100
AcDbCircle
 10
-0.112285302413
 20
19.60000000000002
 40
2.0
100
AcDbArc
 50
-90.0
 51
-61.1951239837997
  0
ARC
  5
3E4
100
AcDbEntity
  8
1
  6
CONTINUOUS
 62
             7
100
AcDbCircle
 10
-2.06328732550833
 20
19.10000000000002
 40
1.49999999999998
100
AcDbArc
 50
-116.44622253770481
 51
-90.0
  0
ARC
  5
3E3
100
AcDbEntity
  8
1
  6
CONTINUOUS
 62
             7
100
AcDbCircle
 10
6.387714697587
 20
19.60000000000002
 40
1.99999999999999
100
AcDbArc
 50
-40.9903537832154
 51
-4.99999999999975
  0
ARC
  5
3E2
100
AcDbEntity
  8
1
  6
CONTINUOUS
 62
             7
100
AcDbCircle
 10
7.56328732550833
 20
27.30000000000001
 40
1.49999999999999
100
AcDbArc
 50
-4.99999999999984
 51
36.56696455522439
  0
ARC
  5
3E1
100
AcDbEntity
  8
1
  6
CONTINUOUS
 62
             7
100
AcDbCircle
 10
5.612285302413
 20
26.80000000000001
 40
2.0
100
AcDbArc
 50
90.0
 51
118.80487601619582
  0
ARC
  5
3E0
100
AcDbEntity
  8
1
  6
CONTINUOUS
 62
             7
100
AcDbCircle
 10
7.56328732550833
 20
27.30000000000001
 40
1.49999999999999
100
AcDbArc
 50
63.55377746230499
 51
90.0
  0
ARC
  5
3DF
100
AcDbEntity
  8
1
  6
CONTINUOUS
 62
             7
100
AcDbCircle
 10
5.612285302413
 20
26.80000000000001
 40
2.00000000000004
100
AcDbArc
 50
139.00964621678034
 51
174.99999999999943
  0
ARC
  5
3DE
100
AcDbEntity
  8
1
  6
CONTINUOUS
 62
             7
100
AcDbCircle
 10
4.43671267449167
 20
19.10000000000002
 40
1.49999999999999
100
AcDbArc
 50
174.99999999999974
 51
-143.43303544478428
  0
ARC
  5
3DD
100
AcDbEntity
  8
1
  6
CONTINUOUS
 62
             7
100
AcDbCircle
 10
6.387714697587
 20
19.60000000000002
 40
2.0
100
AcDbArc
 50
-90.0
 51
-61.19512398379973
  0
ARC
  5
3DC
100
AcDbEntity
  8
1
  6
CONTINUOUS
 62
             7
100
AcDbCircle
 10
4.43671267449167
 20
19.10000000000002
 40
1.49999999999998
100
AcDbArc
 50
-116.44622253770481
 51
-90.0
  0
ARC
  5
3DB
100
AcDbEntity
  8
1
  6
CONTINUOUS
 62
             7
100
AcDbCircle
 10
12.887714697587
 20
19.60000000000002
 40
1.99999999999999
100
AcDbArc
 50
-40.99035378321536
 51
-4.99999999999975
  0
ARC
  5
3DA
100
AcDbEntity
  8
1
  6
CONTINUOUS
 62
             7
100
AcDbCircle
 10
14.06328732550833
 20
27.30000000000001
 40
1.49999999999998
100
AcDbArc
 50
-4.99999999999986
 51
36.56696455522439
  0
ARC
  5
3D9
100
AcDbEntity
  8
1
  6
CONTINUOUS
 62
             7
100
AcDbCircle
 10
12.112285302413
 20
26.80000000000001
 40
2.0
100
AcDbArc
 50
90.0
 51
118.80487601619582
  0
ARC
  5
3D8
100
AcDbEntity
  8
1
  6
CONTINUOUS
 62
             7
100
AcDbCircle
 10
14.06328732550833
 20
27.30000000000001
 40
1.49999999999998
100
AcDbArc
 50
63.55377746230523
 51
90.0
  0
ARC
  5
3D7
100
AcDbEntity
  8
1
  6
CONTINUOUS
 62
             7
100
AcDbCircle
 10
12.112285302413
 20
26.80000000000001
 40
2.00000000000004
100
AcDbArc
 50
139.00964621678031
 51
174.99999999999943
  0
ARC
  5
3D6
100
AcDbEntity
  8
1
  6
CONTINUOUS
 62
             7
100
AcDbCircle
 10
10.93671267449167
 20
19.10000000000002
 40
1.49999999999998
100
AcDbArc
 50
174.99999999999974
 51
-143.43303544478422
  0
ARC
  5
3D5
100
AcDbEntity
  8
1
  6
CONTINUOUS
 62
             7
100
AcDbCircle
 10
12.887714697587
 20
19.60000000000002
 40
2.0
100
AcDbArc
 50
-90.0
 51
-61.1951239837998
  0
ARC
  5
3D4
100
AcDbEntity
  8
1
  6
CONTINUOUS
 62
             7
100
AcDbCircle
 10
10.93671267449167
 20
19.10000000000002
 40
1.49999999999998
100
AcDbArc
 50
-116.4462225377046
 51
-90.0
  0
ARC
  5
3D3
100
AcDbEntity
  8
1
  6
CONTINUOUS
 62
             7
100
AcDbCircle
 10
17.43671267449167
 20
19.10000000000002
 40
1.49999999999998
100
AcDbArc
 50
-116.44622253770468
 51
-90.0
  0
ARC
  5
3D2
100
AcDbEntity
  8
1
  6
CONTINUOUS
 62
             7
100
AcDbCircle
 10
19.387714697587
 20
19.60000000000002
 40
2.0
100
AcDbArc
 50
-90.0
 51
-61.1951239837998
  0
ARC
  5
3D1
100
AcDbEntity
  8
1
  6
CONTINUOUS
 62
             7
100
AcDbCircle
 10
17.43671267449167
 20
19.10000000000002
 40
1.49999999999998
100
AcDbArc
 50
174.99999999999974
 51
-143.43303544478422
  0
ARC
  5
3D0
100
AcDbEntity
  8
1
  6
CONTINUOUS
 62
             7
100
AcDbCircle
 10
18.612285302413
 20
26.80000000000001
 40
2.00000000000004
100
AcDbArc
 50
139.00964621678034
 51
174.99999999999943
  0
ARC
  5
3CF
100
AcDbEntity
  8
1
  6
CONTINUOUS
 62
             7
100
AcDbCircle
 10
20.56328732550833
 20
27.30000000000001
 40
1.49999999999998
100
AcDbArc
 50
63.55377746230523
 51
90.0
  0
ARC
  5
3CE
100
AcDbEntity
  8
1
  6
CONTINUOUS
 62
             7
100
AcDbCircle
 10
18.612285302413
 20
26.80000000000001
 40
2.0
100
AcDbArc
 50
90.0
 51
118.80487601619582
  0
ARC
  5
3CD
100
AcDbEntity
  8
1
  6
CONTINUOUS
 62
             7
100
AcDbCircle
 10
9.75
 20
-42.0
 40
1.5
100
AcDbArc
 50
90.0
 51
-90.0
  0
ARC
  5
3CC
100
AcDbEntity
  8
1
  6
CONTINUOUS
 62
             7
100
AcDbCircle
 10
11.75
 20
-42.0
 40
1.5
100
AcDbArc
 50
-90.0
 51
90.0
  0
ARC
  5
3CB
100
AcDbEntity
  8
1
  6
CONTINUOUS
 62
             7
100
AcDbCircle
 10
11.25
 20
-42.0
 40
1.0
100
AcDbArc
 50
-90.0
 51
90.0
  0
ARC
  5
3CA
100
AcDbEntity
  8
1
  6
CONTINUOUS
 62
             7
100
AcDbCircle
 10
10.25
 20
-42.0
 40
1.0
100
AcDbArc
 50
90.0
 51
-90.0
  0
ARC
  5
3C9
100
AcDbEntity
  8
1
  6
CONTINUOUS
 62
             7
100
AcDbCircle
 10
-2.30000000000001
 20
-30.99999999999989
 40
0.30000000000001
100
AcDbArc
 50
-90.0
 51
90.0
  0
ARC
  5
3C8
100
AcDbEntity
  8
1
  6
CONTINUOUS
 62
             7
100
AcDbCircle
 10
-4.69999999999999
 20
-30.99999999999989
 40
0.30000000000001
100
AcDbArc
 50
90.0
 51
-90.0
  0
ARC
  5
3C7
100
AcDbEntity
  8
1
  6
CONTINUOUS
 62
             7
100
AcDbCircle
 10
-4.69999999999999
 20
-29.7999999999999
 40
0.29999999999998
100
AcDbArc
 50
90.0
 51
-90.0
  0
ARC
  5
3C6
100
AcDbEntity
  8
1
  6
CONTINUOUS
 62
             7
100
AcDbCircle
 10
-2.30000000000001
 20
-29.7999999999999
 40
0.30000000000001
100
AcDbArc
 50
-90.0
 51
90.0
  0
ARC
  5
3C5
100
AcDbEntity
  8
1
  6
CONTINUOUS
 62
             7
100
AcDbCircle
 10
-4.69999999999999
 20
-32.1999999999999
 40
0.30000000000001
100
AcDbArc
 50
90.0
 51
-90.0
  0
ARC
  5
3C4
100
AcDbEntity
  8
1
  6
CONTINUOUS
 62
             7
100
AcDbCircle
 10
-2.30000000000001
 20
-32.19999999999988
 40
0.30000000000004
100
AcDbArc
 50
-90.0
 51
90.0
  0
ARC
  5
3C3
100
AcDbEntity
  8
1
  6
CONTINUOUS
 62
             7
100
AcDbCircle
 10
22.69999999999999
 20
-32.19999999999988
 40
0.30000000000004
100
AcDbArc
 50
-90.0
 51
90.0
  0
ARC
  5
3C2
100
AcDbEntity
  8
1
  6
CONTINUOUS
 62
             7
100
AcDbCircle
 10
4.80000000000001
 20
-32.1999999999999
 40
0.30000000000001
100
AcDbArc
 50
90.0
 51
-90.0
  0
ARC
  5
3C1
100
AcDbEntity
  8
1
  6
CONTINUOUS
 62
             7
100
AcDbCircle
 10
22.69999999999999
 20
-29.7999999999999
 40
0.30000000000001
100
AcDbArc
 50
-90.0
 51
90.0
  0
ARC
  5
3C0
100
AcDbEntity
  8
1
  6
CONTINUOUS
 62
             7
100
AcDbCircle
 10
4.80000000000001
 20
-29.7999999999999
 40
0.29999999999998
100
AcDbArc
 50
90.0
 51
-90.0
  0
ARC
  5
3BF
100
AcDbEntity
  8
1
  6
CONTINUOUS
 62
             7
100
AcDbCircle
 10
4.80000000000001
 20
-30.99999999999989
 40
0.30000000000001
100
AcDbArc
 50
90.0
 51
-90.0
  0
ARC
  5
3BE
100
AcDbEntity
  8
1
  6
CONTINUOUS
 62
             7
100
AcDbCircle
 10
22.69999999999999
 20
-30.99999999999989
 40
0.30000000000001
100
AcDbArc
 50
-90.0
 51
90.0
  0
ARC
  5
3BD
100
AcDbEntity
  8
1
  6
CONTINUOUS
 62
             7
100
AcDbCircle
 10
7.19999999999999
 20
-41.99999999999989
 40
0.3
100
AcDbArc
 50
-90.0
 51
90.0
  0
ARC
  5
3BC
100
AcDbEntity
  8
1
  6
CONTINUOUS
 62
             7
100
AcDbCircle
 10
-10.69999999999999
 20
-41.99999999999989
 40
0.30000000000001
100
AcDbArc
 50
90.0
 51
-90.0
  0
ARC
  5
3BB
100
AcDbEntity
  8
1
  6
CONTINUOUS
 62
             7
100
AcDbCircle
 10
-10.69999999999999
 20
-40.7999999999999
 40
0.29999999999998
100
AcDbArc
 50
90.0
 51
-90.0
  0
ARC
  5
3BA
100
AcDbEntity
  8
1
  6
CONTINUOUS
 62
             7
100
AcDbCircle
 10
7.19999999999999
 20
-40.7999999999999
 40
0.30000000000001
100
AcDbArc
 50
-90.0
 51
90.0
  0
ARC
  5
3B9
100
AcDbEntity
  8
1
  6
CONTINUOUS
 62
             7
100
AcDbCircle
 10
-10.69999999999999
 20
-43.1999999999999
 40
0.30000000000001
100
AcDbArc
 50
90.0
 51
-90.0
  0
ARC
  5
3B8
100
AcDbEntity
  8
1
  6
CONTINUOUS
 62
             7
100
AcDbCircle
 10
7.19999999999999
 20
-43.19999999999988
 40
0.30000000000004
100
AcDbArc
 50
-90.0
 51
90.0
  0
ARC
  5
3B7
100
AcDbEntity
  8
1
  6
CONTINUOUS
 62
             7
100
AcDbCircle
 10
16.69999999999999
 20
-43.19999999999988
 40
0.30000000000004
100
AcDbArc
 50
-90.0
 51
90.0
  0
ARC
  5
3B6
100
AcDbEntity
  8
1
  6
CONTINUOUS
 62
             7
100
AcDbCircle
 10
14.30000000000001
 20
-43.1999999999999
 40
0.30000000000005
100
AcDbArc
 50
90.0
 51
-90.0
  0
ARC
  5
3B5
100
AcDbEntity
  8
1
  6
CONTINUOUS
 62
             7
100
AcDbCircle
 10
16.69999999999999
 20
-40.7999999999999
 40
0.30000000000001
100
AcDbArc
 50
-90.0
 51
90.0
  0
ARC
  5
3B4
100
AcDbEntity
  8
1
  6
CONTINUOUS
 62
             7
100
AcDbCircle
 10
14.30000000000001
 20
-40.7999999999999
 40
0.29999999999998
100
AcDbArc
 50
90.0
 51
-90.0
  0
ARC
  5
3B3
100
AcDbEntity
  8
1
  6
CONTINUOUS
 62
             7
100
AcDbCircle
 10
14.30000000000001
 20
-41.99999999999989
 40
0.30000000000001
100
AcDbArc
 50
90.0
 51
-90.0
  0
ARC
  5
3B2
100
AcDbEntity
  8
1
  6
CONTINUOUS
 62
             7
100
AcDbCircle
 10
16.69999999999999
 20
-41.99999999999989
 40
0.3
100
AcDbArc
 50
-90.0
 51
90.0
  0
ARC
  5
3B1
100
AcDbEntity
  8
1
  6
CONTINUOUS
 62
             7
100
AcDbCircle
 10
20.56328732550833
 20
27.30000000000001
 40
1.49999999999998
100
AcDbArc
 50
-4.99999999999986
 51
36.56696455522439
  0
ARC
  5
3B0
100
AcDbEntity
  8
1
  6
CONTINUOUS
 62
             7
100
AcDbCircle
 10
19.387714697587
 20
19.60000000000002
 40
2.00000000000003
100
AcDbArc
 50
-40.99035378321425
 51
-4.99999999999975
  0
ARC
  5
3AF
100
AcDbEntity
  8
0
  6
CONTINUOUS
 62
             7
100
AcDbCircle
 10
168.22527626529379
 20
-48.5499999999999
 40
1.0
100
AcDbArc
 50
-90.0
 51
-16.95776330000249
  0
ARC
  5
3AE
100
AcDbEntity
  8
0
  6
CONTINUOUS
 62
             7
100
AcDbCircle
 10
162.4861561236693
 20
-46.7999999999999
 40
7.00000000000002
100
AcDbArc
 50
-16.95776330000394
 51
16.95776330000378
  0
ARC
  5
3AD
100
AcDbEntity
  8
0
  6
CONTINUOUS
 62
             7
100
AcDbCircle
 10
168.22527626529379
 20
-45.0499999999999
 40
1.00000000000003
100
AcDbArc
 50
16.95776330000132
 51
90.0
  0
ARC
  5
3AC
100
AcDbEntity
  8
0
  6
CONTINUOUS
 62
             7
100
AcDbCircle
 10
168.22527626529379
 20
-40.14999999999992
 40
1.0
100
AcDbArc
 50
-90.0
 51
-16.95776330000482
  0
ARC
  5
3AB
100
AcDbEntity
  8
0
  6
CONTINUOUS
 62
             7
100
AcDbCircle
 10
162.4861561236693
 20
-38.39999999999992
 40
7.00000000000004
100
AcDbArc
 50
-16.95776330000428
 51
16.95776330000378
  0
ARC
  5
3AA
100
AcDbEntity
  8
0
  6
CONTINUOUS
 62
             7
100
AcDbCircle
 10
168.22527626529379
 20
-36.64999999999992
 40
1.00000000000003
100
AcDbArc
 50
16.95776330000132
 51
90.0
  0
ARC
  5
3A9
100
AcDbEntity
  8
0
  6
CONTINUOUS
 62
             7
100
AcDbCircle
 10
168.22527626529379
 20
-31.74999999999994
 40
1.0
100
AcDbArc
 50
-90.0
 51
-16.95776330000463
  0
ARC
  5
3A8
100
AcDbEntity
  8
0
  6
CONTINUOUS
 62
             7
100
AcDbCircle
 10
162.4861561236693
 20
-29.99999999999994
 40
7.00000000000003
100
AcDbArc
 50
-16.95776330000425
 51
16.95776330000378
  0
ARC
  5
3A7
100
AcDbEntity
  8
0
  6
CONTINUOUS
 62
             7
100
AcDbCircle
 10
168.22527626529379
 20
-28.24999999999994
 40
1.00000000000003
100
AcDbArc
 50
16.95776330000132
 51
90.0
  0
ARC
  5
3A6
100
AcDbEntity
  8
0
  6
CONTINUOUS
 62
             7
100
AcDbCircle
 10
168.22527626529379
 20
-23.34999999999999
 40
1.0
100
AcDbArc
 50
-90.0
 51
-16.95776330000132
  0
ARC
  5
3A5
100
AcDbEntity
  8
0
  6
CONTINUOUS
 62
             7
100
AcDbCircle
 10
162.4861561236693
 20
-21.59999999999999
 40
7.00000000000002
100
AcDbArc
 50
-16.95776330000378
 51
16.95776330000394
  0
ARC
  5
3A4
100
AcDbEntity
  8
0
  6
CONTINUOUS
 62
             7
100
AcDbCircle
 10
168.22527626529379
 20
-19.84999999999999
 40
1.00000000000004
100
AcDbArc
 50
16.95776330000249
 51
90.0
  0
ARC
  5
3A3
100
AcDbEntity
  8
0
  6
CONTINUOUS
 62
             7
100
AcDbCircle
 10
168.22527626529379
 20
-14.95000000000002
 40
1.0
100
AcDbArc
 50
-90.0
 51
-16.95776330000249
  0
ARC
  5
3A2
100
AcDbEntity
  8
0
  6
CONTINUOUS
 62
             7
100
AcDbCircle
 10
162.4861561236693
 20
-13.20000000000002
 40
7.00000000000002
100
AcDbArc
 50
-16.95776330000394
 51
16.95776330000427
  0
ARC
  5
3A1
100
AcDbEntity
  8
0
  6
CONTINUOUS
 62
             7
100
AcDbCircle
 10
168.22527626529379
 20
-11.45000000000002
 40
1.00000000000005
100
AcDbArc
 50
16.95776330000473
 51
90.0
  0
ARC
  5
3A0
100
AcDbEntity
  8
0
  6
CONTINUOUS
 62
             7
100
AcDbCircle
 10
168.22527626529379
 20
-6.55000000000004
 40
1.0
100
AcDbArc
 50
-90.0
 51
-16.95776330000132
  0
ARC
  5
39F
100
AcDbEntity
  8
0
  6
CONTINUOUS
 62
             7
100
AcDbCircle
 10
162.4861561236693
 20
-4.80000000000004
 40
7.00000000000002
100
AcDbArc
 50
-16.95776330000378
 51
16.95776330000422
  0
ARC
  5
39E
100
AcDbEntity
  8
0
  6
CONTINUOUS
 62
             7
100
AcDbCircle
 10
168.22527626529379
 20
-3.05000000000004
 40
1.00000000000005
100
AcDbArc
 50
16.95776330000443
 51
90.0
  0
ARC
  5
39D
100
AcDbEntity
  8
0
  6
CONTINUOUS
 62
             7
100
AcDbCircle
 10
168.22527626529379
 20
1.84999999999997
 40
1.00000000000003
100
AcDbArc
 50
-90.0
 51
-16.95776330000445
  0
ARC
  5
39C
100
AcDbEntity
  8
0
  6
CONTINUOUS
 62
             7
100
AcDbCircle
 10
162.4861561236693
 20
3.59999999999997
 40
7.00000000000003
100
AcDbArc
 50
-16.95776330000422
 51
16.957763300004
  0
ARC
  5
39B
100
AcDbEntity
  8
0
  6
CONTINUOUS
 62
             7
100
AcDbCircle
 10
168.22527626529379
 20
5.34999999999994
 40
1.00000000000005
100
AcDbArc
 50
16.95776330000449
 51
90.0
  0
ARC
  5
39A
100
AcDbEntity
  8
0
  6
CONTINUOUS
 62
             7
100
AcDbCircle
 10
168.22527626529379
 20
10.24999999999991
 40
0.99999999999997
100
AcDbArc
 50
-90.0
 51
-16.95776330000103
  0
ARC
  5
399
100
AcDbEntity
  8
0
  6
CONTINUOUS
 62
             7
100
AcDbCircle
 10
162.4861561236693
 20
11.99999999999991
 40
7.00000000000002
100
AcDbArc
 50
-16.95776330000374
 51
16.95776330000427
  0
ARC
  5
398
100
AcDbEntity
  8
0
  6
CONTINUOUS
 62
             7
100
AcDbCircle
 10
168.22527626529379
 20
13.74999999999991
 40
1.00000000000005
100
AcDbArc
 50
16.95776330000473
 51
90.0
  0
ARC
  5
397
100
AcDbEntity
  8
0
  6
CONTINUOUS
 62
             7
100
AcDbCircle
 10
168.22527626529379
 20
18.64999999999992
 40
1.0
100
AcDbArc
 50
-90.0
 51
-16.95776330000307
  0
ARC
  5
396
100
AcDbEntity
  8
0
  6
CONTINUOUS
 62
             7
100
AcDbCircle
 10
162.4861561236693
 20
20.39999999999992
 40
7.00000000000003
100
AcDbArc
 50
-16.95776330000403
 51
16.95776330000403
  0
ARC
  5
395
100
AcDbEntity
  8
0
  6
CONTINUOUS
 62
             7
100
AcDbCircle
 10
168.22527626529379
 20
22.14999999999992
 40
1.00000000000004
100
AcDbArc
 50
16.95776330000307
 51
90.0
  0
ARC
  5
394
100
AcDbEntity
  8
0
  6
CONTINUOUS
 62
             7
100
AcDbCircle
 10
168.22527626529379
 20
27.0499999999999
 40
1.0
100
AcDbArc
 50
-90.0
 51
-16.95776330000307
  0
ARC
  5
393
100
AcDbEntity
  8
0
  6
CONTINUOUS
 62
             7
100
AcDbCircle
 10
162.4861561236693
 20
28.7999999999999
 40
7.00000000000003
100
AcDbArc
 50
-16.95776330000403
 51
16.95776330000394
  0
ARC
  5
392
100
AcDbEntity
  8
0
  6
CONTINUOUS
 62
             7
100
AcDbCircle
 10
168.22527626529379
 20
30.5499999999999
 40
1.00000000000004
100
AcDbArc
 50
16.95776330000249
 51
90.0
  0
ARC
  5
391
100
AcDbEntity
  8
1
  6
CONTINUOUS
 62
             7
100
AcDbCircle
 10
166.90000000000001
 20
37.09999999999999
 40
0.59999999999998
100
AcDbArc
 50
-90.0
 51
0.0
  0
ARC
  5
390
100
AcDbEntity
  8
1
  6
CONTINUOUS
 62
             7
100
AcDbCircle
 10
166.90000000000001
 20
-55.09999999999998
 40
0.59999999999999
100
AcDbArc
 50
0.00000000000068
 51
90.0
  0
LINE
  5
38F
100
AcDbEntity
  8
1
  6
CONTINUOUS
 62
             7
100
AcDbLine
 10
101.5
 20
26.0
 11
101.5
 21
-42.50000000000006
  0
LINE
  5
38E
100
AcDbEntity
  8
1
  6
CONTINUOUS
 62
             7
100
AcDbLine
 10
165.5
 20
35.0
 11
163.0
 21
35.0
  0
LINE
  5
38D
100
AcDbEntity
  8
1
  6
CONTINUOUS
 62
             7
100
AcDbLine
 10
165.5
 20
-53.00000000000006
 11
163.0
 21
-53.00000000000006
  0
LINE
  5
38C
100
AcDbEntity
  8
1
  6
CONTINUOUS
 62
             7
100
AcDbLine
 10
161.5
 20
36.5
 11
161.5
 21
-54.50000000000006
  0
LINE
  5
38B
100
AcDbEntity
  8
1
  6
CONTINUOUS
 62
             7
100
AcDbLine
 10
112.0
 20
-48.50000000000006
 11
124.5
 21
-48.50000000000006
  0
LINE
  5
38A
100
AcDbEntity
  8
1
  6
CONTINUOUS
 62
             7
100
AcDbLine
 10
124.5
 20
-50.50000000000006
 11
112.0
 21
-50.50000000000006
  0
LINE
  5
389
100
AcDbEntity
  8
1
  6
CONTINUOUS
 62
             7
100
AcDbLine
 10
156.31813466520509
 20
26.52852447854366
 11
154.23186533479401
 21
22.91499999999996
  0
LINE
  5
388
100
AcDbEntity
  8
1
  6
CONTINUOUS
 62
             7
100
AcDbLine
 10
154.41373066958889
 20
22.59999999999985
 11
158.58626933040961
 21
22.59999999999985
  0
LINE
  5
387
100
AcDbEntity
  8
1
  6
CONTINUOUS
 62
             7
100
AcDbLine
 10
158.76813466520429
 20
22.91499999999996
 11
156.681865334794
 21
26.52852447854366
  0
LINE
  5
386
100
AcDbEntity
  8
1
  6
CONTINUOUS
 62
             7
100
AcDbLine
 10
156.49999999999989
 20
26.3535244785437
 11
154.4743524478539
 21
22.84499999999986
  0
LINE
  5
385
100
AcDbEntity
  8
1
  6
CONTINUOUS
 62
             7
100
AcDbLine
 10
154.4743524478539
 20
22.84499999999986
 11
158.5256475521449
 21
22.84499999999986
  0
LINE
  5
384
100
AcDbEntity
  8
1
  6
CONTINUOUS
 62
             7
100
AcDbLine
 10
158.5256475521449
 20
22.84499999999986
 11
156.49999999999989
 21
26.3535244785437
  0
LINE
  5
383
100
AcDbEntity
  8
1
  6
CONTINUOUS
 62
             7
100
AcDbLine
 10
156.77805553203001
 20
25.15705882352938
 11
156.63902776601441
 21
23.98352941176466
  0
LINE
  5
382
100
AcDbEntity
  8
1
  6
CONTINUOUS
 62
             7
100
AcDbLine
 10
156.36097223398389
 20
23.98352941176466
 11
156.22194446796891
 21
25.15705882352938
  0
LINE
  5
381
100
AcDbEntity
  8
1
  6
CONTINUOUS
 62
             7
100
AcDbLine
 10
159.5
 20
27.59999999999985
 11
153.5
 21
27.59999999999985
  0
LINE
  5
380
100
AcDbEntity
  8
1
  6
CONTINUOUS
 62
             7
100
AcDbLine
 10
153.5
 20
27.59999999999985
 11
153.5
 21
21.59999999999985
  0
LINE
  5
37F
100
AcDbEntity
  8
1
  6
CONTINUOUS
 62
             7
100
AcDbLine
 10
153.5
 20
21.59999999999985
 11
159.5
 21
21.59999999999985
  0
LINE
  5
37E
100
AcDbEntity
  8
1
  6
CONTINUOUS
 62
             7
100
AcDbLine
 10
159.5
 20
21.59999999999985
 11
159.5
 21
27.59999999999985
  0
LINE
  5
37D
100
AcDbEntity
  8
1
  6
CONTINUOUS
 62
             7
100
AcDbLine
 10
86.0
 20
36.5
 11
161.5
 21
36.5
  0
LINE
  5
37C
100
AcDbEntity
  8
1
  6
CONTINUOUS
 62
             7
100
AcDbLine
 10
86.0
 20
36.0
 11
86.0
 21
36.5
  0
LINE
  5
37B
100
AcDbEntity
  8
1
  6
CONTINUOUS
 62
             7
100
AcDbLine
 10
75.0
 20
36.0
 11
86.0
 21
36.0
  0
LINE
  5
37A
100
AcDbEntity
  8
1
  6
CONTINUOUS
 62
             7
100
AcDbLine
 10
75.0
 20
36.5
 11
86.0
 21
36.5
  0
LINE
  5
379
100
AcDbEntity
  8
1
  6
CONTINUOUS
 62
             7
100
AcDbLine
 10
75.0
 20
36.0
 11
75.0
 21
36.5
  0
LINE
  5
378
100
AcDbEntity
  8
1
  6
CONTINUOUS
 62
             7
100
AcDbLine
 10
165.5
 20
-50.31982025971297
 11
166.0861561236693
 21
-50.33005165290967
  0
LINE
  5
377
100
AcDbEntity
  8
1
  6
CONTINUOUS
 62
             7
100
AcDbLine
 10
165.5
 20
-43.28017974028717
 11
165.5
 21
-50.31982025971297
  0
LINE
  5
376
100
AcDbEntity
  8
1
  6
CONTINUOUS
 62
             7
100
AcDbLine
 10
165.5
 20
-41.91982025971294
 11
166.0861561236693
 21
-41.9300516529097
  0
LINE
  5
375
100
AcDbEntity
  8
1
  6
CONTINUOUS
 62
             7
100
AcDbLine
 10
165.5
 20
-34.88017974028719
 11
165.5
 21
-41.91982025971294
  0
LINE
  5
374
100
AcDbEntity
  8
1
  6
CONTINUOUS
 62
             7
100
AcDbLine
 10
165.5
 20
-33.51982025971296
 11
166.0861561236693
 21
-33.53005165290966
  0
LINE
  5
373
100
AcDbEntity
  8
1
  6
CONTINUOUS
 62
             7
100
AcDbLine
 10
165.5
 20
-26.48017974028721
 11
165.5
 21
-33.51982025971296
  0
LINE
  5
372
100
AcDbEntity
  8
1
  6
CONTINUOUS
 62
             7
100
AcDbLine
 10
165.5
 20
-25.11982025971298
 11
166.0861561236693
 21
-25.13005165290969
  0
LINE
  5
371
100
AcDbEntity
  8
1
  6
CONTINUOUS
 62
             7
100
AcDbLine
 10
165.5
 20
-18.08017974028718
 11
165.5
 21
-25.11982025971298
  0
LINE
  5
370
100
AcDbEntity
  8
1
  6
CONTINUOUS
 62
             7
100
AcDbLine
 10
165.5
 20
-16.71982025971295
 11
166.0861561236693
 21
-16.73005165290971
  0
LINE
  5
36F
100
AcDbEntity
  8
1
  6
CONTINUOUS
 62
             7
100
AcDbLine
 10
165.5
 20
-9.6801797402872
 11
165.5
 21
-16.71982025971295
  0
LINE
  5
36E
100
AcDbEntity
  8
1
  6
CONTINUOUS
 62
             7
100
AcDbLine
 10
165.5
 20
-8.31982025971297
 11
166.0861561236693
 21
-8.33005165290967
  0
LINE
  5
36D
100
AcDbEntity
  8
1
  6
CONTINUOUS
 62
             7
100
AcDbLine
 10
165.5
 20
-1.28017974028722
 11
165.5
 21
-8.31982025971297
  0
LINE
  5
36C
100
AcDbEntity
  8
1
  6
CONTINUOUS
 62
             7
100
AcDbLine
 10
165.5
 20
0.08017974028695
 11
166.0861561236693
 21
0.06994834709025
  0
LINE
  5
36B
100
AcDbEntity
  8
1
  6
CONTINUOUS
 62
             7
100
AcDbLine
 10
165.5
 20
7.11982025971275
 11
165.5
 21
0.08017974028695
  0
LINE
  5
36A
100
AcDbEntity
  8
1
  6
CONTINUOUS
 62
             7
100
AcDbLine
 10
165.5
 20
8.4801797402871
 11
166.0861561236693
 21
8.46994834709028
  0
LINE
  5
369
100
AcDbEntity
  8
1
  6
CONTINUOUS
 62
             7
100
AcDbLine
 10
165.5
 20
15.51982025971279
 11
165.5
 21
8.4801797402871
  0
LINE
  5
368
100
AcDbEntity
  8
1
  6
CONTINUOUS
 62
             7
100
AcDbLine
 10
165.5
 20
16.88017974028708
 11
166.0861561236693
 21
16.86994834709026
  0
LINE
  5
367
100
AcDbEntity
  8
1
  6
CONTINUOUS
 62
             7
100
AcDbLine
 10
165.5
 20
23.91982025971277
 11
165.5
 21
16.88017974028708
  0
LINE
  5
366
100
AcDbEntity
  8
1
  6
CONTINUOUS
 62
             7
100
AcDbLine
 10
165.5
 20
25.280179740287
 11
166.0861561236693
 21
25.26994834709029
  0
LINE
  5
365
100
AcDbEntity
  8
1
  6
CONTINUOUS
 62
             7
100
AcDbLine
 10
165.5
 20
32.3198202597128
 11
165.5
 21
25.280179740287
  0
LINE
  5
364
100
AcDbEntity
  8
1
  6
CONTINUOUS
 62
             7
100
AcDbLine
 10
68.0
 20
39.0
 11
73.0
 21
39.0
  0
LINE
  5
363
100
AcDbEntity
  8
1
  6
CONTINUOUS
 62
             7
100
AcDbLine
 10
62.69999999999993
 20
38.0
 11
62.69999999999993
 21
39.0
  0
LINE
  5
362
100
AcDbEntity
  8
1
  6
CONTINUOUS
 62
             7
100
AcDbLine
 10
68.0
 20
-57.00000000000006
 11
73.0
 21
-57.00000000000006
  0
LINE
  5
361
100
AcDbEntity
  8
1
  6
CONTINUOUS
 62
             7
100
AcDbLine
 10
62.69999999999993
 20
-56.00000000000006
 11
62.69999999999993
 21
-57.00000000000006
  0
LINE
  5
360
100
AcDbEntity
  8
1
  6
CONTINUOUS
 62
             7
100
AcDbLine
 10
68.0
 20
-57.00000000000006
 11
68.0
 21
39.0
  0
LINE
  5
35F
100
AcDbEntity
  8
1
  6
CONTINUOUS
 62
             7
100
AcDbLine
 10
62.69999999999993
 20
39.0
 11
68.0
 21
39.0
  0
LINE
  5
35E
100
AcDbEntity
  8
1
  6
CONTINUOUS
 62
             7
100
AcDbLine
 10
62.69999999999993
 20
-57.00000000000006
 11
68.0
 21
-57.00000000000006
  0
LINE
  5
35D
100
AcDbEntity
  8
1
  6
CONTINUOUS
 62
             7
100
AcDbLine
 10
62.69999999999993
 20
-56.00000000000006
 11
63.0
 21
-55.70000000000005
  0
LINE
  5
35C
100
AcDbEntity
  8
1
  6
CONTINUOUS
 62
             7
100
AcDbLine
 10
62.69999999999993
 20
38.0
 11
63.0
 21
37.69999999999999
  0
LINE
  5
35B
100
AcDbEntity
  8
1
  6
CONTINUOUS
 62
             7
100
AcDbLine
 10
73.0
 20
-54.80000000000007
 11
73.0
 21
39.0
  0
LINE
  5
35A
100
AcDbEntity
  8
1
  6
CONTINUOUS
 62
             7
100
AcDbLine
 10
73.0
 20
-57.00000000000006
 11
73.0
 21
-54.80000000000007
  0
LINE
  5
359
100
AcDbEntity
  8
1
  6
CONTINUOUS
 62
             7
100
AcDbLine
 10
74.5
 20
36.5
 11
75.0
 21
36.5
  0
LINE
  5
358
100
AcDbEntity
  8
1
  6
CONTINUOUS
 62
             7
100
AcDbLine
 10
161.5
 20
-54.50000000000006
 11
74.5
 21
-54.50000000000006
  0
LINE
  5
357
100
AcDbEntity
  8
1
  6
CONTINUOUS
 62
             7
100
AcDbLine
 10
163.0
 20
35.0
 11
161.5
 21
36.5
  0
LINE
  5
356
100
AcDbEntity
  8
1
  6
CONTINUOUS
 62
             7
100
AcDbLine
 10
161.5
 20
-54.50000000000006
 11
163.0
 21
-53.00000000000006
  0
LINE
  5
355
100
AcDbEntity
  8
1
  6
CONTINUOUS
 62
             7
100
AcDbLine
 10
173.0
 20
-52.50000000000006
 11
172.5
 21
-53.00000000000006
  0
LINE
  5
354
100
AcDbEntity
  8
1
  6
CONTINUOUS
 62
             7
100
AcDbLine
 10
173.0
 20
34.5
 11
172.5
 21
35.0
  0
LINE
  5
353
100
AcDbEntity
  8
1
  6
CONTINUOUS
 62
             7
100
AcDbLine
 10
99.5
 20
-30.00000000000006
 11
87.0
 21
-30.00000000000006
  0
LINE
  5
352
100
AcDbEntity
  8
1
  6
CONTINUOUS
 62
             7
100
AcDbLine
 10
87.0
 20
-28.00000000000006
 11
99.5
 21
-28.00000000000006
  0
LINE
  5
351
100
AcDbEntity
  8
1
  6
CONTINUOUS
 62
             7
100
AcDbLine
 10
87.0
 20
-31.50000000000006
 11
99.5
 21
-31.50000000000006
  0
LINE
  5
350
100
AcDbEntity
  8
1
  6
CONTINUOUS
 62
             7
100
AcDbLine
 10
99.5
 20
-33.50000000000006
 11
87.0
 21
-33.50000000000006
  0
LINE
  5
34F
100
AcDbEntity
  8
1
  6
CONTINUOUS
 62
             7
100
AcDbLine
 10
99.5
 20
-37.00000000000006
 11
87.0
 21
-37.00000000000006
  0
LINE
  5
34E
100
AcDbEntity
  8
1
  6
CONTINUOUS
 62
             7
100
AcDbLine
 10
87.0
 20
-35.00000000000006
 11
99.5
 21
-35.00000000000006
  0
LINE
  5
34D
100
AcDbEntity
  8
1
  6
CONTINUOUS
 62
             7
100
AcDbLine
 10
112.0
 20
-45.00000000000006
 11
124.5
 21
-45.00000000000006
  0
LINE
  5
34C
100
AcDbEntity
  8
1
  6
CONTINUOUS
 62
             7
100
AcDbLine
 10
124.5
 20
-47.00000000000006
 11
112.0
 21
-47.00000000000006
  0
LINE
  5
34B
100
AcDbEntity
  8
1
  6
CONTINUOUS
 62
             7
100
AcDbLine
 10
144.0
 20
-47.00000000000006
 11
131.5
 21
-47.00000000000006
  0
LINE
  5
34A
100
AcDbEntity
  8
1
  6
CONTINUOUS
 62
             7
100
AcDbLine
 10
131.5
 20
-45.00000000000006
 11
144.0
 21
-45.00000000000006
  0
LINE
  5
349
100
AcDbEntity
  8
1
  6
CONTINUOUS
 62
             7
100
AcDbLine
 10
87.0
 20
-38.50000000000006
 11
99.5
 21
-38.50000000000006
  0
LINE
  5
348
100
AcDbEntity
  8
1
  6
CONTINUOUS
 62
             7
100
AcDbLine
 10
99.5
 20
-40.50000000000006
 11
87.0
 21
-40.50000000000006
  0
LINE
  5
347
100
AcDbEntity
  8
1
  6
CONTINUOUS
 62
             7
100
AcDbLine
 10
131.5
 20
-48.50000000000006
 11
144.0
 21
-48.50000000000006
  0
LINE
  5
346
100
AcDbEntity
  8
1
  6
CONTINUOUS
 62
             7
100
AcDbLine
 10
144.0
 20
-50.50000000000006
 11
131.5
 21
-50.50000000000006
  0
LINE
  5
345
100
AcDbEntity
  8
1
  6
CONTINUOUS
 62
             7
100
AcDbLine
 10
101.5
 20
26.0
 11
149.5
 21
26.0
  0
LINE
  5
344
100
AcDbEntity
  8
1
  6
CONTINUOUS
 62
             7
100
AcDbLine
 10
103.0
 20
-44.00000000000006
 11
149.5
 21
-44.00000000000006
  0
LINE
  5
343
100
AcDbEntity
  8
1
  6
CONTINUOUS
 62
             7
100
AcDbLine
 10
149.5
 20
-44.00000000000006
 11
149.5
 21
26.0
  0
LINE
  5
342
100
AcDbEntity
  8
1
  6
CONTINUOUS
 62
             7
100
AcDbLine
 10
166.0861561236693
 20
-43.26994834709046
 11
165.5
 21
-43.28017974028717
  0
LINE
  5
341
100
AcDbEntity
  8
1
  6
CONTINUOUS
 62
             7
100
AcDbLine
 10
171.0
 20
35.0
 11
165.5
 21
35.0
  0
LINE
  5
340
100
AcDbEntity
  8
1
  6
CONTINUOUS
 62
             7
100
AcDbLine
 10
173.0
 20
-43.14926675332555
 11
171.5
 21
-43.17544935071788
  0
LINE
  5
33F
100
AcDbEntity
  8
1
  6
CONTINUOUS
 62
             7
100
AcDbLine
 10
171.0
 20
-53.00000000000006
 11
165.5
 21
-53.00000000000006
  0
LINE
  5
33E
100
AcDbEntity
  8
1
  6
CONTINUOUS
 62
             7
100
AcDbLine
 10
171.0
 20
-50.41582311681816
 11
171.5
 21
-50.42455064928225
  0
LINE
  5
33D
100
AcDbEntity
  8
1
  6
CONTINUOUS
 62
             7
100
AcDbLine
 10
172.5
 20
36.5
 11
161.5
 21
36.5
  0
LINE
  5
33C
100
AcDbEntity
  8
1
  6
CONTINUOUS
 62
             7
100
AcDbLine
 10
173.0
 20
36.0
 11
172.5
 21
36.5
  0
LINE
  5
33B
100
AcDbEntity
  8
1
  6
CONTINUOUS
 62
             7
100
AcDbLine
 10
173.0
 20
34.5
 11
173.0
 21
36.0
  0
LINE
  5
33A
100
AcDbEntity
  8
1
  6
CONTINUOUS
 62
             7
100
AcDbLine
 10
173.0
 20
-54.00000000000006
 11
173.0
 21
-52.50000000000006
  0
LINE
  5
339
100
AcDbEntity
  8
1
  6
CONTINUOUS
 62
             7
100
AcDbLine
 10
172.5
 20
-54.50000000000006
 11
173.0
 21
-54.00000000000006
  0
LINE
  5
338
100
AcDbEntity
  8
1
  6
CONTINUOUS
 62
             7
100
AcDbLine
 10
161.5
 20
-54.50000000000006
 11
172.5
 21
-54.50000000000006
  0
LINE
  5
337
100
AcDbEntity
  8
1
  6
CONTINUOUS
 62
             7
100
AcDbLine
 10
166.0861561236693
 20
-50.33005165290967
 11
166.0861561236693
 21
-43.26994834709046
  0
LINE
  5
336
100
AcDbEntity
  8
1
  6
CONTINUOUS
 62
             7
100
AcDbLine
 10
171.0
 20
-43.18417688318203
 11
166.0861561236693
 21
-43.26994834709046
  0
LINE
  5
335
100
AcDbEntity
  8
1
  6
CONTINUOUS
 62
             7
100
AcDbLine
 10
171.5
 20
-50.42455064928225
 11
173.0
 21
-50.45073324667459
  0
LINE
  5
334
100
AcDbEntity
  8
1
  6
CONTINUOUS
 62
             7
100
AcDbLine
 10
171.5
 20
-42.02455064928228
 11
173.0
 21
-42.05073324667461
  0
LINE
  5
333
100
AcDbEntity
  8
1
  6
CONTINUOUS
 62
             7
100
AcDbLine
 10
171.0
 20
-34.784176883182
 11
166.0861561236693
 21
-34.86994834709049
  0
LINE
  5
332
100
AcDbEntity
  8
1
  6
CONTINUOUS
 62
             7
100
AcDbLine
 10
166.0861561236693
 20
-41.9300516529097
 11
166.0861561236693
 21
-34.86994834709049
  0
LINE
  5
331
100
AcDbEntity
  8
1
  6
CONTINUOUS
 62
             7
100
AcDbLine
 10
166.0861561236693
 20
-34.86994834709049
 11
165.5
 21
-34.88017974028719
  0
LINE
  5
330
100
AcDbEntity
  8
1
  6
CONTINUOUS
 62
             7
100
AcDbLine
 10
171.0
 20
-42.01582311681813
 11
171.5
 21
-42.02455064928228
  0
LINE
  5
32F
100
AcDbEntity
  8
1
  6
CONTINUOUS
 62
             7
100
AcDbLine
 10
173.0
 20
-34.74926675332557
 11
171.5
 21
-34.77544935071791
  0
LINE
  5
32E
100
AcDbEntity
  8
1
  6
CONTINUOUS
 62
             7
100
AcDbLine
 10
166.0861561236693
 20
-26.46994834709045
 11
165.5
 21
-26.48017974028721
  0
LINE
  5
32D
100
AcDbEntity
  8
1
  6
CONTINUOUS
 62
             7
100
AcDbLine
 10
173.0
 20
-26.34926675332559
 11
171.5
 21
-26.37544935071787
  0
LINE
  5
32C
100
AcDbEntity
  8
1
  6
CONTINUOUS
 62
             7
100
AcDbLine
 10
171.0
 20
-33.61582311681815
 11
171.5
 21
-33.62455064928224
  0
LINE
  5
32B
100
AcDbEntity
  8
1
  6
CONTINUOUS
 62
             7
100
AcDbLine
 10
166.0861561236693
 20
-33.53005165290966
 11
166.0861561236693
 21
-26.46994834709045
  0
LINE
  5
32A
100
AcDbEntity
  8
1
  6
CONTINUOUS
 62
             7
100
AcDbLine
 10
171.0
 20
-26.38417688318202
 11
166.0861561236693
 21
-26.46994834709045
  0
LINE
  5
329
100
AcDbEntity
  8
1
  6
CONTINUOUS
 62
             7
100
AcDbLine
 10
171.5
 20
-33.62455064928224
 11
173.0
 21
-33.65073324667458
  0
LINE
  5
328
100
AcDbEntity
  8
1
  6
CONTINUOUS
 62
             7
100
AcDbLine
 10
171.5
 20
-25.22455064928226
 11
173.0
 21
-25.2507332466746
  0
LINE
  5
327
100
AcDbEntity
  8
1
  6
CONTINUOUS
 62
             7
100
AcDbLine
 10
171.0
 20
-17.98417688318199
 11
166.0861561236693
 21
-18.06994834709047
  0
LINE
  5
326
100
AcDbEntity
  8
1
  6
CONTINUOUS
 62
             7
100
AcDbLine
 10
166.0861561236693
 20
-25.13005165290969
 11
166.0861561236693
 21
-18.06994834709047
  0
LINE
  5
325
100
AcDbEntity
  8
1
  6
CONTINUOUS
 62
             7
100
AcDbLine
 10
166.0861561236693
 20
-18.06994834709047
 11
165.5
 21
-18.08017974028718
  0
LINE
  5
324
100
AcDbEntity
  8
1
  6
CONTINUOUS
 62
             7
100
AcDbLine
 10
171.0
 20
-25.21582311681817
 11
171.5
 21
-25.22455064928226
  0
LINE
  5
323
100
AcDbEntity
  8
1
  6
CONTINUOUS
 62
             7
100
AcDbLine
 10
173.0
 20
-17.94926675332556
 11
171.5
 21
-17.9754493507179
  0
LINE
  5
322
100
AcDbEntity
  8
1
  6
CONTINUOUS
 62
             7
100
AcDbLine
 10
166.0861561236693
 20
-9.6699483470905
 11
165.5
 21
-9.6801797402872
  0
LINE
  5
321
100
AcDbEntity
  8
1
  6
CONTINUOUS
 62
             7
100
AcDbLine
 10
173.0
 20
-9.54926675332558
 11
171.5
 21
-9.57544935071792
  0
LINE
  5
320
100
AcDbEntity
  8
1
  6
CONTINUOUS
 62
             7
100
AcDbLine
 10
171.0
 20
-16.81582311681814
 11
171.5
 21
-16.82455064928223
  0
LINE
  5
31F
100
AcDbEntity
  8
1
  6
CONTINUOUS
 62
             7
100
AcDbLine
 10
166.0861561236693
 20
-16.73005165290971
 11
166.0861561236693
 21
-9.6699483470905
  0
LINE
  5
31E
100
AcDbEntity
  8
1
  6
CONTINUOUS
 62
             7
100
AcDbLine
 10
171.0
 20
-9.58417688318201
 11
166.0861561236693
 21
-9.6699483470905
  0
LINE
  5
31D
100
AcDbEntity
  8
1
  6
CONTINUOUS
 62
             7
100
AcDbLine
 10
171.5
 20
-16.82455064928223
 11
173.0
 21
-16.85073324667457
  0
LINE
  5
31C
100
AcDbEntity
  8
1
  6
CONTINUOUS
 62
             7
100
AcDbLine
 10
171.5
 20
-8.42455064928225
 11
173.0
 21
-8.45073324667459
  0
LINE
  5
31B
100
AcDbEntity
  8
1
  6
CONTINUOUS
 62
             7
100
AcDbLine
 10
171.0
 20
-1.18417688318203
 11
166.0861561236693
 21
-1.26994834709052
  0
LINE
  5
31A
100
AcDbEntity
  8
1
  6
CONTINUOUS
 62
             7
100
AcDbLine
 10
166.0861561236693
 20
-8.33005165290967
 11
166.0861561236693
 21
-1.26994834709052
  0
LINE
  5
319
100
AcDbEntity
  8
1
  6
CONTINUOUS
 62
             7
100
AcDbLine
 10
166.0861561236693
 20
-1.26994834709052
 11
165.5
 21
-1.28017974028722
  0
LINE
  5
318
100
AcDbEntity
  8
1
  6
CONTINUOUS
 62
             7
100
AcDbLine
 10
171.0
 20
-8.41582311681816
 11
171.5
 21
-8.42455064928225
  0
LINE
  5
317
100
AcDbEntity
  8
1
  6
CONTINUOUS
 62
             7
100
AcDbLine
 10
173.0
 20
-1.1492667533256
 11
171.5
 21
-1.17544935071794
  0
LINE
  5
316
100
AcDbEntity
  8
1
  6
CONTINUOUS
 62
             7
100
AcDbLine
 10
166.0861561236693
 20
7.13005165290957
 11
165.5
 21
7.11982025971275
  0
LINE
  5
315
100
AcDbEntity
  8
1
  6
CONTINUOUS
 62
             7
100
AcDbLine
 10
173.0
 20
7.25073324667437
 11
171.5
 21
7.22455064928209
  0
LINE
  5
314
100
AcDbEntity
  8
1
  6
CONTINUOUS
 62
             7
100
AcDbLine
 10
171.0
 20
-0.01582311681813
 11
171.5
 21
-0.02455064928222
  0
LINE
  5
313
100
AcDbEntity
  8
1
  6
CONTINUOUS
 62
             7
100
AcDbLine
 10
166.0861561236693
 20
0.06994834709025
 11
166.0861561236693
 21
7.13005165290957
  0
LINE
  5
312
100
AcDbEntity
  8
1
  6
CONTINUOUS
 62
             7
100
AcDbLine
 10
171.0
 20
7.21582311681794
 11
166.0861561236693
 21
7.13005165290957
  0
LINE
  5
311
100
AcDbEntity
  8
1
  6
CONTINUOUS
 62
             7
100
AcDbLine
 10
171.5
 20
-0.02455064928222
 11
173.0
 21
-0.05073324667461
  0
LINE
  5
310
100
AcDbEntity
  8
1
  6
CONTINUOUS
 62
             7
100
AcDbLine
 10
171.5
 20
8.37544935071776
 11
173.0
 21
8.34926675332537
  0
LINE
  5
30F
100
AcDbEntity
  8
1
  6
CONTINUOUS
 62
             7
100
AcDbLine
 10
171.0
 20
15.61582311681798
 11
166.0861561236693
 21
15.53005165290949
  0
LINE
  5
30E
100
AcDbEntity
  8
1
  6
CONTINUOUS
 62
             7
100
AcDbLine
 10
166.0861561236693
 20
8.46994834709028
 11
166.0861561236693
 21
15.53005165290949
  0
LINE
  5
30D
100
AcDbEntity
  8
1
  6
CONTINUOUS
 62
             7
100
AcDbLine
 10
166.0861561236693
 20
15.53005165290949
 11
165.5
 21
15.51982025971279
  0
LINE
  5
30C
100
AcDbEntity
  8
1
  6
CONTINUOUS
 62
             7
100
AcDbLine
 10
171.0
 20
8.38417688318185
 11
171.5
 21
8.37544935071776
  0
LINE
  5
30B
100
AcDbEntity
  8
1
  6
CONTINUOUS
 62
             7
100
AcDbLine
 10
173.0
 20
15.65073324667441
 11
171.5
 21
15.62455064928207
  0
LINE
  5
30A
100
AcDbEntity
  8
1
  6
CONTINUOUS
 62
             7
100
AcDbLine
 10
166.0861561236693
 20
23.93005165290947
 11
165.5
 21
23.91982025971277
  0
LINE
  5
309
100
AcDbEntity
  8
1
  6
CONTINUOUS
 62
             7
100
AcDbLine
 10
173.0
 20
24.0507332466745
 11
171.5
 21
24.02455064928211
  0
LINE
  5
308
100
AcDbEntity
  8
1
  6
CONTINUOUS
 62
             7
100
AcDbLine
 10
171.0
 20
16.78417688318189
 11
171.5
 21
16.77544935071779
  0
LINE
  5
307
100
AcDbEntity
  8
1
  6
CONTINUOUS
 62
             7
100
AcDbLine
 10
166.0861561236693
 20
16.86994834709026
 11
166.0861561236693
 21
23.93005165290947
  0
LINE
  5
306
100
AcDbEntity
  8
1
  6
CONTINUOUS
 62
             7
100
AcDbLine
 10
171.0
 20
24.01582311681796
 11
166.0861561236693
 21
23.93005165290947
  0
LINE
  5
305
100
AcDbEntity
  8
1
  6
CONTINUOUS
 62
             7
100
AcDbLine
 10
171.5
 20
16.77544935071779
 11
173.0
 21
16.74926675332534
  0
LINE
  5
304
100
AcDbEntity
  8
1
  6
CONTINUOUS
 62
             7
100
AcDbLine
 10
171.5
 20
25.17544935071777
 11
173.0
 21
25.14926675332538
  0
LINE
  5
303
100
AcDbEntity
  8
1
  6
CONTINUOUS
 62
             7
100
AcDbLine
 10
171.0
 20
32.41582311681799
 11
166.0861561236693
 21
32.3300516529095
  0
LINE
  5
302
100
AcDbEntity
  8
1
  6
CONTINUOUS
 62
             7
100
AcDbLine
 10
166.0861561236693
 20
25.26994834709029
 11
166.0861561236693
 21
32.3300516529095
  0
LINE
  5
301
100
AcDbEntity
  8
1
  6
CONTINUOUS
 62
             7
100
AcDbLine
 10
166.0861561236693
 20
32.3300516529095
 11
165.5
 21
32.3198202597128
  0
LINE
  5
300
100
AcDbEntity
  8
1
  6
CONTINUOUS
 62
             7
100
AcDbLine
 10
171.0
 20
25.18417688318186
 11
171.5
 21
25.17544935071777
  0
LINE
  5
2FF
100
AcDbEntity
  8
1
  6
CONTINUOUS
 62
             7
100
AcDbLine
 10
173.0
 20
32.45073324667447
 11
171.5
 21
32.4245506492822
  0
LINE
  5
2FE
100
AcDbEntity
  8
1
  6
CONTINUOUS
 62
             7
100
AcDbLine
 10
173.0
 20
32.45073324667447
 11
173.0
 21
34.5
  0
LINE
  5
2FD
100
AcDbEntity
  8
1
  6
CONTINUOUS
 62
             7
100
AcDbLine
 10
171.0
 20
32.41582311681799
 11
171.0
 21
35.0
  0
LINE
  5
2FC
100
AcDbEntity
  8
1
  6
CONTINUOUS
 62
             7
100
AcDbLine
 10
172.5
 20
35.0
 11
171.0
 21
35.0
  0
LINE
  5
2FB
100
AcDbEntity
  8
1
  6
CONTINUOUS
 62
             7
100
AcDbLine
 10
171.5
 20
32.4245506492822
 11
171.0
 21
32.41582311681799
  0
LINE
  5
2FA
100
AcDbEntity
  8
1
  6
CONTINUOUS
 62
             7
100
AcDbLine
 10
173.0
 20
24.0507332466745
 11
173.0
 21
25.14926675332538
  0
LINE
  5
2F9
100
AcDbEntity
  8
1
  6
CONTINUOUS
 62
             7
100
AcDbLine
 10
171.0
 20
24.01582311681796
 11
171.0
 21
25.18417688318186
  0
LINE
  5
2F8
100
AcDbEntity
  8
1
  6
CONTINUOUS
 62
             7
100
AcDbLine
 10
171.5
 20
24.02455064928211
 11
171.0
 21
24.01582311681796
  0
LINE
  5
2F7
100
AcDbEntity
  8
1
  6
CONTINUOUS
 62
             7
100
AcDbLine
 10
166.0861561236693
 20
25.26994834709029
 11
171.0
 21
25.18417688318186
  0
LINE
  5
2F6
100
AcDbEntity
  8
1
  6
CONTINUOUS
 62
             7
100
AcDbLine
 10
173.0
 20
15.65073324667441
 11
173.0
 21
16.74926675332534
  0
LINE
  5
2F5
100
AcDbEntity
  8
1
  6
CONTINUOUS
 62
             7
100
AcDbLine
 10
171.0
 20
15.61582311681798
 11
171.0
 21
16.78417688318189
  0
LINE
  5
2F4
100
AcDbEntity
  8
1
  6
CONTINUOUS
 62
             7
100
AcDbLine
 10
171.5
 20
15.62455064928207
 11
171.0
 21
15.61582311681798
  0
LINE
  5
2F3
100
AcDbEntity
  8
1
  6
CONTINUOUS
 62
             7
100
AcDbLine
 10
166.0861561236693
 20
16.86994834709026
 11
171.0
 21
16.78417688318189
  0
LINE
  5
2F2
100
AcDbEntity
  8
1
  6
CONTINUOUS
 62
             7
100
AcDbLine
 10
173.0
 20
7.25073324667437
 11
173.0
 21
8.34926675332537
  0
LINE
  5
2F1
100
AcDbEntity
  8
1
  6
CONTINUOUS
 62
             7
100
AcDbLine
 10
171.0
 20
7.21582311681794
 11
171.0
 21
8.38417688318185
  0
LINE
  5
2F0
100
AcDbEntity
  8
1
  6
CONTINUOUS
 62
             7
100
AcDbLine
 10
171.5
 20
7.22455064928209
 11
171.0
 21
7.21582311681794
  0
LINE
  5
2EF
100
AcDbEntity
  8
1
  6
CONTINUOUS
 62
             7
100
AcDbLine
 10
166.0861561236693
 20
8.46994834709028
 11
171.0
 21
8.38417688318185
  0
LINE
  5
2EE
100
AcDbEntity
  8
1
  6
CONTINUOUS
 62
             7
100
AcDbLine
 10
173.0
 20
-1.1492667533256
 11
173.0
 21
-0.05073324667461
  0
LINE
  5
2ED
100
AcDbEntity
  8
1
  6
CONTINUOUS
 62
             7
100
AcDbLine
 10
171.0
 20
-1.18417688318203
 11
171.0
 21
-0.01582311681813
  0
LINE
  5
2EC
100
AcDbEntity
  8
1
  6
CONTINUOUS
 62
             7
100
AcDbLine
 10
171.5
 20
-1.17544935071794
 11
171.0
 21
-1.18417688318203
  0
LINE
  5
2EB
100
AcDbEntity
  8
1
  6
CONTINUOUS
 62
             7
100
AcDbLine
 10
166.0861561236693
 20
0.06994834709025
 11
171.0
 21
-0.01582311681813
  0
LINE
  5
2EA
100
AcDbEntity
  8
1
  6
CONTINUOUS
 62
             7
100
AcDbLine
 10
173.0
 20
-9.54926675332558
 11
173.0
 21
-8.45073324667459
  0
LINE
  5
2E9
100
AcDbEntity
  8
1
  6
CONTINUOUS
 62
             7
100
AcDbLine
 10
171.0
 20
-9.58417688318201
 11
171.0
 21
-8.41582311681816
  0
LINE
  5
2E8
100
AcDbEntity
  8
1
  6
CONTINUOUS
 62
             7
100
AcDbLine
 10
171.5
 20
-9.57544935071792
 11
171.0
 21
-9.58417688318201
  0
LINE
  5
2E7
100
AcDbEntity
  8
1
  6
CONTINUOUS
 62
             7
100
AcDbLine
 10
166.0861561236693
 20
-8.33005165290967
 11
171.0
 21
-8.41582311681816
  0
LINE
  5
2E6
100
AcDbEntity
  8
1
  6
CONTINUOUS
 62
             7
100
AcDbLine
 10
173.0
 20
-17.94926675332556
 11
173.0
 21
-16.85073324667457
  0
LINE
  5
2E5
100
AcDbEntity
  8
1
  6
CONTINUOUS
 62
             7
100
AcDbLine
 10
171.0
 20
-17.98417688318199
 11
171.0
 21
-16.81582311681814
  0
LINE
  5
2E4
100
AcDbEntity
  8
1
  6
CONTINUOUS
 62
             7
100
AcDbLine
 10
171.5
 20
-17.9754493507179
 11
171.0
 21
-17.98417688318199
  0
LINE
  5
2E3
100
AcDbEntity
  8
1
  6
CONTINUOUS
 62
             7
100
AcDbLine
 10
166.0861561236693
 20
-16.73005165290971
 11
171.0
 21
-16.81582311681814
  0
LINE
  5
2E2
100
AcDbEntity
  8
1
  6
CONTINUOUS
 62
             7
100
AcDbLine
 10
173.0
 20
-26.34926675332559
 11
173.0
 21
-25.2507332466746
  0
LINE
  5
2E1
100
AcDbEntity
  8
1
  6
CONTINUOUS
 62
             7
100
AcDbLine
 10
171.0
 20
-26.38417688318202
 11
171.0
 21
-25.21582311681817
  0
LINE
  5
2E0
100
AcDbEntity
  8
1
  6
CONTINUOUS
 62
             7
100
AcDbLine
 10
171.5
 20
-26.37544935071787
 11
171.0
 21
-26.38417688318202
  0
LINE
  5
2DF
100
AcDbEntity
  8
1
  6
CONTINUOUS
 62
             7
100
AcDbLine
 10
166.0861561236693
 20
-25.13005165290969
 11
171.0
 21
-25.21582311681817
  0
LINE
  5
2DE
100
AcDbEntity
  8
1
  6
CONTINUOUS
 62
             7
100
AcDbLine
 10
173.0
 20
-34.74926675332557
 11
173.0
 21
-33.65073324667458
  0
LINE
  5
2DD
100
AcDbEntity
  8
1
  6
CONTINUOUS
 62
             7
100
AcDbLine
 10
171.0
 20
-34.784176883182
 11
171.0
 21
-33.61582311681815
  0
LINE
  5
2DC
100
AcDbEntity
  8
1
  6
CONTINUOUS
 62
             7
100
AcDbLine
 10
171.5
 20
-34.77544935071791
 11
171.0
 21
-34.784176883182
  0
LINE
  5
2DB
100
AcDbEntity
  8
1
  6
CONTINUOUS
 62
             7
100
AcDbLine
 10
166.0861561236693
 20
-33.53005165290966
 11
171.0
 21
-33.61582311681815
  0
LINE
  5
2DA
100
AcDbEntity
  8
1
  6
CONTINUOUS
 62
             7
100
AcDbLine
 10
173.0
 20
-43.14926675332555
 11
173.0
 21
-42.05073324667461
  0
LINE
  5
2D9
100
AcDbEntity
  8
1
  6
CONTINUOUS
 62
             7
100
AcDbLine
 10
171.0
 20
-43.18417688318203
 11
171.0
 21
-42.01582311681813
  0
LINE
  5
2D8
100
AcDbEntity
  8
1
  6
CONTINUOUS
 62
             7
100
AcDbLine
 10
171.5
 20
-43.17544935071788
 11
171.0
 21
-43.18417688318203
  0
LINE
  5
2D7
100
AcDbEntity
  8
1
  6
CONTINUOUS
 62
             7
100
AcDbLine
 10
166.0861561236693
 20
-41.9300516529097
 11
171.0
 21
-42.01582311681813
  0
LINE
  5
2D6
100
AcDbEntity
  8
1
  6
CONTINUOUS
 62
             7
100
AcDbLine
 10
173.0
 20
-52.50000000000006
 11
173.0
 21
-50.45073324667459
  0
LINE
  5
2D5
100
AcDbEntity
  8
1
  6
CONTINUOUS
 62
             7
100
AcDbLine
 10
171.0
 20
-53.00000000000006
 11
171.0
 21
-50.41582311681816
  0
LINE
  5
2D4
100
AcDbEntity
  8
1
  6
CONTINUOUS
 62
             7
100
AcDbLine
 10
172.5
 20
-53.00000000000006
 11
171.0
 21
-53.00000000000006
  0
LINE
  5
2D3
100
AcDbEntity
  8
1
  6
CONTINUOUS
 62
             7
100
AcDbLine
 10
166.0861561236693
 20
-50.33005165290967
 11
171.0
 21
-50.41582311681816
  0
LINE
  5
2D2
100
AcDbEntity
  8
1
  6
CONTINUOUS
 62
             7
100
AcDbLine
 10
101.5
 20
-42.50000000000006
 11
103.0
 21
-44.00000000000006
  0
LINE
  5
2D1
100
AcDbEntity
  8
1
  6
CONTINUOUS
 62
             7
100
AcDbLine
 10
0.49999999999989
 20
-57.0
 11
11.49999999999989
 21
-57.0
  0
LINE
  5
2D0
100
AcDbEntity
  8
1
  6
CONTINUOUS
 62
             7
100
AcDbLine
 10
0.49999999999989
 20
-55.59999999999999
 11
11.49999999999989
 21
-55.59999999999999
  0
LINE
  5
2CF
100
AcDbEntity
  8
1
  6
CONTINUOUS
 62
             7
100
AcDbLine
 10
11.49999999999989
 20
39.0
 11
0.49999999999989
 21
39.0
  0
LINE
  5
2CE
100
AcDbEntity
  8
1
  6
CONTINUOUS
 62
             7
100
AcDbLine
 10
0.49999999999989
 20
37.59999999999999
 11
11.49999999999989
 21
37.59999999999999
  0
LINE
  5
2CD
100
AcDbEntity
  8
1
  6
CONTINUOUS
 62
             7
100
AcDbLine
 10
67.80000000000007
 20
-56.99999999999999
 11
67.80000000000007
 21
39.0
  0
LINE
  5
2CC
100
AcDbEntity
  8
1
  6
CONTINUOUS
 62
             7
100
AcDbLine
 10
-16.00000000000011
 20
-53.5
 11
-16.00000000000011
 21
35.5
  0
LINE
  5
2CB
100
AcDbEntity
  8
1
  6
CONTINUOUS
 62
             7
100
AcDbLine
 10
28.0
 20
-53.5
 11
-16.00000000000011
 21
-53.5
  0
LINE
  5
2CA
100
AcDbEntity
  8
1
  6
CONTINUOUS
 62
             7
100
AcDbLine
 10
28.0
 20
35.5
 11
28.0
 21
-53.5
  0
LINE
  5
2C9
100
AcDbEntity
  8
1
  6
CONTINUOUS
 62
             7
100
AcDbLine
 10
-16.00000000000011
 20
35.5
 11
28.0
 21
35.5
  0
LINE
  5
2C8
100
AcDbEntity
  8
1
  6
CONTINUOUS
 62
             7
100
AcDbLine
 10
30.0
 20
-56.0
 11
30.0
 21
38.0
  0
LINE
  5
2C7
100
AcDbEntity
  8
1
  6
CONTINUOUS
 62
             7
100
AcDbLine
 10
-18.00000000000011
 20
38.0
 11
-17.99999999999999
 21
-56.0
  0
LINE
  5
2C6
100
AcDbEntity
  8
1
  6
CONTINUOUS
 62
             7
100
AcDbLine
 10
-16.99999999999999
 20
39.0
 11
0.49999999999989
 21
39.0
  0
LINE
  5
2C5
100
AcDbEntity
  8
1
  6
CONTINUOUS
 62
             7
100
AcDbLine
 10
11.49999999999989
 20
37.59999999999999
 11
11.49999999999989
 21
39.0
  0
LINE
  5
2C4
100
AcDbEntity
  8
1
  6
CONTINUOUS
 62
             7
100
AcDbLine
 10
11.49999999999989
 20
39.0
 11
29.0
 21
39.0
  0
LINE
  5
2C3
100
AcDbEntity
  8
1
  6
CONTINUOUS
 62
             7
100
AcDbLine
 10
0.49999999999989
 20
37.59999999999999
 11
0.49999999999989
 21
39.0
  0
LINE
  5
2C2
100
AcDbEntity
  8
1
  6
CONTINUOUS
 62
             7
100
AcDbLine
 10
0.49999999999989
 20
-57.0
 11
0.49999999999989
 21
-55.59999999999999
  0
LINE
  5
2C1
100
AcDbEntity
  8
1
  6
CONTINUOUS
 62
             7
100
AcDbLine
 10
11.49999999999989
 20
-57.0
 11
11.49999999999989
 21
-55.59999999999999
  0
LINE
  5
2C0
100
AcDbEntity
  8
1
  6
CONTINUOUS
 62
             7
100
AcDbLine
 10
29.0
 20
-57.0
 11
11.49999999999989
 21
-57.0
  0
LINE
  5
2BF
100
AcDbEntity
  8
1
  6
CONTINUOUS
 62
             7
100
AcDbLine
 10
0.49999999999989
 20
-57.0
 11
-17.00000000000011
 21
-57.0
  0
LINE
  5
2BE
100
AcDbEntity
  8
1
  6
CONTINUOUS
 62
             7
100
AcDbLine
 10
63.46512176312798
 20
38.69687578473223
 11
67.80000000000007
 21
39.0
  0
LINE
  5
2BD
100
AcDbEntity
  8
1
  6
CONTINUOUS
 62
             7
100
AcDbLine
 10
67.80000000000007
 20
-56.99999999999999
 11
63.46512176312798
 21
-56.69687578473221
  0
LINE
  5
2BC
100
AcDbEntity
  8
1
  6
CONTINUOUS
 62
             7
100
AcDbLine
 10
63.00000000000001
 20
38.19809375960232
 11
63.00000000000001
 21
-56.1980937596023
  0
LINE
  5
2BB
100
AcDbEntity
  8
1
  6
CONTINUOUS
 62
             7
100
AcDbLine
 10
21.38010409377051
 20
4.42568851450449
 11
21.6228248978411
 21
7.19999999999982
  0
LINE
  5
2BA
100
AcDbEntity
  8
1
  6
CONTINUOUS
 62
             7
100
AcDbLine
 10
20.16722472699479
 20
4.33086981012195
 11
20.89735474253087
 21
3.28813608377146
  0
LINE
  5
2B9
100
AcDbEntity
  8
1
  6
CONTINUOUS
 62
             7
100
AcDbLine
 10
20.40909434859992
 20
7.09545223551788
 11
20.16722472699479
 21
4.33086981012195
  0
LINE
  5
2B8
100
AcDbEntity
  8
1
  6
CONTINUOUS
 62
             7
100
AcDbLine
 10
20.9135502958585
 20
7.69663942296876
 11
21.6228248978411
 21
7.19999999999982
  0
LINE
  5
2B7
100
AcDbEntity
  8
1
  6
CONTINUOUS
 62
             7
100
AcDbLine
 10
21.81529995759814
 20
9.39999999999981
 11
22.05757937264593
 21
12.16926638587833
  0
LINE
  5
2B6
100
AcDbEntity
  8
1
  6
CONTINUOUS
 62
             7
100
AcDbLine
 10
20.97047318626545
 20
8.80844592623129
 11
21.81529995759814
 21
9.39999999999981
  0
LINE
  5
2B5
100
AcDbEntity
  8
1
  6
CONTINUOUS
 62
             7
100
AcDbLine
 10
20.40909434859992
 20
7.09545223551788
 11
20.9135502958585
 21
7.69663942296876
  0
LINE
  5
2B4
100
AcDbEntity
  8
1
  6
CONTINUOUS
 62
             7
100
AcDbLine
 10
20.60466804462442
 20
9.33086981012198
 11
20.84653766622955
 21
12.09545223551766
  0
LINE
  5
2B3
100
AcDbEntity
  8
1
  6
CONTINUOUS
 62
             7
100
AcDbLine
 10
20.97047318626545
 20
8.80844592623129
 11
20.60466804462442
 21
9.33086981012198
  0
LINE
  5
2B2
100
AcDbEntity
  8
1
  6
CONTINUOUS
 62
             7
100
AcDbLine
 10
20.84653766622955
 20
12.09545223551766
 11
21.76802899267523
 21
13.19364283435363
  0
LINE
  5
2B1
100
AcDbEntity
  8
1
  6
CONTINUOUS
 62
             7
100
AcDbLine
 10
20.56328732550833
 20
13.79999999999981
 11
18.612285302413
 21
13.79999999999981
  0
LINE
  5
2B0
100
AcDbEntity
  8
1
  6
CONTINUOUS
 62
             7
100
AcDbLine
 10
17.64862880585548
 20
13.55253135682131
 11
18.31559844228303
 21
12.59999999999982
  0
LINE
  5
2AF
100
AcDbEntity
  8
1
  6
CONTINUOUS
 62
             7
100
AcDbLine
 10
18.31559844228303
 20
12.59999999999982
 11
20.35611840678524
 21
12.59999999999982
  0
LINE
  5
2AE
100
AcDbEntity
  8
1
  6
CONTINUOUS
 62
             7
100
AcDbLine
 10
20.35611840678524
 20
12.59999999999982
 11
21.23132378080805
 21
13.64302914874924
  0
LINE
  5
2AD
100
AcDbEntity
  8
1
  6
CONTINUOUS
 62
             7
100
AcDbLine
 10
17.08644970414122
 20
8.70336057703111
 11
17.59090565140008
 21
9.30454776448238
  0
LINE
  5
2AC
100
AcDbEntity
  8
1
  6
CONTINUOUS
 62
             7
100
AcDbLine
 10
17.59090565140008
 20
9.30454776448238
 11
17.83277527300521
 21
12.06913018987805
  0
LINE
  5
2AB
100
AcDbEntity
  8
1
  6
CONTINUOUS
 62
             7
100
AcDbLine
 10
17.83277527300521
 20
12.06913018987805
 11
17.10264525746925
 21
13.11186391622832
  0
LINE
  5
2AA
100
AcDbEntity
  8
1
  6
CONTINUOUS
 62
             7
100
AcDbLine
 10
18.08132491084405
 20
8.79999999999981
 11
20.12184487534688
 21
8.79999999999981
  0
LINE
  5
2A9
100
AcDbEntity
  8
1
  6
CONTINUOUS
 62
             7
100
AcDbLine
 10
20.12184487534688
 20
8.79999999999981
 11
20.48745848375205
 21
8.27784965391822
  0
LINE
  5
2A8
100
AcDbEntity
  8
1
  6
CONTINUOUS
 62
             7
100
AcDbLine
 10
20.48745848375205
 20
8.27784965391822
 11
19.9186750891555
 21
7.59999999999982
  0
LINE
  5
2A7
100
AcDbEntity
  8
1
  6
CONTINUOUS
 62
             7
100
AcDbLine
 10
19.9186750891555
 20
7.59999999999982
 11
17.87815512465363
 21
7.59999999999982
  0
LINE
  5
2A6
100
AcDbEntity
  8
1
  6
CONTINUOUS
 62
             7
100
AcDbLine
 10
17.87815512465363
 20
7.59999999999982
 11
17.51254151624806
 21
8.12215034608212
  0
LINE
  5
2A5
100
AcDbEntity
  8
1
  6
CONTINUOUS
 62
             7
100
AcDbLine
 10
17.51254151624806
 20
8.12215034608212
 11
18.08132491084405
 21
8.79999999999981
  0
LINE
  5
2A4
100
AcDbEntity
  8
1
  6
CONTINUOUS
 62
             7
100
AcDbLine
 10
16.61989590622949
 20
11.97431148549515
 11
16.3771751021589
 21
9.19999999999982
  0
LINE
  5
2A3
100
AcDbEntity
  8
1
  6
CONTINUOUS
 62
             7
100
AcDbLine
 10
16.3771751021589
 20
9.19999999999982
 11
17.08644970414122
 21
8.70336057703111
  0
LINE
  5
2A2
100
AcDbEntity
  8
1
  6
CONTINUOUS
 62
             7
100
AcDbLine
 10
16.18470004240186
 20
6.99999999999983
 11
17.02952681373495
 21
7.59155407376861
  0
LINE
  5
2A1
100
AcDbEntity
  8
1
  6
CONTINUOUS
 62
             7
100
AcDbLine
 10
17.02952681373495
 20
7.59155407376861
 11
17.39533195537564
 21
7.06913018987836
  0
LINE
  5
2A0
100
AcDbEntity
  8
1
  6
CONTINUOUS
 62
             7
100
AcDbLine
 10
17.39533195537564
 20
7.06913018987836
 11
17.15346233377051
 21
4.30454776448241
  0
LINE
  5
29F
100
AcDbEntity
  8
1
  6
CONTINUOUS
 62
             7
100
AcDbLine
 10
17.15346233377051
 20
4.30454776448241
 11
16.23197100732466
 21
3.20635716564618
  0
LINE
  5
29E
100
AcDbEntity
  8
1
  6
CONTINUOUS
 62
             7
100
AcDbLine
 10
15.94242062735407
 20
4.23073361412131
 11
16.18470004240186
 21
6.99999999999983
  0
LINE
  5
29D
100
AcDbEntity
  8
1
  6
CONTINUOUS
 62
             7
100
AcDbLine
 10
16.76867621919172
 20
2.75697085125054
 11
17.64388159321442
 21
3.79999999999981
  0
LINE
  5
29C
100
AcDbEntity
  8
1
  6
CONTINUOUS
 62
             7
100
AcDbLine
 10
17.64388159321442
 20
3.79999999999981
 11
19.68440155771725
 21
3.79999999999981
  0
LINE
  5
29B
100
AcDbEntity
  8
1
  6
CONTINUOUS
 62
             7
100
AcDbLine
 10
19.68440155771725
 20
3.79999999999981
 11
20.35137119414463
 21
2.84746864317842
  0
LINE
  5
29A
100
AcDbEntity
  8
1
  6
CONTINUOUS
 62
             7
100
AcDbLine
 10
19.387714697587
 20
2.59999999999982
 11
17.43671267449167
 21
2.59999999999982
  0
LINE
  5
299
100
AcDbEntity
  8
1
  6
CONTINUOUS
 62
             7
100
AcDbLine
 10
12.887714697587
 20
2.59999999999982
 11
10.93671267449167
 21
2.59999999999982
  0
LINE
  5
298
100
AcDbEntity
  8
1
  6
CONTINUOUS
 62
             7
100
AcDbLine
 10
13.18440155771725
 20
3.79999999999981
 11
13.85137119414463
 21
2.84746864317842
  0
LINE
  5
297
100
AcDbEntity
  8
1
  6
CONTINUOUS
 62
             7
100
AcDbLine
 10
11.14388159321442
 20
3.79999999999981
 11
13.18440155771725
 21
3.79999999999981
  0
LINE
  5
296
100
AcDbEntity
  8
1
  6
CONTINUOUS
 62
             7
100
AcDbLine
 10
10.26867621919172
 20
2.75697085125054
 11
11.14388159321442
 21
3.79999999999981
  0
LINE
  5
295
100
AcDbEntity
  8
1
  6
CONTINUOUS
 62
             7
100
AcDbLine
 10
9.44242062735407
 20
4.23073361412131
 11
9.68470004240186
 21
6.99999999999983
  0
LINE
  5
294
100
AcDbEntity
  8
1
  6
CONTINUOUS
 62
             7
100
AcDbLine
 10
10.65346233377051
 20
4.30454776448241
 11
9.73197100732466
 21
3.20635716564618
  0
LINE
  5
293
100
AcDbEntity
  8
1
  6
CONTINUOUS
 62
             7
100
AcDbLine
 10
10.89533195537564
 20
7.06913018987836
 11
10.65346233377051
 21
4.30454776448241
  0
LINE
  5
292
100
AcDbEntity
  8
1
  6
CONTINUOUS
 62
             7
100
AcDbLine
 10
10.52952681373495
 20
7.59155407376861
 11
10.89533195537564
 21
7.06913018987836
  0
LINE
  5
291
100
AcDbEntity
  8
1
  6
CONTINUOUS
 62
             7
100
AcDbLine
 10
9.68470004240186
 20
6.99999999999983
 11
10.52952681373495
 21
7.59155407376861
  0
LINE
  5
290
100
AcDbEntity
  8
1
  6
CONTINUOUS
 62
             7
100
AcDbLine
 10
9.8771751021589
 20
9.19999999999982
 11
10.58644970414122
 21
8.70336057703111
  0
LINE
  5
28F
100
AcDbEntity
  8
1
  6
CONTINUOUS
 62
             7
100
AcDbLine
 10
10.11989590622949
 20
11.97431148549515
 11
9.8771751021589
 21
9.19999999999982
  0
LINE
  5
28E
100
AcDbEntity
  8
1
  6
CONTINUOUS
 62
             7
100
AcDbLine
 10
11.01254151624806
 20
8.12215034608212
 11
11.58132491084405
 21
8.79999999999981
  0
LINE
  5
28D
100
AcDbEntity
  8
1
  6
CONTINUOUS
 62
             7
100
AcDbLine
 10
11.37815512465363
 20
7.59999999999982
 11
11.01254151624806
 21
8.12215034608212
  0
LINE
  5
28C
100
AcDbEntity
  8
1
  6
CONTINUOUS
 62
             7
100
AcDbLine
 10
13.4186750891555
 20
7.59999999999982
 11
11.37815512465363
 21
7.59999999999982
  0
LINE
  5
28B
100
AcDbEntity
  8
1
  6
CONTINUOUS
 62
             7
100
AcDbLine
 10
13.98745848375205
 20
8.27784965391822
 11
13.4186750891555
 21
7.59999999999982
  0
LINE
  5
28A
100
AcDbEntity
  8
1
  6
CONTINUOUS
 62
             7
100
AcDbLine
 10
13.62184487534688
 20
8.79999999999981
 11
13.98745848375205
 21
8.27784965391822
  0
LINE
  5
289
100
AcDbEntity
  8
1
  6
CONTINUOUS
 62
             7
100
AcDbLine
 10
11.58132491084405
 20
8.79999999999981
 11
13.62184487534688
 21
8.79999999999981
  0
LINE
  5
288
100
AcDbEntity
  8
1
  6
CONTINUOUS
 62
             7
100
AcDbLine
 10
11.33277527300521
 20
12.06913018987805
 11
10.60264525746925
 21
13.11186391622832
  0
LINE
  5
287
100
AcDbEntity
  8
1
  6
CONTINUOUS
 62
             7
100
AcDbLine
 10
11.09090565140008
 20
9.30454776448238
 11
11.33277527300521
 21
12.06913018987805
  0
LINE
  5
286
100
AcDbEntity
  8
1
  6
CONTINUOUS
 62
             7
100
AcDbLine
 10
10.58644970414122
 20
8.70336057703111
 11
11.09090565140008
 21
9.30454776448238
  0
LINE
  5
285
100
AcDbEntity
  8
1
  6
CONTINUOUS
 62
             7
100
AcDbLine
 10
13.85611840678524
 20
12.59999999999982
 11
14.73132378080805
 21
13.64302914874924
  0
LINE
  5
284
100
AcDbEntity
  8
1
  6
CONTINUOUS
 62
             7
100
AcDbLine
 10
11.81559844228303
 20
12.59999999999982
 11
13.85611840678524
 21
12.59999999999982
  0
LINE
  5
283
100
AcDbEntity
  8
1
  6
CONTINUOUS
 62
             7
100
AcDbLine
 10
11.14862880585548
 20
13.55253135682131
 11
11.81559844228303
 21
12.59999999999982
  0
LINE
  5
282
100
AcDbEntity
  8
1
  6
CONTINUOUS
 62
             7
100
AcDbLine
 10
14.06328732550833
 20
13.79999999999981
 11
12.112285302413
 21
13.79999999999981
  0
LINE
  5
281
100
AcDbEntity
  8
1
  6
CONTINUOUS
 62
             7
100
AcDbLine
 10
14.34653766622955
 20
12.09545223551766
 11
15.26802899267523
 21
13.19364283435363
  0
LINE
  5
280
100
AcDbEntity
  8
1
  6
CONTINUOUS
 62
             7
100
AcDbLine
 10
14.47047318626545
 20
8.80844592623129
 11
14.10466804462442
 21
9.33086981012198
  0
LINE
  5
27F
100
AcDbEntity
  8
1
  6
CONTINUOUS
 62
             7
100
AcDbLine
 10
14.10466804462442
 20
9.33086981012198
 11
14.34653766622955
 21
12.09545223551766
  0
LINE
  5
27E
100
AcDbEntity
  8
1
  6
CONTINUOUS
 62
             7
100
AcDbLine
 10
13.90909434859992
 20
7.09545223551788
 11
14.4135502958585
 21
7.69663942296876
  0
LINE
  5
27D
100
AcDbEntity
  8
1
  6
CONTINUOUS
 62
             7
100
AcDbLine
 10
14.47047318626545
 20
8.80844592623129
 11
15.31529995759814
 21
9.39999999999981
  0
LINE
  5
27C
100
AcDbEntity
  8
1
  6
CONTINUOUS
 62
             7
100
AcDbLine
 10
15.31529995759814
 20
9.39999999999981
 11
15.55757937264593
 21
12.16926638587833
  0
LINE
  5
27B
100
AcDbEntity
  8
1
  6
CONTINUOUS
 62
             7
100
AcDbLine
 10
14.4135502958585
 20
7.69663942296876
 11
15.1228248978411
 21
7.19999999999982
  0
LINE
  5
27A
100
AcDbEntity
  8
1
  6
CONTINUOUS
 62
             7
100
AcDbLine
 10
13.90909434859992
 20
7.09545223551788
 11
13.66722472699479
 21
4.33086981012195
  0
LINE
  5
279
100
AcDbEntity
  8
1
  6
CONTINUOUS
 62
             7
100
AcDbLine
 10
13.66722472699479
 20
4.33086981012195
 11
14.39735474253081
 21
3.28813608377146
  0
LINE
  5
278
100
AcDbEntity
  8
1
  6
CONTINUOUS
 62
             7
100
AcDbLine
 10
14.88010409377051
 20
4.42568851450449
 11
15.1228248978411
 21
7.19999999999982
  0
LINE
  5
277
100
AcDbEntity
  8
1
  6
CONTINUOUS
 62
             7
100
AcDbLine
 10
6.387714697587
 20
2.59999999999982
 11
4.43671267449167
 21
2.59999999999982
  0
LINE
  5
276
100
AcDbEntity
  8
1
  6
CONTINUOUS
 62
             7
100
AcDbLine
 10
6.68440155771725
 20
3.79999999999981
 11
7.35137119414463
 21
2.84746864317842
  0
LINE
  5
275
100
AcDbEntity
  8
1
  6
CONTINUOUS
 62
             7
100
AcDbLine
 10
4.64388159321442
 20
3.79999999999981
 11
6.68440155771725
 21
3.79999999999981
  0
LINE
  5
274
100
AcDbEntity
  8
1
  6
CONTINUOUS
 62
             7
100
AcDbLine
 10
3.76867621919172
 20
2.75697085125054
 11
4.64388159321442
 21
3.79999999999981
  0
LINE
  5
273
100
AcDbEntity
  8
1
  6
CONTINUOUS
 62
             7
100
AcDbLine
 10
2.94242062735407
 20
4.23073361412131
 11
3.18470004240186
 21
6.99999999999983
  0
LINE
  5
272
100
AcDbEntity
  8
1
  6
CONTINUOUS
 62
             7
100
AcDbLine
 10
4.15346233377051
 20
4.30454776448241
 11
3.23197100732466
 21
3.20635716564618
  0
LINE
  5
271
100
AcDbEntity
  8
1
  6
CONTINUOUS
 62
             7
100
AcDbLine
 10
4.39533195537564
 20
7.06913018987836
 11
4.15346233377051
 21
4.30454776448241
  0
LINE
  5
270
100
AcDbEntity
  8
1
  6
CONTINUOUS
 62
             7
100
AcDbLine
 10
4.02952681373495
 20
7.59155407376861
 11
4.39533195537564
 21
7.06913018987836
  0
LINE
  5
26F
100
AcDbEntity
  8
1
  6
CONTINUOUS
 62
             7
100
AcDbLine
 10
3.18470004240186
 20
6.99999999999983
 11
4.02952681373495
 21
7.59155407376861
  0
LINE
  5
26E
100
AcDbEntity
  8
1
  6
CONTINUOUS
 62
             7
100
AcDbLine
 10
3.3771751021589
 20
9.19999999999982
 11
4.08644970414122
 21
8.70336057703111
  0
LINE
  5
26D
100
AcDbEntity
  8
1
  6
CONTINUOUS
 62
             7
100
AcDbLine
 10
3.61989590622949
 20
11.97431148549515
 11
3.3771751021589
 21
9.19999999999982
  0
LINE
  5
26C
100
AcDbEntity
  8
1
  6
CONTINUOUS
 62
             7
100
AcDbLine
 10
4.51254151624806
 20
8.12215034608212
 11
5.08132491084405
 21
8.79999999999981
  0
LINE
  5
26B
100
AcDbEntity
  8
1
  6
CONTINUOUS
 62
             7
100
AcDbLine
 10
4.87815512465363
 20
7.59999999999982
 11
4.51254151624806
 21
8.12215034608212
  0
LINE
  5
26A
100
AcDbEntity
  8
1
  6
CONTINUOUS
 62
             7
100
AcDbLine
 10
6.91867508915544
 20
7.59999999999982
 11
4.87815512465363
 21
7.59999999999982
  0
LINE
  5
269
100
AcDbEntity
  8
1
  6
CONTINUOUS
 62
             7
100
AcDbLine
 10
7.48745848375205
 20
8.27784965391822
 11
6.91867508915544
 21
7.59999999999982
  0
LINE
  5
268
100
AcDbEntity
  8
1
  6
CONTINUOUS
 62
             7
100
AcDbLine
 10
7.12184487534688
 20
8.79999999999981
 11
7.48745848375205
 21
8.27784965391822
  0
LINE
  5
267
100
AcDbEntity
  8
1
  6
CONTINUOUS
 62
             7
100
AcDbLine
 10
5.08132491084405
 20
8.79999999999981
 11
7.12184487534688
 21
8.79999999999981
  0
LINE
  5
266
100
AcDbEntity
  8
1
  6
CONTINUOUS
 62
             7
100
AcDbLine
 10
4.83277527300521
 20
12.06913018987805
 11
4.10264525746925
 21
13.11186391622832
  0
LINE
  5
265
100
AcDbEntity
  8
1
  6
CONTINUOUS
 62
             7
100
AcDbLine
 10
4.59090565140008
 20
9.30454776448238
 11
4.83277527300521
 21
12.06913018987805
  0
LINE
  5
264
100
AcDbEntity
  8
1
  6
CONTINUOUS
 62
             7
100
AcDbLine
 10
4.08644970414122
 20
8.70336057703111
 11
4.59090565140008
 21
9.30454776448238
  0
LINE
  5
263
100
AcDbEntity
  8
1
  6
CONTINUOUS
 62
             7
100
AcDbLine
 10
7.35611840678524
 20
12.59999999999982
 11
8.23132378080805
 21
13.64302914874924
  0
LINE
  5
262
100
AcDbEntity
  8
1
  6
CONTINUOUS
 62
             7
100
AcDbLine
 10
5.31559844228303
 20
12.59999999999982
 11
7.35611840678524
 21
12.59999999999982
  0
LINE
  5
261
100
AcDbEntity
  8
1
  6
CONTINUOUS
 62
             7
100
AcDbLine
 10
4.64862880585548
 20
13.55253135682131
 11
5.31559844228303
 21
12.59999999999982
  0
LINE
  5
260
100
AcDbEntity
  8
1
  6
CONTINUOUS
 62
             7
100
AcDbLine
 10
7.56328732550833
 20
13.79999999999981
 11
5.612285302413
 21
13.79999999999981
  0
LINE
  5
25F
100
AcDbEntity
  8
1
  6
CONTINUOUS
 62
             7
100
AcDbLine
 10
7.84653766622955
 20
12.09545223551766
 11
8.76802899267523
 21
13.19364283435363
  0
LINE
  5
25E
100
AcDbEntity
  8
1
  6
CONTINUOUS
 62
             7
100
AcDbLine
 10
7.97047318626545
 20
8.80844592623129
 11
7.60466804462442
 21
9.33086981012198
  0
LINE
  5
25D
100
AcDbEntity
  8
1
  6
CONTINUOUS
 62
             7
100
AcDbLine
 10
7.60466804462442
 20
9.33086981012198
 11
7.84653766622955
 21
12.09545223551766
  0
LINE
  5
25C
100
AcDbEntity
  8
1
  6
CONTINUOUS
 62
             7
100
AcDbLine
 10
7.40909434859992
 20
7.09545223551788
 11
7.9135502958585
 21
7.69663942296876
  0
LINE
  5
25B
100
AcDbEntity
  8
1
  6
CONTINUOUS
 62
             7
100
AcDbLine
 10
7.97047318626545
 20
8.80844592623129
 11
8.81529995759814
 21
9.39999999999981
  0
LINE
  5
25A
100
AcDbEntity
  8
1
  6
CONTINUOUS
 62
             7
100
AcDbLine
 10
8.81529995759814
 20
9.39999999999981
 11
9.05757937264593
 21
12.16926638587833
  0
LINE
  5
259
100
AcDbEntity
  8
1
  6
CONTINUOUS
 62
             7
100
AcDbLine
 10
7.9135502958585
 20
7.69663942296876
 11
8.6228248978411
 21
7.19999999999982
  0
LINE
  5
258
100
AcDbEntity
  8
1
  6
CONTINUOUS
 62
             7
100
AcDbLine
 10
7.40909434859992
 20
7.09545223551788
 11
7.16722472699479
 21
4.33086981012195
  0
LINE
  5
257
100
AcDbEntity
  8
1
  6
CONTINUOUS
 62
             7
100
AcDbLine
 10
7.16722472699479
 20
4.33086981012195
 11
7.89735474253081
 21
3.28813608377146
  0
LINE
  5
256
100
AcDbEntity
  8
1
  6
CONTINUOUS
 62
             7
100
AcDbLine
 10
8.38010409377051
 20
4.42568851450449
 11
8.6228248978411
 21
7.19999999999982
  0
LINE
  5
255
100
AcDbEntity
  8
1
  6
CONTINUOUS
 62
             7
100
AcDbLine
 10
-0.112285302413
 20
2.59999999999982
 11
-2.06328732550833
 21
2.59999999999982
  0
LINE
  5
254
100
AcDbEntity
  8
1
  6
CONTINUOUS
 62
             7
100
AcDbLine
 10
0.18440155771725
 20
3.79999999999981
 11
0.85137119414463
 21
2.84746864317842
  0
LINE
  5
253
100
AcDbEntity
  8
1
  6
CONTINUOUS
 62
             7
100
AcDbLine
 10
-1.85611840678558
 20
3.79999999999981
 11
0.18440155771725
 21
3.79999999999981
  0
LINE
  5
252
100
AcDbEntity
  8
1
  6
CONTINUOUS
 62
             7
100
AcDbLine
 10
-2.73132378080828
 20
2.75697085125054
 11
-1.85611840678558
 21
3.79999999999981
  0
LINE
  5
251
100
AcDbEntity
  8
1
  6
CONTINUOUS
 62
             7
100
AcDbLine
 10
-3.55757937264593
 20
4.23073361412131
 11
-3.31529995759814
 21
6.99999999999983
  0
LINE
  5
250
100
AcDbEntity
  8
1
  6
CONTINUOUS
 62
             7
100
AcDbLine
 10
-2.34653766622949
 20
4.30454776448241
 11
-3.26802899267534
 21
3.20635716564618
  0
LINE
  5
24F
100
AcDbEntity
  8
1
  6
CONTINUOUS
 62
             7
100
AcDbLine
 10
-2.10466804462436
 20
7.06913018987836
 11
-2.34653766622949
 21
4.30454776448241
  0
LINE
  5
24E
100
AcDbEntity
  8
1
  6
CONTINUOUS
 62
             7
100
AcDbLine
 10
-2.47047318626505
 20
7.59155407376861
 11
-2.10466804462436
 21
7.06913018987836
  0
LINE
  5
24D
100
AcDbEntity
  8
1
  6
CONTINUOUS
 62
             7
100
AcDbLine
 10
-3.31529995759814
 20
6.99999999999983
 11
-2.47047318626505
 21
7.59155407376861
  0
LINE
  5
24C
100
AcDbEntity
  8
1
  6
CONTINUOUS
 62
             7
100
AcDbLine
 10
-3.1228248978411
 20
9.19999999999982
 11
-2.41355029585878
 21
8.70336057703111
  0
LINE
  5
24B
100
AcDbEntity
  8
1
  6
CONTINUOUS
 62
             7
100
AcDbLine
 10
-2.88010409377051
 20
11.97431148549515
 11
-3.1228248978411
 21
9.19999999999982
  0
LINE
  5
24A
100
AcDbEntity
  8
1
  6
CONTINUOUS
 62
             7
100
AcDbLine
 10
-1.98745848375194
 20
8.12215034608212
 11
-1.41867508915595
 21
8.79999999999981
  0
LINE
  5
249
100
AcDbEntity
  8
1
  6
CONTINUOUS
 62
             7
100
AcDbLine
 10
-1.62184487534637
 20
7.59999999999982
 11
-1.98745848375194
 21
8.12215034608212
  0
LINE
  5
248
100
AcDbEntity
  8
1
  6
CONTINUOUS
 62
             7
100
AcDbLine
 10
0.41867508915544
 20
7.59999999999982
 11
-1.62184487534637
 21
7.59999999999982
  0
LINE
  5
247
100
AcDbEntity
  8
1
  6
CONTINUOUS
 62
             7
100
AcDbLine
 10
0.98745848375205
 20
8.27784965391822
 11
0.41867508915544
 21
7.59999999999982
  0
LINE
  5
246
100
AcDbEntity
  8
1
  6
CONTINUOUS
 62
             7
100
AcDbLine
 10
0.62184487534688
 20
8.79999999999981
 11
0.98745848375205
 21
8.27784965391822
  0
LINE
  5
245
100
AcDbEntity
  8
1
  6
CONTINUOUS
 62
             7
100
AcDbLine
 10
-1.41867508915595
 20
8.79999999999981
 11
0.62184487534688
 21
8.79999999999981
  0
LINE
  5
244
100
AcDbEntity
  8
1
  6
CONTINUOUS
 62
             7
100
AcDbLine
 10
-1.66722472699479
 20
12.06913018987805
 11
-2.39735474253075
 21
13.11186391622832
  0
LINE
  5
243
100
AcDbEntity
  8
1
  6
CONTINUOUS
 62
             7
100
AcDbLine
 10
-1.90909434859992
 20
9.30454776448238
 11
-1.66722472699479
 21
12.06913018987805
  0
LINE
  5
242
100
AcDbEntity
  8
1
  6
CONTINUOUS
 62
             7
100
AcDbLine
 10
-2.41355029585878
 20
8.70336057703111
 11
-1.90909434859992
 21
9.30454776448238
  0
LINE
  5
241
100
AcDbEntity
  8
1
  6
CONTINUOUS
 62
             7
100
AcDbLine
 10
0.85611840678524
 20
12.59999999999982
 11
1.73132378080805
 21
13.64302914874924
  0
LINE
  5
240
100
AcDbEntity
  8
1
  6
CONTINUOUS
 62
             7
100
AcDbLine
 10
-1.18440155771697
 20
12.59999999999982
 11
0.85611840678524
 21
12.59999999999982
  0
LINE
  5
23F
100
AcDbEntity
  8
1
  6
CONTINUOUS
 62
             7
100
AcDbLine
 10
-1.85137119414452
 20
13.55253135682131
 11
-1.18440155771697
 21
12.59999999999982
  0
LINE
  5
23E
100
AcDbEntity
  8
1
  6
CONTINUOUS
 62
             7
100
AcDbLine
 10
1.06328732550833
 20
13.79999999999981
 11
-0.88771469758706
 21
13.79999999999981
  0
LINE
  5
23D
100
AcDbEntity
  8
1
  6
CONTINUOUS
 62
             7
100
AcDbLine
 10
1.34653766622955
 20
12.09545223551766
 11
2.26802899267523
 21
13.19364283435363
  0
LINE
  5
23C
100
AcDbEntity
  8
1
  6
CONTINUOUS
 62
             7
100
AcDbLine
 10
1.47047318626545
 20
8.80844592623129
 11
1.10466804462442
 21
9.33086981012198
  0
LINE
  5
23B
100
AcDbEntity
  8
1
  6
CONTINUOUS
 62
             7
100
AcDbLine
 10
1.10466804462442
 20
9.33086981012198
 11
1.34653766622955
 21
12.09545223551766
  0
LINE
  5
23A
100
AcDbEntity
  8
1
  6
CONTINUOUS
 62
             7
100
AcDbLine
 10
0.90909434859992
 20
7.09545223551788
 11
1.4135502958585
 21
7.69663942296876
  0
LINE
  5
239
100
AcDbEntity
  8
1
  6
CONTINUOUS
 62
             7
100
AcDbLine
 10
1.47047318626545
 20
8.80844592623129
 11
2.31529995759814
 21
9.39999999999981
  0
LINE
  5
238
100
AcDbEntity
  8
1
  6
CONTINUOUS
 62
             7
100
AcDbLine
 10
2.31529995759814
 20
9.39999999999981
 11
2.55757937264593
 21
12.16926638587833
  0
LINE
  5
237
100
AcDbEntity
  8
1
  6
CONTINUOUS
 62
             7
100
AcDbLine
 10
1.4135502958585
 20
7.69663942296876
 11
2.1228248978411
 21
7.19999999999982
  0
LINE
  5
236
100
AcDbEntity
  8
1
  6
CONTINUOUS
 62
             7
100
AcDbLine
 10
0.90909434859992
 20
7.09545223551788
 11
0.66722472699479
 21
4.33086981012195
  0
LINE
  5
235
100
AcDbEntity
  8
1
  6
CONTINUOUS
 62
             7
100
AcDbLine
 10
0.66722472699479
 20
4.33086981012195
 11
1.39735474253081
 21
3.28813608377146
  0
LINE
  5
234
100
AcDbEntity
  8
1
  6
CONTINUOUS
 62
             7
100
AcDbLine
 10
1.88010409377051
 20
4.42568851450449
 11
2.1228248978411
 21
7.19999999999982
  0
LINE
  5
233
100
AcDbEntity
  8
1
  6
CONTINUOUS
 62
             7
100
AcDbLine
 10
1.88010409377051
 20
19.42568851450471
 11
2.1228248978411
 21
22.20000000000002
  0
LINE
  5
232
100
AcDbEntity
  8
1
  6
CONTINUOUS
 62
             7
100
AcDbLine
 10
0.66722472699479
 20
19.33086981012215
 11
1.39735474253081
 21
18.28813608377166
  0
LINE
  5
231
100
AcDbEntity
  8
1
  6
CONTINUOUS
 62
             7
100
AcDbLine
 10
0.90909434859992
 20
22.09545223551808
 11
0.66722472699479
 21
19.33086981012215
  0
LINE
  5
230
100
AcDbEntity
  8
1
  6
CONTINUOUS
 62
             7
100
AcDbLine
 10
1.4135502958585
 20
22.69663942296896
 11
2.1228248978411
 21
22.20000000000002
  0
LINE
  5
22F
100
AcDbEntity
  8
1
  6
CONTINUOUS
 62
             7
100
AcDbLine
 10
2.31529995759814
 20
24.40000000000003
 11
2.55757937264593
 21
27.16926638587853
  0
LINE
  5
22E
100
AcDbEntity
  8
1
  6
CONTINUOUS
 62
             7
100
AcDbLine
 10
1.47047318626545
 20
23.80844592623151
 11
2.31529995759814
 21
24.40000000000003
  0
LINE
  5
22D
100
AcDbEntity
  8
1
  6
CONTINUOUS
 62
             7
100
AcDbLine
 10
0.90909434859992
 20
22.09545223551808
 11
1.4135502958585
 21
22.69663942296896
  0
LINE
  5
22C
100
AcDbEntity
  8
1
  6
CONTINUOUS
 62
             7
100
AcDbLine
 10
1.10466804462442
 20
24.33086981012218
 11
1.34653766622955
 21
27.09545223551788
  0
LINE
  5
22B
100
AcDbEntity
  8
1
  6
CONTINUOUS
 62
             7
100
AcDbLine
 10
1.47047318626545
 20
23.80844592623151
 11
1.10466804462442
 21
24.33086981012218
  0
LINE
  5
22A
100
AcDbEntity
  8
1
  6
CONTINUOUS
 62
             7
100
AcDbLine
 10
1.34653766622955
 20
27.09545223551788
 11
2.26802899267523
 21
28.19364283435385
  0
LINE
  5
229
100
AcDbEntity
  8
1
  6
CONTINUOUS
 62
             7
100
AcDbLine
 10
1.06328732550833
 20
28.80000000000001
 11
-0.88771469758706
 21
28.80000000000001
  0
LINE
  5
228
100
AcDbEntity
  8
1
  6
CONTINUOUS
 62
             7
100
AcDbLine
 10
-1.85137119414452
 20
28.55253135682153
 11
-1.18440155771697
 21
27.60000000000002
  0
LINE
  5
227
100
AcDbEntity
  8
1
  6
CONTINUOUS
 62
             7
100
AcDbLine
 10
-1.18440155771697
 20
27.60000000000002
 11
0.85611840678524
 21
27.60000000000002
  0
LINE
  5
226
100
AcDbEntity
  8
1
  6
CONTINUOUS
 62
             7
100
AcDbLine
 10
0.85611840678524
 20
27.60000000000002
 11
1.73132378080805
 21
28.64302914874941
  0
LINE
  5
225
100
AcDbEntity
  8
1
  6
CONTINUOUS
 62
             7
100
AcDbLine
 10
-2.41355029585878
 20
23.70336057703133
 11
-1.90909434859992
 21
24.30454776448258
  0
LINE
  5
224
100
AcDbEntity
  8
1
  6
CONTINUOUS
 62
             7
100
AcDbLine
 10
-1.90909434859992
 20
24.30454776448258
 11
-1.66722472699479
 21
27.06913018987825
  0
LINE
  5
223
100
AcDbEntity
  8
1
  6
CONTINUOUS
 62
             7
100
AcDbLine
 10
-1.66722472699479
 20
27.06913018987825
 11
-2.39735474253075
 21
28.11186391622852
  0
LINE
  5
222
100
AcDbEntity
  8
1
  6
CONTINUOUS
 62
             7
100
AcDbLine
 10
-1.41867508915595
 20
23.80000000000001
 11
0.62184487534688
 21
23.80000000000001
  0
LINE
  5
221
100
AcDbEntity
  8
1
  6
CONTINUOUS
 62
             7
100
AcDbLine
 10
0.62184487534688
 20
23.80000000000001
 11
0.98745848375205
 21
23.27784965391842
  0
LINE
  5
220
100
AcDbEntity
  8
1
  6
CONTINUOUS
 62
             7
100
AcDbLine
 10
0.98745848375205
 20
23.27784965391842
 11
0.41867508915544
 21
22.60000000000002
  0
LINE
  5
21F
100
AcDbEntity
  8
1
  6
CONTINUOUS
 62
             7
100
AcDbLine
 10
0.41867508915544
 20
22.60000000000002
 11
-1.62184487534637
 21
22.60000000000002
  0
LINE
  5
21E
100
AcDbEntity
  8
1
  6
CONTINUOUS
 62
             7
100
AcDbLine
 10
-1.62184487534637
 20
22.60000000000002
 11
-1.98745848375194
 21
23.12215034608232
  0
LINE
  5
21D
100
AcDbEntity
  8
1
  6
CONTINUOUS
 62
             7
100
AcDbLine
 10
-1.98745848375194
 20
23.12215034608232
 11
-1.41867508915595
 21
23.80000000000001
  0
LINE
  5
21C
100
AcDbEntity
  8
1
  6
CONTINUOUS
 62
             7
100
AcDbLine
 10
-2.88010409377051
 20
26.97431148549535
 11
-3.1228248978411
 21
24.20000000000002
  0
LINE
  5
21B
100
AcDbEntity
  8
1
  6
CONTINUOUS
 62
             7
100
AcDbLine
 10
-3.1228248978411
 20
24.20000000000002
 11
-2.41355029585878
 21
23.70336057703133
  0
LINE
  5
21A
100
AcDbEntity
  8
1
  6
CONTINUOUS
 62
             7
100
AcDbLine
 10
-3.31529995759814
 20
22.00000000000003
 11
-2.47047318626505
 21
22.59155407376881
  0
LINE
  5
219
100
AcDbEntity
  8
1
  6
CONTINUOUS
 62
             7
100
AcDbLine
 10
-2.47047318626505
 20
22.59155407376881
 11
-2.10466804462436
 21
22.06913018987856
  0
LINE
  5
218
100
AcDbEntity
  8
1
  6
CONTINUOUS
 62
             7
100
AcDbLine
 10
-2.10466804462436
 20
22.06913018987856
 11
-2.34653766622949
 21
19.30454776448261
  0
LINE
  5
217
100
AcDbEntity
  8
1
  6
CONTINUOUS
 62
             7
100
AcDbLine
 10
-2.34653766622949
 20
19.30454776448261
 11
-3.26802899267534
 21
18.20635716564638
  0
LINE
  5
216
100
AcDbEntity
  8
1
  6
CONTINUOUS
 62
             7
100
AcDbLine
 10
-3.55757937264593
 20
19.23073361412151
 11
-3.31529995759814
 21
22.00000000000003
  0
LINE
  5
215
100
AcDbEntity
  8
1
  6
CONTINUOUS
 62
             7
100
AcDbLine
 10
-2.73132378080828
 20
17.75697085125074
 11
-1.85611840678558
 21
18.80000000000001
  0
LINE
  5
214
100
AcDbEntity
  8
1
  6
CONTINUOUS
 62
             7
100
AcDbLine
 10
-1.85611840678558
 20
18.80000000000001
 11
0.18440155771725
 21
18.80000000000001
  0
LINE
  5
213
100
AcDbEntity
  8
1
  6
CONTINUOUS
 62
             7
100
AcDbLine
 10
0.18440155771725
 20
18.80000000000001
 11
0.85137119414463
 21
17.84746864317862
  0
LINE
  5
212
100
AcDbEntity
  8
1
  6
CONTINUOUS
 62
             7
100
AcDbLine
 10
-0.112285302413
 20
17.60000000000002
 11
-2.06328732550833
 21
17.60000000000002
  0
LINE
  5
211
100
AcDbEntity
  8
1
  6
CONTINUOUS
 62
             7
100
AcDbLine
 10
8.38010409377051
 20
19.42568851450471
 11
8.6228248978411
 21
22.20000000000002
  0
LINE
  5
210
100
AcDbEntity
  8
1
  6
CONTINUOUS
 62
             7
100
AcDbLine
 10
7.16722472699479
 20
19.33086981012215
 11
7.89735474253081
 21
18.28813608377166
  0
LINE
  5
20F
100
AcDbEntity
  8
1
  6
CONTINUOUS
 62
             7
100
AcDbLine
 10
7.40909434859992
 20
22.09545223551808
 11
7.16722472699479
 21
19.33086981012215
  0
LINE
  5
20E
100
AcDbEntity
  8
1
  6
CONTINUOUS
 62
             7
100
AcDbLine
 10
7.9135502958585
 20
22.69663942296896
 11
8.6228248978411
 21
22.20000000000002
  0
LINE
  5
20D
100
AcDbEntity
  8
1
  6
CONTINUOUS
 62
             7
100
AcDbLine
 10
8.81529995759814
 20
24.40000000000003
 11
9.05757937264593
 21
27.16926638587853
  0
LINE
  5
20C
100
AcDbEntity
  8
1
  6
CONTINUOUS
 62
             7
100
AcDbLine
 10
7.97047318626545
 20
23.80844592623151
 11
8.81529995759814
 21
24.40000000000003
  0
LINE
  5
20B
100
AcDbEntity
  8
1
  6
CONTINUOUS
 62
             7
100
AcDbLine
 10
7.40909434859992
 20
22.09545223551808
 11
7.9135502958585
 21
22.69663942296896
  0
LINE
  5
20A
100
AcDbEntity
  8
1
  6
CONTINUOUS
 62
             7
100
AcDbLine
 10
7.60466804462442
 20
24.33086981012218
 11
7.84653766622955
 21
27.09545223551788
  0
LINE
  5
209
100
AcDbEntity
  8
1
  6
CONTINUOUS
 62
             7
100
AcDbLine
 10
7.97047318626545
 20
23.80844592623151
 11
7.60466804462442
 21
24.33086981012218
  0
LINE
  5
208
100
AcDbEntity
  8
1
  6
CONTINUOUS
 62
             7
100
AcDbLine
 10
7.84653766622955
 20
27.09545223551788
 11
8.76802899267523
 21
28.19364283435385
  0
LINE
  5
207
100
AcDbEntity
  8
1
  6
CONTINUOUS
 62
             7
100
AcDbLine
 10
7.56328732550833
 20
28.80000000000001
 11
5.612285302413
 21
28.80000000000001
  0
LINE
  5
206
100
AcDbEntity
  8
1
  6
CONTINUOUS
 62
             7
100
AcDbLine
 10
4.64862880585548
 20
28.55253135682153
 11
5.31559844228303
 21
27.60000000000002
  0
LINE
  5
205
100
AcDbEntity
  8
1
  6
CONTINUOUS
 62
             7
100
AcDbLine
 10
5.31559844228303
 20
27.60000000000002
 11
7.35611840678524
 21
27.60000000000002
  0
LINE
  5
204
100
AcDbEntity
  8
1
  6
CONTINUOUS
 62
             7
100
AcDbLine
 10
7.35611840678524
 20
27.60000000000002
 11
8.23132378080805
 21
28.64302914874941
  0
LINE
  5
203
100
AcDbEntity
  8
1
  6
CONTINUOUS
 62
             7
100
AcDbLine
 10
4.08644970414122
 20
23.70336057703133
 11
4.59090565140008
 21
24.30454776448258
  0
LINE
  5
202
100
AcDbEntity
  8
1
  6
CONTINUOUS
 62
             7
100
AcDbLine
 10
4.59090565140008
 20
24.30454776448258
 11
4.83277527300521
 21
27.06913018987825
  0
LINE
  5
201
100
AcDbEntity
  8
1
  6
CONTINUOUS
 62
             7
100
AcDbLine
 10
4.83277527300521
 20
27.06913018987825
 11
4.10264525746925
 21
28.11186391622852
  0
LINE
  5
200
100
AcDbEntity
  8
1
  6
CONTINUOUS
 62
             7
100
AcDbLine
 10
5.08132491084405
 20
23.80000000000001
 11
7.12184487534688
 21
23.80000000000001
  0
LINE
  5
1FF
100
AcDbEntity
  8
1
  6
CONTINUOUS
 62
             7
100
AcDbLine
 10
7.12184487534688
 20
23.80000000000001
 11
7.48745848375205
 21
23.27784965391842
  0
LINE
  5
1FE
100
AcDbEntity
  8
1
  6
CONTINUOUS
 62
             7
100
AcDbLine
 10
7.48745848375205
 20
23.27784965391842
 11
6.91867508915544
 21
22.60000000000002
  0
LINE
  5
1FD
100
AcDbEntity
  8
1
  6
CONTINUOUS
 62
             7
100
AcDbLine
 10
6.91867508915544
 20
22.60000000000002
 11
4.87815512465363
 21
22.60000000000002
  0
LINE
  5
1FC
100
AcDbEntity
  8
1
  6
CONTINUOUS
 62
             7
100
AcDbLine
 10
4.87815512465363
 20
22.60000000000002
 11
4.51254151624806
 21
23.12215034608232
  0
LINE
  5
1FB
100
AcDbEntity
  8
1
  6
CONTINUOUS
 62
             7
100
AcDbLine
 10
4.51254151624806
 20
23.12215034608232
 11
5.08132491084405
 21
23.80000000000001
  0
LINE
  5
1FA
100
AcDbEntity
  8
1
  6
CONTINUOUS
 62
             7
100
AcDbLine
 10
3.61989590622949
 20
26.97431148549535
 11
3.3771751021589
 21
24.20000000000002
  0
LINE
  5
1F9
100
AcDbEntity
  8
1
  6
CONTINUOUS
 62
             7
100
AcDbLine
 10
3.3771751021589
 20
24.20000000000002
 11
4.08644970414122
 21
23.70336057703133
  0
LINE
  5
1F8
100
AcDbEntity
  8
1
  6
CONTINUOUS
 62
             7
100
AcDbLine
 10
3.18470004240186
 20
22.00000000000003
 11
4.02952681373495
 21
22.59155407376881
  0
LINE
  5
1F7
100
AcDbEntity
  8
1
  6
CONTINUOUS
 62
             7
100
AcDbLine
 10
4.02952681373495
 20
22.59155407376881
 11
4.39533195537564
 21
22.06913018987856
  0
LINE
  5
1F6
100
AcDbEntity
  8
1
  6
CONTINUOUS
 62
             7
100
AcDbLine
 10
4.39533195537564
 20
22.06913018987856
 11
4.15346233377051
 21
19.30454776448261
  0
LINE
  5
1F5
100
AcDbEntity
  8
1
  6
CONTINUOUS
 62
             7
100
AcDbLine
 10
4.15346233377051
 20
19.30454776448261
 11
3.23197100732466
 21
18.20635716564638
  0
LINE
  5
1F4
100
AcDbEntity
  8
1
  6
CONTINUOUS
 62
             7
100
AcDbLine
 10
2.94242062735407
 20
19.23073361412151
 11
3.18470004240186
 21
22.00000000000003
  0
LINE
  5
1F3
100
AcDbEntity
  8
1
  6
CONTINUOUS
 62
             7
100
AcDbLine
 10
3.76867621919172
 20
17.75697085125074
 11
4.64388159321442
 21
18.80000000000001
  0
LINE
  5
1F2
100
AcDbEntity
  8
1
  6
CONTINUOUS
 62
             7
100
AcDbLine
 10
4.64388159321442
 20
18.80000000000001
 11
6.68440155771725
 21
18.80000000000001
  0
LINE
  5
1F1
100
AcDbEntity
  8
1
  6
CONTINUOUS
 62
             7
100
AcDbLine
 10
6.68440155771725
 20
18.80000000000001
 11
7.35137119414463
 21
17.84746864317862
  0
LINE
  5
1F0
100
AcDbEntity
  8
1
  6
CONTINUOUS
 62
             7
100
AcDbLine
 10
6.387714697587
 20
17.60000000000002
 11
4.43671267449167
 21
17.60000000000002
  0
LINE
  5
1EF
100
AcDbEntity
  8
1
  6
CONTINUOUS
 62
             7
100
AcDbLine
 10
14.88010409377051
 20
19.42568851450471
 11
15.1228248978411
 21
22.20000000000002
  0
LINE
  5
1EE
100
AcDbEntity
  8
1
  6
CONTINUOUS
 62
             7
100
AcDbLine
 10
13.66722472699479
 20
19.33086981012215
 11
14.39735474253081
 21
18.28813608377166
  0
LINE
  5
1ED
100
AcDbEntity
  8
1
  6
CONTINUOUS
 62
             7
100
AcDbLine
 10
13.90909434859992
 20
22.09545223551808
 11
13.66722472699479
 21
19.33086981012215
  0
LINE
  5
1EC
100
AcDbEntity
  8
1
  6
CONTINUOUS
 62
             7
100
AcDbLine
 10
14.4135502958585
 20
22.69663942296896
 11
15.1228248978411
 21
22.20000000000002
  0
LINE
  5
1EB
100
AcDbEntity
  8
1
  6
CONTINUOUS
 62
             7
100
AcDbLine
 10
15.31529995759814
 20
24.40000000000003
 11
15.55757937264593
 21
27.16926638587853
  0
LINE
  5
1EA
100
AcDbEntity
  8
1
  6
CONTINUOUS
 62
             7
100
AcDbLine
 10
14.47047318626545
 20
23.80844592623151
 11
15.31529995759814
 21
24.40000000000003
  0
LINE
  5
1E9
100
AcDbEntity
  8
1
  6
CONTINUOUS
 62
             7
100
AcDbLine
 10
13.90909434859992
 20
22.09545223551808
 11
14.4135502958585
 21
22.69663942296896
  0
LINE
  5
1E8
100
AcDbEntity
  8
1
  6
CONTINUOUS
 62
             7
100
AcDbLine
 10
14.10466804462442
 20
24.33086981012218
 11
14.34653766622955
 21
27.09545223551788
  0
LINE
  5
1E7
100
AcDbEntity
  8
1
  6
CONTINUOUS
 62
             7
100
AcDbLine
 10
14.47047318626545
 20
23.80844592623151
 11
14.10466804462442
 21
24.33086981012218
  0
LINE
  5
1E6
100
AcDbEntity
  8
1
  6
CONTINUOUS
 62
             7
100
AcDbLine
 10
14.34653766622955
 20
27.09545223551788
 11
15.26802899267523
 21
28.19364283435385
  0
LINE
  5
1E5
100
AcDbEntity
  8
1
  6
CONTINUOUS
 62
             7
100
AcDbLine
 10
14.06328732550833
 20
28.80000000000001
 11
12.112285302413
 21
28.80000000000001
  0
LINE
  5
1E4
100
AcDbEntity
  8
1
  6
CONTINUOUS
 62
             7
100
AcDbLine
 10
11.14862880585548
 20
28.55253135682153
 11
11.81559844228303
 21
27.60000000000002
  0
LINE
  5
1E3
100
AcDbEntity
  8
1
  6
CONTINUOUS
 62
             7
100
AcDbLine
 10
11.81559844228303
 20
27.60000000000002
 11
13.85611840678524
 21
27.60000000000002
  0
LINE
  5
1E2
100
AcDbEntity
  8
1
  6
CONTINUOUS
 62
             7
100
AcDbLine
 10
13.85611840678524
 20
27.60000000000002
 11
14.73132378080805
 21
28.64302914874941
  0
LINE
  5
1E1
100
AcDbEntity
  8
1
  6
CONTINUOUS
 62
             7
100
AcDbLine
 10
10.58644970414122
 20
23.70336057703133
 11
11.09090565140008
 21
24.30454776448258
  0
LINE
  5
1E0
100
AcDbEntity
  8
1
  6
CONTINUOUS
 62
             7
100
AcDbLine
 10
11.09090565140008
 20
24.30454776448258
 11
11.33277527300521
 21
27.06913018987825
  0
LINE
  5
1DF
100
AcDbEntity
  8
1
  6
CONTINUOUS
 62
             7
100
AcDbLine
 10
11.33277527300521
 20
27.06913018987825
 11
10.60264525746925
 21
28.11186391622852
  0
LINE
  5
1DE
100
AcDbEntity
  8
1
  6
CONTINUOUS
 62
             7
100
AcDbLine
 10
11.58132491084405
 20
23.80000000000001
 11
13.62184487534688
 21
23.80000000000001
  0
LINE
  5
1DD
100
AcDbEntity
  8
1
  6
CONTINUOUS
 62
             7
100
AcDbLine
 10
13.62184487534688
 20
23.80000000000001
 11
13.98745848375205
 21
23.27784965391842
  0
LINE
  5
1DC
100
AcDbEntity
  8
1
  6
CONTINUOUS
 62
             7
100
AcDbLine
 10
13.98745848375205
 20
23.27784965391842
 11
13.4186750891555
 21
22.60000000000002
  0
LINE
  5
1DB
100
AcDbEntity
  8
1
  6
CONTINUOUS
 62
             7
100
AcDbLine
 10
13.4186750891555
 20
22.60000000000002
 11
11.37815512465363
 21
22.60000000000002
  0
LINE
  5
1DA
100
AcDbEntity
  8
1
  6
CONTINUOUS
 62
             7
100
AcDbLine
 10
11.37815512465363
 20
22.60000000000002
 11
11.01254151624806
 21
23.12215034608232
  0
LINE
  5
1D9
100
AcDbEntity
  8
1
  6
CONTINUOUS
 62
             7
100
AcDbLine
 10
11.01254151624806
 20
23.12215034608232
 11
11.58132491084405
 21
23.80000000000001
  0
LINE
  5
1D8
100
AcDbEntity
  8
1
  6
CONTINUOUS
 62
             7
100
AcDbLine
 10
10.11989590622949
 20
26.97431148549535
 11
9.8771751021589
 21
24.20000000000002
  0
LINE
  5
1D7
100
AcDbEntity
  8
1
  6
CONTINUOUS
 62
             7
100
AcDbLine
 10
9.8771751021589
 20
24.20000000000002
 11
10.58644970414122
 21
23.70336057703133
  0
LINE
  5
1D6
100
AcDbEntity
  8
1
  6
CONTINUOUS
 62
             7
100
AcDbLine
 10
9.68470004240186
 20
22.00000000000003
 11
10.52952681373495
 21
22.59155407376881
  0
LINE
  5
1D5
100
AcDbEntity
  8
1
  6
CONTINUOUS
 62
             7
100
AcDbLine
 10
10.52952681373495
 20
22.59155407376881
 11
10.89533195537564
 21
22.06913018987856
  0
LINE
  5
1D4
100
AcDbEntity
  8
1
  6
CONTINUOUS
 62
             7
100
AcDbLine
 10
10.89533195537564
 20
22.06913018987856
 11
10.65346233377051
 21
19.30454776448261
  0
LINE
  5
1D3
100
AcDbEntity
  8
1
  6
CONTINUOUS
 62
             7
100
AcDbLine
 10
10.65346233377051
 20
19.30454776448261
 11
9.73197100732466
 21
18.20635716564638
  0
LINE
  5
1D2
100
AcDbEntity
  8
1
  6
CONTINUOUS
 62
             7
100
AcDbLine
 10
9.44242062735407
 20
19.23073361412151
 11
9.68470004240186
 21
22.00000000000003
  0
LINE
  5
1D1
100
AcDbEntity
  8
1
  6
CONTINUOUS
 62
             7
100
AcDbLine
 10
10.26867621919172
 20
17.75697085125074
 11
11.14388159321442
 21
18.80000000000001
  0
LINE
  5
1D0
100
AcDbEntity
  8
1
  6
CONTINUOUS
 62
             7
100
AcDbLine
 10
11.14388159321442
 20
18.80000000000001
 11
13.18440155771725
 21
18.80000000000001
  0
LINE
  5
1CF
100
AcDbEntity
  8
1
  6
CONTINUOUS
 62
             7
100
AcDbLine
 10
13.18440155771725
 20
18.80000000000001
 11
13.85137119414463
 21
17.84746864317862
  0
LINE
  5
1CE
100
AcDbEntity
  8
1
  6
CONTINUOUS
 62
             7
100
AcDbLine
 10
12.887714697587
 20
17.60000000000002
 11
10.93671267449167
 21
17.60000000000002
  0
LINE
  5
1CD
100
AcDbEntity
  8
1
  6
CONTINUOUS
 62
             7
100
AcDbLine
 10
19.387714697587
 20
17.60000000000002
 11
17.43671267449167
 21
17.60000000000002
  0
LINE
  5
1CC
100
AcDbEntity
  8
1
  6
CONTINUOUS
 62
             7
100
AcDbLine
 10
19.68440155771725
 20
18.80000000000001
 11
20.35137119414463
 21
17.84746864317862
  0
LINE
  5
1CB
100
AcDbEntity
  8
1
  6
CONTINUOUS
 62
             7
100
AcDbLine
 10
17.64388159321442
 20
18.80000000000001
 11
19.68440155771725
 21
18.80000000000001
  0
LINE
  5
1CA
100
AcDbEntity
  8
1
  6
CONTINUOUS
 62
             7
100
AcDbLine
 10
16.76867621919172
 20
17.75697085125074
 11
17.64388159321442
 21
18.80000000000001
  0
LINE
  5
1C9
100
AcDbEntity
  8
1
  6
CONTINUOUS
 62
             7
100
AcDbLine
 10
15.94242062735407
 20
19.23073361412151
 11
16.18470004240186
 21
22.00000000000003
  0
LINE
  5
1C8
100
AcDbEntity
  8
1
  6
CONTINUOUS
 62
             7
100
AcDbLine
 10
17.15346233377051
 20
19.30454776448261
 11
16.23197100732466
 21
18.20635716564638
  0
LINE
  5
1C7
100
AcDbEntity
  8
1
  6
CONTINUOUS
 62
             7
100
AcDbLine
 10
17.39533195537564
 20
22.06913018987856
 11
17.15346233377051
 21
19.30454776448261
  0
LINE
  5
1C6
100
AcDbEntity
  8
1
  6
CONTINUOUS
 62
             7
100
AcDbLine
 10
17.02952681373495
 20
22.59155407376881
 11
17.39533195537564
 21
22.06913018987856
  0
LINE
  5
1C5
100
AcDbEntity
  8
1
  6
CONTINUOUS
 62
             7
100
AcDbLine
 10
16.18470004240186
 20
22.00000000000003
 11
17.02952681373495
 21
22.59155407376881
  0
LINE
  5
1C4
100
AcDbEntity
  8
1
  6
CONTINUOUS
 62
             7
100
AcDbLine
 10
16.3771751021589
 20
24.20000000000002
 11
17.08644970414122
 21
23.70336057703131
  0
LINE
  5
1C3
100
AcDbEntity
  8
1
  6
CONTINUOUS
 62
             7
100
AcDbLine
 10
16.61989590622949
 20
26.97431148549535
 11
16.3771751021589
 21
24.20000000000002
  0
LINE
  5
1C2
100
AcDbEntity
  8
1
  6
CONTINUOUS
 62
             7
100
AcDbLine
 10
17.51254151624806
 20
23.12215034608232
 11
18.08132491084405
 21
23.80000000000001
  0
LINE
  5
1C1
100
AcDbEntity
  8
1
  6
CONTINUOUS
 62
             7
100
AcDbLine
 10
17.87815512465363
 20
22.60000000000002
 11
17.51254151624806
 21
23.12215034608232
  0
LINE
  5
1C0
100
AcDbEntity
  8
1
  6
CONTINUOUS
 62
             7
100
AcDbLine
 10
19.9186750891555
 20
22.60000000000002
 11
17.87815512465363
 21
22.60000000000002
  0
LINE
  5
1BF
100
AcDbEntity
  8
1
  6
CONTINUOUS
 62
             7
100
AcDbLine
 10
20.48745848375205
 20
23.27784965391842
 11
19.9186750891555
 21
22.60000000000002
  0
LINE
  5
1BE
100
AcDbEntity
  8
1
  6
CONTINUOUS
 62
             7
100
AcDbLine
 10
20.12184487534688
 20
23.80000000000001
 11
20.48745848375205
 21
23.27784965391842
  0
LINE
  5
1BD
100
AcDbEntity
  8
1
  6
CONTINUOUS
 62
             7
100
AcDbLine
 10
18.08132491084405
 20
23.80000000000001
 11
20.12184487534688
 21
23.80000000000001
  0
LINE
  5
1BC
100
AcDbEntity
  8
1
  6
CONTINUOUS
 62
             7
100
AcDbLine
 10
17.83277527300521
 20
27.06913018987825
 11
17.10264525746925
 21
28.11186391622852
  0
LINE
  5
1BB
100
AcDbEntity
  8
1
  6
CONTINUOUS
 62
             7
100
AcDbLine
 10
17.59090565140008
 20
24.30454776448258
 11
17.83277527300521
 21
27.06913018987825
  0
LINE
  5
1BA
100
AcDbEntity
  8
1
  6
CONTINUOUS
 62
             7
100
AcDbLine
 10
17.08644970414122
 20
23.70336057703131
 11
17.59090565140008
 21
24.30454776448258
  0
LINE
  5
1B9
100
AcDbEntity
  8
1
  6
CONTINUOUS
 62
             7
100
AcDbLine
 10
20.35611840678524
 20
27.60000000000002
 11
21.23132378080805
 21
28.64302914874941
  0
LINE
  5
1B8
100
AcDbEntity
  8
1
  6
CONTINUOUS
 62
             7
100
AcDbLine
 10
18.31559844228303
 20
27.60000000000002
 11
20.35611840678524
 21
27.60000000000002
  0
LINE
  5
1B7
100
AcDbEntity
  8
1
  6
CONTINUOUS
 62
             7
100
AcDbLine
 10
17.64862880585548
 20
28.55253135682153
 11
18.31559844228303
 21
27.60000000000002
  0
LINE
  5
1B6
100
AcDbEntity
  8
1
  6
CONTINUOUS
 62
             7
100
AcDbLine
 10
20.56328732550833
 20
28.80000000000001
 11
18.612285302413
 21
28.80000000000001
  0
LINE
  5
1B5
100
AcDbEntity
  8
1
  6
CONTINUOUS
 62
             7
100
AcDbLine
 10
20.0
 20
-41.0
 11
20.0
 21
-43.0
  0
LINE
  5
1B4
100
AcDbEntity
  8
1
  6
CONTINUOUS
 62
             7
100
AcDbLine
 10
20.5
 20
-41.0
 11
20.0
 21
-41.0
  0
LINE
  5
1B3
100
AcDbEntity
  8
1
  6
CONTINUOUS
 62
             7
100
AcDbLine
 10
20.5
 20
-43.0
 11
20.5
 21
-41.0
  0
LINE
  5
1B2
100
AcDbEntity
  8
1
  6
CONTINUOUS
 62
             7
100
AcDbLine
 10
20.0
 20
-43.0
 11
20.5
 21
-43.0
  0
LINE
  5
1B1
100
AcDbEntity
  8
1
  6
CONTINUOUS
 62
             7
100
AcDbLine
 10
9.75
 20
-40.5
 11
11.75
 21
-40.5
  0
LINE
  5
1B0
100
AcDbEntity
  8
1
  6
CONTINUOUS
 62
             7
100
AcDbLine
 10
11.75
 20
-43.5
 11
10.25
 21
-43.5
  0
LINE
  5
1AF
100
AcDbEntity
  8
1
  6
CONTINUOUS
 62
             7
100
AcDbLine
 10
10.25
 20
-43.5
 11
11.25
 21
-42.5
  0
LINE
  5
1AE
100
AcDbEntity
  8
1
  6
CONTINUOUS
 62
             7
100
AcDbLine
 10
11.25
 20
-42.5
 11
11.25
 21
-43.0
  0
LINE
  5
1AD
100
AcDbEntity
  8
1
  6
CONTINUOUS
 62
             7
100
AcDbLine
 10
11.25
 20
-41.0
 11
10.25
 21
-41.0
  0
LINE
  5
1AC
100
AcDbEntity
  8
1
  6
CONTINUOUS
 62
             7
100
AcDbLine
 10
-12.25
 20
-44.5
 11
-12.25
 21
-39.5
  0
LINE
  5
1AB
100
AcDbEntity
  8
1
  6
CONTINUOUS
 62
             7
100
AcDbLine
 10
-8.25
 20
-29.61649281481158
 11
-6.25
 21
-32.0
  0
LINE
  5
1AA
100
AcDbEntity
  8
1
  6
CONTINUOUS
 62
             7
100
AcDbLine
 10
-6.25
 20
-32.0
 11
-10.25
 21
-32.0
  0
LINE
  5
1A9
100
AcDbEntity
  8
1
  6
CONTINUOUS
 62
             7
100
AcDbLine
 10
-10.25
 20
-32.0
 11
-8.25
 21
-29.61649281481158
  0
LINE
  5
1A8
100
AcDbEntity
  8
1
  6
CONTINUOUS
 62
             7
100
AcDbLine
 10
24.25
 20
-33.5
 11
24.25
 21
-28.5
  0
LINE
  5
1A7
100
AcDbEntity
  8
1
  6
CONTINUOUS
 62
             7
100
AcDbLine
 10
1.25
 20
-32.38350718518842
 11
-0.75
 21
-30.0
  0
LINE
  5
1A6
100
AcDbEntity
  8
1
  6
CONTINUOUS
 62
             7
100
AcDbLine
 10
-0.75
 20
-30.0
 11
3.25
 21
-30.0
  0
LINE
  5
1A5
100
AcDbEntity
  8
1
  6
CONTINUOUS
 62
             7
100
AcDbLine
 10
3.25
 20
-30.0
 11
1.25
 21
-32.38350718518842
  0
LINE
  5
1A4
100
AcDbEntity
  8
1
  6
CONTINUOUS
 62
             7
100
AcDbLine
 10
-10.75
 20
-46.0
 11
22.75
 21
-46.0
  0
LINE
  5
1A3
100
AcDbEntity
  8
1
  6
CONTINUOUS
 62
             7
100
AcDbLine
 10
22.75
 20
-38.0
 11
-10.75
 21
-38.0
  0
LINE
  5
1A2
100
AcDbEntity
  8
1
  6
CONTINUOUS
 62
             7
100
AcDbLine
 10
24.25
 20
-39.5
 11
24.25
 21
-44.5
  0
LINE
  5
1A1
100
AcDbEntity
  8
1
  6
CONTINUOUS
 62
             7
100
AcDbLine
 10
-12.25
 20
-28.5
 11
-12.25
 21
-33.5
  0
LINE
  5
1A0
100
AcDbEntity
  8
1
  6
CONTINUOUS
 62
             7
100
AcDbLine
 10
-10.75
 20
-27.0
 11
22.75
 21
-27.0
  0
LINE
  5
19F
100
AcDbEntity
  8
1
  6
CONTINUOUS
 62
             7
100
AcDbLine
 10
22.75
 20
-35.0
 11
-10.75
 21
-35.0
  0
LINE
  5
19E
100
AcDbEntity
  8
1
  6
CONTINUOUS
 62
             7
100
AcDbLine
 10
9.75
 20
-43.5
 11
10.25
 21
-43.0
  0
LINE
  5
19D
100
AcDbEntity
  8
1
  6
CONTINUOUS
 62
             7
100
AcDbLine
 10
-4.69999999999999
 20
-30.69999999999988
 11
-2.30000000000001
 21
-30.69999999999988
  0
LINE
  5
19C
100
AcDbEntity
  8
1
  6
CONTINUOUS
 62
             7
100
AcDbLine
 10
-2.30000000000001
 20
-31.2999999999999
 11
-4.69999999999999
 21
-31.2999999999999
  0
LINE
  5
19B
100
AcDbEntity
  8
1
  6
CONTINUOUS
 62
             7
100
AcDbLine
 10
-2.30000000000001
 20
-30.09999999999991
 11
-4.69999999999999
 21
-30.09999999999991
  0
LINE
  5
19A
100
AcDbEntity
  8
1
  6
CONTINUOUS
 62
             7
100
AcDbLine
 10
-4.69999999999999
 20
-29.49999999999992
 11
-2.30000000000001
 21
-29.49999999999992
  0
LINE
  5
199
100
AcDbEntity
  8
1
  6
CONTINUOUS
 62
             7
100
AcDbLine
 10
-2.30000000000001
 20
-32.49999999999992
 11
-4.69999999999999
 21
-32.49999999999992
  0
LINE
  5
198
100
AcDbEntity
  8
1
  6
CONTINUOUS
 62
             7
100
AcDbLine
 10
-4.69999999999999
 20
-31.89999999999989
 11
-2.30000000000001
 21
-31.89999999999989
  0
LINE
  5
197
100
AcDbEntity
  8
1
  6
CONTINUOUS
 62
             7
100
AcDbLine
 10
4.80000000000001
 20
-31.89999999999989
 11
22.69999999999999
 21
-31.89999999999989
  0
LINE
  5
196
100
AcDbEntity
  8
1
  6
CONTINUOUS
 62
             7
100
AcDbLine
 10
22.69999999999999
 20
-32.49999999999992
 11
4.80000000000001
 21
-32.49999999999992
  0
LINE
  5
195
100
AcDbEntity
  8
1
  6
CONTINUOUS
 62
             7
100
AcDbLine
 10
4.80000000000001
 20
-29.49999999999992
 11
22.69999999999999
 21
-29.49999999999989
  0
LINE
  5
194
100
AcDbEntity
  8
1
  6
CONTINUOUS
 62
             7
100
AcDbLine
 10
22.69999999999999
 20
-30.09999999999991
 11
4.80000000000001
 21
-30.09999999999991
  0
LINE
  5
193
100
AcDbEntity
  8
1
  6
CONTINUOUS
 62
             7
100
AcDbLine
 10
22.69999999999999
 20
-31.2999999999999
 11
4.80000000000001
 21
-31.2999999999999
  0
LINE
  5
192
100
AcDbEntity
  8
1
  6
CONTINUOUS
 62
             7
100
AcDbLine
 10
4.80000000000001
 20
-30.69999999999988
 11
22.69999999999999
 21
-30.69999999999988
  0
LINE
  5
191
100
AcDbEntity
  8
1
  6
CONTINUOUS
 62
             7
100
AcDbLine
 10
-10.69999999999999
 20
-41.69999999999988
 11
7.19999999999999
 21
-41.69999999999988
  0
LINE
  5
190
100
AcDbEntity
  8
1
  6
CONTINUOUS
 62
             7
100
AcDbLine
 10
7.19999999999999
 20
-42.2999999999999
 11
-10.69999999999999
 21
-42.2999999999999
  0
LINE
  5
18F
100
AcDbEntity
  8
1
  6
CONTINUOUS
 62
             7
100
AcDbLine
 10
7.19999999999999
 20
-41.09999999999991
 11
-10.69999999999999
 21
-41.09999999999991
  0
LINE
  5
18E
100
AcDbEntity
  8
1
  6
CONTINUOUS
 62
             7
100
AcDbLine
 10
-10.69999999999999
 20
-40.49999999999992
 11
7.19999999999999
 21
-40.49999999999992
  0
LINE
  5
18D
100
AcDbEntity
  8
1
  6
CONTINUOUS
 62
             7
100
AcDbLine
 10
7.19999999999999
 20
-43.49999999999992
 11
-10.69999999999999
 21
-43.49999999999992
  0
LINE
  5
18C
100
AcDbEntity
  8
1
  6
CONTINUOUS
 62
             7
100
AcDbLine
 10
-10.69999999999999
 20
-42.89999999999989
 11
7.19999999999999
 21
-42.89999999999986
  0
LINE
  5
18B
100
AcDbEntity
  8
1
  6
CONTINUOUS
 62
             7
100
AcDbLine
 10
14.30000000000001
 20
-42.89999999999986
 11
16.69999999999999
 21
-42.89999999999986
  0
LINE
  5
18A
100
AcDbEntity
  8
1
  6
CONTINUOUS
 62
             7
100
AcDbLine
 10
16.69999999999999
 20
-43.49999999999992
 11
14.30000000000001
 21
-43.49999999999992
  0
LINE
  5
189
100
AcDbEntity
  8
1
  6
CONTINUOUS
 62
             7
100
AcDbLine
 10
14.30000000000001
 20
-40.49999999999992
 11
16.69999999999999
 21
-40.49999999999992
  0
LINE
  5
188
100
AcDbEntity
  8
1
  6
CONTINUOUS
 62
             7
100
AcDbLine
 10
16.69999999999999
 20
-41.09999999999991
 11
14.30000000000001
 21
-41.09999999999991
  0
LINE
  5
187
100
AcDbEntity
  8
1
  6
CONTINUOUS
 62
             7
100
AcDbLine
 10
16.69999999999999
 20
-42.2999999999999
 11
14.30000000000001
 21
-42.2999999999999
  0
LINE
  5
186
100
AcDbEntity
  8
1
  6
CONTINUOUS
 62
             7
100
AcDbLine
 10
14.30000000000001
 20
-41.69999999999988
 11
16.69999999999999
 21
-41.69999999999988
  0
LINE
  5
185
100
AcDbEntity
  8
1
  6
CONTINUOUS
 62
             7
100
AcDbLine
 10
26.0
 20
-46.0
 11
26.0
 21
-27.0
  0
LINE
  5
184
100
AcDbEntity
  8
1
  6
CONTINUOUS
 62
             7
100
AcDbLine
 10
-12.0
 20
-48.0
 11
24.0
 21
-48.0
  0
LINE
  5
183
100
AcDbEntity
  8
1
  6
CONTINUOUS
 62
             7
100
AcDbLine
 10
-14.0
 20
-27.0
 11
-14.0
 21
-46.0
  0
LINE
  5
182
100
AcDbEntity
  8
1
  6
CONTINUOUS
 62
             7
100
AcDbLine
 10
24.0
 20
-25.0
 11
-12.0
 21
-25.0
  0
LINE
  5
181
100
AcDbEntity
  8
1
  6
CONTINUOUS
 62
             7
100
AcDbLine
 10
-12.0
 20
-23.0
 11
24.0
 21
-23.0
  0
LINE
  5
180
100
AcDbEntity
  8
1
  6
CONTINUOUS
 62
             7
100
AcDbLine
 10
26.0
 20
-21.0
 11
26.0
 21
31.0
  0
LINE
  5
17F
100
AcDbEntity
  8
1
  6
CONTINUOUS
 62
             7
100
AcDbLine
 10
-14.0
 20
31.0
 11
-14.0
 21
-21.0
  0
LINE
  5
17E
100
AcDbEntity
  8
1
  6
CONTINUOUS
 62
             7
100
AcDbLine
 10
24.0
 20
33.0
 11
-12.0
 21
33.0
  0
LINE
  5
17D
100
AcDbEntity
  8
1
  6
CONTINUOUS
 62
             7
100
AcDbLine
 10
-5.0
 20
-2.40000000000015
 11
-9.0
 21
-2.40000000000015
  0
LINE
  5
17C
100
AcDbEntity
  8
1
  6
CONTINUOUS
 62
             7
100
AcDbLine
 10
21.0
 20
-14.99999999999997
 11
17.0
 21
-14.99999999999997
  0
LINE
  5
17B
100
AcDbEntity
  8
1
  6
CONTINUOUS
 62
             7
100
AcDbLine
 10
14.5
 20
-14.99999999999997
 11
10.5
 21
-14.99999999999997
  0
LINE
  5
17A
100
AcDbEntity
  8
1
  6
CONTINUOUS
 62
             7
100
AcDbLine
 10
1.5
 20
-14.99999999999997
 11
-2.5
 21
-14.99999999999997
  0
LINE
  5
179
100
AcDbEntity
  8
1
  6
CONTINUOUS
 62
             7
100
AcDbLine
 10
-5.0
 20
-14.99999999999997
 11
-9.0
 21
-14.99999999999997
  0
LINE
  5
178
100
AcDbEntity
  8
1
  6
CONTINUOUS
 62
             7
100
AcDbLine
 10
-9.0
 20
-4.40000000000015
 11
-5.0
 21
-4.40000000000015
  0
LINE
  5
177
100
AcDbEntity
  8
1
  6
CONTINUOUS
 62
             7
100
AcDbLine
 10
21.0
 20
-18.39999999999995
 11
17.0
 21
-18.39999999999995
  0
LINE
  5
176
100
AcDbEntity
  8
1
  6
CONTINUOUS
 62
             7
100
AcDbLine
 10
17.0
 20
-16.99999999999997
 11
21.0
 21
-16.99999999999997
  0
LINE
  5
175
100
AcDbEntity
  8
1
  6
CONTINUOUS
 62
             7
100
AcDbLine
 10
14.5
 20
-18.39999999999995
 11
10.5
 21
-18.39999999999995
  0
LINE
  5
174
100
AcDbEntity
  8
1
  6
CONTINUOUS
 62
             7
100
AcDbLine
 10
10.5
 20
-16.99999999999997
 11
14.5
 21
-16.99999999999997
  0
LINE
  5
173
100
AcDbEntity
  8
1
  6
CONTINUOUS
 62
             7
100
AcDbLine
 10
8.0
 20
-18.39999999999995
 11
4.0
 21
-18.39999999999995
  0
LINE
  5
172
100
AcDbEntity
  8
1
  6
CONTINUOUS
 62
             7
100
AcDbLine
 10
-2.5
 20
-16.99999999999997
 11
1.5
 21
-16.99999999999997
  0
LINE
  5
171
100
AcDbEntity
  8
1
  6
CONTINUOUS
 62
             7
100
AcDbLine
 10
-9.0
 20
-16.99999999999997
 11
-5.0
 21
-16.99999999999997
  0
LINE
  5
170
100
AcDbEntity
  8
1
  6
CONTINUOUS
 62
             7
100
AcDbLine
 10
17.0
 20
-20.39999999999995
 11
21.0
 21
-20.39999999999995
  0
LINE
  5
16F
100
AcDbEntity
  8
1
  6
CONTINUOUS
 62
             7
100
AcDbLine
 10
10.5
 20
-20.39999999999995
 11
14.5
 21
-20.39999999999995
  0
LINE
  5
16E
100
AcDbEntity
  8
1
  6
CONTINUOUS
 62
             7
100
AcDbLine
 10
4.0
 20
-20.39999999999995
 11
8.0
 21
-20.39999999999995
  0
LINE
  5
16D
100
AcDbEntity
  8
1
  6
CONTINUOUS
 62
             7
100
AcDbLine
 10
-9.5
 20
-15.49999999999997
 11
-9.5
 21
-16.49999999999997
  0
LINE
  5
16C
100
AcDbEntity
  8
1
  6
CONTINUOUS
 62
             7
100
AcDbLine
 10
-9.5
 20
-2.90000000000015
 11
-9.5
 21
-3.90000000000015
  0
LINE
  5
16B
100
AcDbEntity
  8
1
  6
CONTINUOUS
 62
             7
100
AcDbLine
 10
-3.0
 20
-15.49999999999997
 11
-3.0
 21
-16.49999999999997
  0
LINE
  5
16A
100
AcDbEntity
  8
1
  6
CONTINUOUS
 62
             7
100
AcDbLine
 10
-4.5
 20
-16.49999999999997
 11
-4.5
 21
-15.49999999999997
  0
LINE
  5
169
100
AcDbEntity
  8
1
  6
CONTINUOUS
 62
             7
100
AcDbLine
 10
-4.5
 20
-3.90000000000015
 11
-4.5
 21
-2.90000000000015
  0
LINE
  5
168
100
AcDbEntity
  8
1
  6
CONTINUOUS
 62
             7
100
AcDbLine
 10
2.0
 20
-16.49999999999997
 11
2.0
 21
-15.49999999999997
  0
LINE
  5
167
100
AcDbEntity
  8
1
  6
CONTINUOUS
 62
             7
100
AcDbLine
 10
3.5
 20
-18.89999999999995
 11
3.5
 21
-19.89999999999995
  0
LINE
  5
166
100
AcDbEntity
  8
1
  6
CONTINUOUS
 62
             7
100
AcDbLine
 10
10.0
 20
-18.89999999999995
 11
10.0
 21
-19.89999999999995
  0
LINE
  5
165
100
AcDbEntity
  8
1
  6
CONTINUOUS
 62
             7
100
AcDbLine
 10
10.0
 20
-15.49999999999997
 11
10.0
 21
-16.49999999999997
  0
LINE
  5
164
100
AcDbEntity
  8
1
  6
CONTINUOUS
 62
             7
100
AcDbLine
 10
8.5
 20
-19.89999999999995
 11
8.5
 21
-18.89999999999995
  0
LINE
  5
163
100
AcDbEntity
  8
1
  6
CONTINUOUS
 62
             7
100
AcDbLine
 10
16.5
 20
-18.89999999999995
 11
16.5
 21
-19.89999999999995
  0
LINE
  5
162
100
AcDbEntity
  8
1
  6
CONTINUOUS
 62
             7
100
AcDbLine
 10
16.5
 20
-15.49999999999997
 11
16.5
 21
-16.49999999999997
  0
LINE
  5
161
100
AcDbEntity
  8
1
  6
CONTINUOUS
 62
             7
100
AcDbLine
 10
15.0
 20
-19.89999999999995
 11
15.0
 21
-18.89999999999995
  0
LINE
  5
160
100
AcDbEntity
  8
1
  6
CONTINUOUS
 62
             7
100
AcDbLine
 10
15.0
 20
-16.49999999999997
 11
15.0
 21
-15.49999999999997
  0
LINE
  5
15F
100
AcDbEntity
  8
1
  6
CONTINUOUS
 62
             7
100
AcDbLine
 10
21.5
 20
-19.89999999999995
 11
21.5
 21
-18.89999999999995
  0
LINE
  5
15E
100
AcDbEntity
  8
1
  6
CONTINUOUS
 62
             7
100
AcDbLine
 10
21.5
 20
-16.49999999999997
 11
21.5
 21
-15.49999999999997
  0
LINE
  5
15D
100
AcDbEntity
  8
1
  6
CONTINUOUS
 62
             7
100
AcDbLine
 10
-4.5
 20
-7.30000000000015
 11
-4.5
 21
-6.30000000000015
  0
LINE
  5
15C
100
AcDbEntity
  8
1
  6
CONTINUOUS
 62
             7
100
AcDbLine
 10
-9.5
 20
-6.30000000000015
 11
-9.5
 21
-7.30000000000015
  0
LINE
  5
15B
100
AcDbEntity
  8
1
  6
CONTINUOUS
 62
             7
100
AcDbLine
 10
-9.0
 20
-7.80000000000015
 11
-5.0
 21
-7.80000000000015
  0
LINE
  5
15A
100
AcDbEntity
  8
1
  6
CONTINUOUS
 62
             7
100
AcDbLine
 10
-5.0
 20
-5.80000000000015
 11
-9.0
 21
-5.80000000000015
  0
LINE
  5
159
100
AcDbEntity
  8
1
  6
CONTINUOUS
 62
             7
100
AcDbLine
 10
20.84653766622955
 20
27.09545223551788
 11
21.76802899267523
 21
28.19364283435385
  0
LINE
  5
158
100
AcDbEntity
  8
1
  6
CONTINUOUS
 62
             7
100
AcDbLine
 10
20.97047318626545
 20
23.80844592623151
 11
20.60466804462442
 21
24.33086981012218
  0
LINE
  5
157
100
AcDbEntity
  8
1
  6
CONTINUOUS
 62
             7
100
AcDbLine
 10
20.60466804462442
 20
24.33086981012218
 11
20.84653766622955
 21
27.09545223551788
  0
LINE
  5
156
100
AcDbEntity
  8
1
  6
CONTINUOUS
 62
             7
100
AcDbLine
 10
20.40909434859992
 20
22.09545223551808
 11
20.9135502958585
 21
22.69663942296896
  0
LINE
  5
155
100
AcDbEntity
  8
1
  6
CONTINUOUS
 62
             7
100
AcDbLine
 10
20.97047318626545
 20
23.80844592623151
 11
21.81529995759814
 21
24.40000000000003
  0
LINE
  5
154
100
AcDbEntity
  8
1
  6
CONTINUOUS
 62
             7
100
AcDbLine
 10
21.81529995759814
 20
24.40000000000003
 11
22.05757937264593
 21
27.16926638587853
  0
LINE
  5
153
100
AcDbEntity
  8
1
  6
CONTINUOUS
 62
             7
100
AcDbLine
 10
20.9135502958585
 20
22.69663942296896
 11
21.6228248978411
 21
22.20000000000002
  0
LINE
  5
152
100
AcDbEntity
  8
1
  6
CONTINUOUS
 62
             7
100
AcDbLine
 10
20.40909434859992
 20
22.09545223551808
 11
20.16722472699479
 21
19.33086981012215
  0
LINE
  5
151
100
AcDbEntity
  8
1
  6
CONTINUOUS
 62
             7
100
AcDbLine
 10
20.16722472699479
 20
19.33086981012215
 11
20.89735474253087
 21
18.28813608377166
  0
LINE
  5
150
100
AcDbEntity
  8
1
  6
CONTINUOUS
 62
             7
100
AcDbLine
 10
21.38010409377051
 20
19.42568851450471
 11
21.6228248978411
 21
22.20000000000002
  0
LINE
  5
14F
100
AcDbEntity
  8
1
  6
CONTINUOUS
 62
             7
100
AcDbLine
 10
73.0
 20
39.0
 11
74.5
 21
39.0
  0
LINE
  5
14E
100
AcDbEntity
  8
1
  6
CONTINUOUS
 62
             7
100
AcDbLine
 10
73.0
 20
-57.00000000000006
 11
74.5
 21
-57.00000000000006
  0
LINE
  5
14D
100
AcDbEntity
  8
1
  6
CONTINUOUS
 62
             7
100
AcDbLine
 10
74.5
 20
-57.00000000000006
 11
74.5
 21
39.0
  0
LINE
  5
14C
100
AcDbEntity
  8
0
  6
CONTINUOUS
 62
             7
100
AcDbLine
 10
167.4861561236693
 20
-50.19999999999993
 11
167.4861561236693
 21
-47.68860009363283
  0
LINE
  5
14B
100
AcDbEntity
  8
0
  6
CONTINUOUS
 62
             7
100
AcDbLine
 10
166.4861561236693
 20
-48.5499999999999
 11
166.4861561236693
 21
-47.68860009363283
  0
LINE
  5
14A
100
AcDbEntity
  8
0
  6
CONTINUOUS
 62
             7
100
AcDbLine
 10
166.4861561236693
 20
-45.911399906367
 11
166.4861561236693
 21
-45.0499999999999
  0
LINE
  5
149
100
AcDbEntity
  8
0
  6
CONTINUOUS
 62
             7
100
AcDbLine
 10
167.4861561236693
 20
-50.19999999999993
 11
167.0861561236693
 21
-50.19999999999993
  0
LINE
  5
148
100
AcDbEntity
  8
0
  6
CONTINUOUS
 62
             7
100
AcDbLine
 10
167.4861561236693
 20
-43.39999999999992
 11
167.0861561236693
 21
-43.39999999999992
  0
LINE
  5
147
100
AcDbEntity
  8
0
  6
CONTINUOUS
 62
             7
100
AcDbLine
 10
166.4861561236693
 20
-48.5499999999999
 11
166.0861561236693
 21
-50.19999999999993
  0
LINE
  5
146
100
AcDbEntity
  8
0
  6
CONTINUOUS
 62
             7
100
AcDbLine
 10
167.4861561236693
 20
-48.5499999999999
 11
167.0861561236693
 21
-50.19999999999993
  0
LINE
  5
145
100
AcDbEntity
  8
0
  6
CONTINUOUS
 62
             7
100
AcDbLine
 10
167.4861561236693
 20
-43.39999999999992
 11
167.4861561236693
 21
-45.911399906367
  0
LINE
  5
144
100
AcDbEntity
  8
0
  6
CONTINUOUS
 62
             7
100
AcDbLine
 10
166.0861561236693
 20
-47.39999999999992
 11
166.35638081198701
 21
-47.50133425811904
  0
LINE
  5
143
100
AcDbEntity
  8
0
  6
CONTINUOUS
 62
             7
100
AcDbLine
 10
166.0861561236693
 20
-46.19999999999993
 11
166.35638081198701
 21
-46.09866574188078
  0
LINE
  5
142
100
AcDbEntity
  8
0
  6
CONTINUOUS
 62
             7
100
AcDbLine
 10
167.0861561236693
 20
-47.39999999999992
 11
167.35638081198701
 21
-47.50133425811904
  0
LINE
  5
141
100
AcDbEntity
  8
0
  6
CONTINUOUS
 62
             7
100
AcDbLine
 10
167.0861561236693
 20
-46.19999999999993
 11
167.0861561236693
 21
-47.39999999999992
  0
LINE
  5
140
100
AcDbEntity
  8
0
  6
CONTINUOUS
 62
             7
100
AcDbLine
 10
167.0861561236693
 20
-46.19999999999993
 11
167.35638081198701
 21
-46.09866574188078
  0
LINE
  5
13F
100
AcDbEntity
  8
0
  6
CONTINUOUS
 62
             7
100
AcDbLine
 10
166.0861561236693
 20
-43.39999999999992
 11
166.4861561236693
 21
-45.0499999999999
  0
LINE
  5
13E
100
AcDbEntity
  8
0
  6
CONTINUOUS
 62
             7
100
AcDbLine
 10
167.0861561236693
 20
-43.39999999999992
 11
167.4861561236693
 21
-45.0499999999999
  0
LINE
  5
13D
100
AcDbEntity
  8
0
  6
CONTINUOUS
 62
             7
100
AcDbLine
 10
167.0861561236693
 20
-50.19999999999993
 11
166.0861561236693
 21
-50.19999999999993
  0
LINE
  5
13C
100
AcDbEntity
  8
0
  6
CONTINUOUS
 62
             7
100
AcDbLine
 10
167.0861561236693
 20
-43.39999999999992
 11
166.0861561236693
 21
-43.39999999999992
  0
LINE
  5
13B
100
AcDbEntity
  8
0
  6
CONTINUOUS
 62
             7
100
AcDbLine
 10
168.22527626529379
 20
-49.5499999999999
 11
167.4861561236693
 21
-49.5499999999999
  0
LINE
  5
13A
100
AcDbEntity
  8
0
  6
CONTINUOUS
 62
             7
100
AcDbLine
 10
167.4861561236693
 20
-44.0499999999999
 11
168.22527626529379
 21
-44.0499999999999
  0
LINE
  5
139
100
AcDbEntity
  8
0
  6
CONTINUOUS
 62
             7
100
AcDbLine
 10
167.4861561236693
 20
-45.911399906367
 11
167.4861561236693
 21
-47.68860009363283
  0
LINE
  5
138
100
AcDbEntity
  8
0
  6
CONTINUOUS
 62
             7
100
AcDbLine
 10
167.4861561236693
 20
-41.79999999999995
 11
167.4861561236693
 21
-39.28860009363285
  0
LINE
  5
137
100
AcDbEntity
  8
0
  6
CONTINUOUS
 62
             7
100
AcDbLine
 10
166.4861561236693
 20
-40.14999999999992
 11
166.4861561236693
 21
-39.28860009363285
  0
LINE
  5
136
100
AcDbEntity
  8
0
  6
CONTINUOUS
 62
             7
100
AcDbLine
 10
166.4861561236693
 20
-37.51139990636699
 11
166.4861561236693
 21
-36.64999999999992
  0
LINE
  5
135
100
AcDbEntity
  8
0
  6
CONTINUOUS
 62
             7
100
AcDbLine
 10
167.4861561236693
 20
-41.79999999999995
 11
167.0861561236693
 21
-41.79999999999995
  0
LINE
  5
134
100
AcDbEntity
  8
0
  6
CONTINUOUS
 62
             7
100
AcDbLine
 10
167.4861561236693
 20
-34.99999999999991
 11
167.0861561236693
 21
-34.99999999999991
  0
LINE
  5
133
100
AcDbEntity
  8
0
  6
CONTINUOUS
 62
             7
100
AcDbLine
 10
166.4861561236693
 20
-40.14999999999992
 11
166.0861561236693
 21
-41.79999999999995
  0
LINE
  5
132
100
AcDbEntity
  8
0
  6
CONTINUOUS
 62
             7
100
AcDbLine
 10
167.4861561236693
 20
-40.14999999999992
 11
167.0861561236693
 21
-41.79999999999995
  0
LINE
  5
131
100
AcDbEntity
  8
0
  6
CONTINUOUS
 62
             7
100
AcDbLine
 10
167.4861561236693
 20
-34.99999999999991
 11
167.4861561236693
 21
-37.51139990636699
  0
LINE
  5
130
100
AcDbEntity
  8
0
  6
CONTINUOUS
 62
             7
100
AcDbLine
 10
166.0861561236693
 20
-38.99999999999991
 11
166.35638081198701
 21
-39.10133425811904
  0
LINE
  5
12F
100
AcDbEntity
  8
0
  6
CONTINUOUS
 62
             7
100
AcDbLine
 10
166.0861561236693
 20
-37.79999999999995
 11
166.35638081198701
 21
-37.6986657418808
  0
LINE
  5
12E
100
AcDbEntity
  8
0
  6
CONTINUOUS
 62
             7
100
AcDbLine
 10
167.0861561236693
 20
-38.99999999999991
 11
167.35638081198701
 21
-39.10133425811904
  0
LINE
  5
12D
100
AcDbEntity
  8
0
  6
CONTINUOUS
 62
             7
100
AcDbLine
 10
167.0861561236693
 20
-37.79999999999995
 11
167.0861561236693
 21
-38.99999999999991
  0
LINE
  5
12C
100
AcDbEntity
  8
0
  6
CONTINUOUS
 62
             7
100
AcDbLine
 10
167.0861561236693
 20
-37.79999999999995
 11
167.35638081198701
 21
-37.6986657418808
  0
LINE
  5
12B
100
AcDbEntity
  8
0
  6
CONTINUOUS
 62
             7
100
AcDbLine
 10
166.0861561236693
 20
-34.99999999999991
 11
166.4861561236693
 21
-36.64999999999992
  0
LINE
  5
12A
100
AcDbEntity
  8
0
  6
CONTINUOUS
 62
             7
100
AcDbLine
 10
167.0861561236693
 20
-34.99999999999991
 11
167.4861561236693
 21
-36.64999999999992
  0
LINE
  5
129
100
AcDbEntity
  8
0
  6
CONTINUOUS
 62
             7
100
AcDbLine
 10
167.0861561236693
 20
-41.79999999999995
 11
166.0861561236693
 21
-41.79999999999995
  0
LINE
  5
128
100
AcDbEntity
  8
0
  6
CONTINUOUS
 62
             7
100
AcDbLine
 10
167.0861561236693
 20
-34.99999999999991
 11
166.0861561236693
 21
-34.99999999999991
  0
LINE
  5
127
100
AcDbEntity
  8
0
  6
CONTINUOUS
 62
             7
100
AcDbLine
 10
168.22527626529379
 20
-41.14999999999992
 11
167.4861561236693
 21
-41.14999999999992
  0
LINE
  5
126
100
AcDbEntity
  8
0
  6
CONTINUOUS
 62
             7
100
AcDbLine
 10
167.4861561236693
 20
-35.64999999999992
 11
168.22527626529379
 21
-35.64999999999992
  0
LINE
  5
125
100
AcDbEntity
  8
0
  6
CONTINUOUS
 62
             7
100
AcDbLine
 10
167.4861561236693
 20
-37.51139990636699
 11
167.4861561236693
 21
-39.28860009363285
  0
LINE
  5
124
100
AcDbEntity
  8
0
  6
CONTINUOUS
 62
             7
100
AcDbLine
 10
167.4861561236693
 20
-33.39999999999998
 11
167.4861561236693
 21
-30.88860009363287
  0
LINE
  5
123
100
AcDbEntity
  8
0
  6
CONTINUOUS
 62
             7
100
AcDbLine
 10
166.4861561236693
 20
-31.74999999999994
 11
166.4861561236693
 21
-30.88860009363287
  0
LINE
  5
122
100
AcDbEntity
  8
0
  6
CONTINUOUS
 62
             7
100
AcDbLine
 10
166.4861561236693
 20
-29.11139990636701
 11
166.4861561236693
 21
-28.24999999999994
  0
LINE
  5
121
100
AcDbEntity
  8
0
  6
CONTINUOUS
 62
             7
100
AcDbLine
 10
167.4861561236693
 20
-33.39999999999998
 11
167.0861561236693
 21
-33.39999999999998
  0
LINE
  5
120
100
AcDbEntity
  8
0
  6
CONTINUOUS
 62
             7
100
AcDbLine
 10
167.4861561236693
 20
-26.59999999999997
 11
167.0861561236693
 21
-26.59999999999997
  0
LINE
  5
11F
100
AcDbEntity
  8
0
  6
CONTINUOUS
 62
             7
100
AcDbLine
 10
166.4861561236693
 20
-31.74999999999994
 11
166.0861561236693
 21
-33.39999999999998
  0
LINE
  5
11E
100
AcDbEntity
  8
0
  6
CONTINUOUS
 62
             7
100
AcDbLine
 10
167.4861561236693
 20
-31.74999999999994
 11
167.0861561236693
 21
-33.39999999999998
  0
LINE
  5
11D
100
AcDbEntity
  8
0
  6
CONTINUOUS
 62
             7
100
AcDbLine
 10
167.4861561236693
 20
-26.59999999999997
 11
167.4861561236693
 21
-29.11139990636701
  0
LINE
  5
11C
100
AcDbEntity
  8
0
  6
CONTINUOUS
 62
             7
100
AcDbLine
 10
166.0861561236693
 20
-30.59999999999997
 11
166.35638081198701
 21
-30.70133425811906
  0
LINE
  5
11B
100
AcDbEntity
  8
0
  6
CONTINUOUS
 62
             7
100
AcDbLine
 10
166.0861561236693
 20
-29.39999999999998
 11
166.35638081198701
 21
-29.29866574188082
  0
LINE
  5
11A
100
AcDbEntity
  8
0
  6
CONTINUOUS
 62
             7
100
AcDbLine
 10
167.0861561236693
 20
-30.59999999999997
 11
167.35638081198701
 21
-30.70133425811906
  0
LINE
  5
119
100
AcDbEntity
  8
0
  6
CONTINUOUS
 62
             7
100
AcDbLine
 10
167.0861561236693
 20
-29.39999999999998
 11
167.0861561236693
 21
-30.59999999999997
  0
LINE
  5
118
100
AcDbEntity
  8
0
  6
CONTINUOUS
 62
             7
100
AcDbLine
 10
167.0861561236693
 20
-29.39999999999998
 11
167.35638081198701
 21
-29.29866574188082
  0
LINE
  5
117
100
AcDbEntity
  8
0
  6
CONTINUOUS
 62
             7
100
AcDbLine
 10
166.0861561236693
 20
-26.59999999999997
 11
166.4861561236693
 21
-28.24999999999994
  0
LINE
  5
116
100
AcDbEntity
  8
0
  6
CONTINUOUS
 62
             7
100
AcDbLine
 10
167.0861561236693
 20
-26.59999999999997
 11
167.4861561236693
 21
-28.24999999999994
  0
LINE
  5
115
100
AcDbEntity
  8
0
  6
CONTINUOUS
 62
             7
100
AcDbLine
 10
167.0861561236693
 20
-33.39999999999998
 11
166.0861561236693
 21
-33.39999999999998
  0
LINE
  5
114
100
AcDbEntity
  8
0
  6
CONTINUOUS
 62
             7
100
AcDbLine
 10
167.0861561236693
 20
-26.59999999999997
 11
166.0861561236693
 21
-26.59999999999997
  0
LINE
  5
113
100
AcDbEntity
  8
0
  6
CONTINUOUS
 62
             7
100
AcDbLine
 10
168.22527626529379
 20
-32.74999999999994
 11
167.4861561236693
 21
-32.74999999999994
  0
LINE
  5
112
100
AcDbEntity
  8
0
  6
CONTINUOUS
 62
             7
100
AcDbLine
 10
167.4861561236693
 20
-27.24999999999994
 11
168.22527626529379
 21
-27.24999999999994
  0
LINE
  5
111
100
AcDbEntity
  8
0
  6
CONTINUOUS
 62
             7
100
AcDbLine
 10
167.4861561236693
 20
-29.11139990636701
 11
167.4861561236693
 21
-30.88860009363287
  0
LINE
  5
110
100
AcDbEntity
  8
0
  6
CONTINUOUS
 62
             7
100
AcDbLine
 10
167.4861561236693
 20
-24.99999999999997
 11
167.4861561236693
 21
-22.48860009363293
  0
LINE
  5
10F
100
AcDbEntity
  8
0
  6
CONTINUOUS
 62
             7
100
AcDbLine
 10
166.4861561236693
 20
-23.34999999999999
 11
166.4861561236693
 21
-22.48860009363293
  0
LINE
  5
10E
100
AcDbEntity
  8
0
  6
CONTINUOUS
 62
             7
100
AcDbLine
 10
166.4861561236693
 20
-20.71139990636703
 11
166.4861561236693
 21
-19.84999999999999
  0
LINE
  5
10D
100
AcDbEntity
  8
0
  6
CONTINUOUS
 62
             7
100
AcDbLine
 10
167.4861561236693
 20
-24.99999999999997
 11
167.0861561236693
 21
-24.99999999999997
  0
LINE
  5
10C
100
AcDbEntity
  8
0
  6
CONTINUOUS
 62
             7
100
AcDbLine
 10
167.4861561236693
 20
-18.19999999999996
 11
167.0861561236693
 21
-18.19999999999996
  0
LINE
  5
10B
100
AcDbEntity
  8
0
  6
CONTINUOUS
 62
             7
100
AcDbLine
 10
166.4861561236693
 20
-23.34999999999999
 11
166.0861561236693
 21
-24.99999999999997
  0
LINE
  5
10A
100
AcDbEntity
  8
0
  6
CONTINUOUS
 62
             7
100
AcDbLine
 10
167.4861561236693
 20
-23.34999999999999
 11
167.0861561236693
 21
-24.99999999999997
  0
LINE
  5
109
100
AcDbEntity
  8
0
  6
CONTINUOUS
 62
             7
100
AcDbLine
 10
167.4861561236693
 20
-18.19999999999996
 11
167.4861561236693
 21
-20.71139990636703
  0
LINE
  5
108
100
AcDbEntity
  8
0
  6
CONTINUOUS
 62
             7
100
AcDbLine
 10
166.0861561236693
 20
-22.19999999999996
 11
166.35638081198701
 21
-22.30133425811908
  0
LINE
  5
107
100
AcDbEntity
  8
0
  6
CONTINUOUS
 62
             7
100
AcDbLine
 10
166.0861561236693
 20
-20.99999999999997
 11
166.35638081198701
 21
-20.89866574188082
  0
LINE
  5
106
100
AcDbEntity
  8
0
  6
CONTINUOUS
 62
             7
100
AcDbLine
 10
167.0861561236693
 20
-22.19999999999996
 11
167.35638081198701
 21
-22.30133425811908
  0
LINE
  5
105
100
AcDbEntity
  8
0
  6
CONTINUOUS
 62
             7
100
AcDbLine
 10
167.0861561236693
 20
-20.99999999999997
 11
167.0861561236693
 21
-22.19999999999996
  0
LINE
  5
104
100
AcDbEntity
  8
0
  6
CONTINUOUS
 62
             7
100
AcDbLine
 10
167.0861561236693
 20
-20.99999999999997
 11
167.35638081198701
 21
-20.89866574188082
  0
LINE
  5
103
100
AcDbEntity
  8
0
  6
CONTINUOUS
 62
             7
100
AcDbLine
 10
166.0861561236693
 20
-18.19999999999996
 11
166.4861561236693
 21
-19.84999999999999
  0
LINE
  5
102
100
AcDbEntity
  8
0
  6
CONTINUOUS
 62
             7
100
AcDbLine
 10
167.0861561236693
 20
-18.19999999999996
 11
167.4861561236693
 21
-19.84999999999999
  0
LINE
  5
101
100
AcDbEntity
  8
0
  6
CONTINUOUS
 62
             7
100
AcDbLine
 10
167.0861561236693
 20
-24.99999999999997
 11
166.0861561236693
 21
-24.99999999999997
  0
LINE
  5
100
100
AcDbEntity
  8
0
  6
CONTINUOUS
 62
             7
100
AcDbLine
 10
167.0861561236693
 20
-18.19999999999996
 11
166.0861561236693
 21
-18.19999999999996
  0
LINE
  5
FF
100
AcDbEntity
  8
0
  6
CONTINUOUS
 62
             7
100
AcDbLine
 10
168.22527626529379
 20
-24.34999999999999
 11
167.4861561236693
 21
-24.34999999999999
  0
LINE
  5
FE
100
AcDbEntity
  8
0
  6
CONTINUOUS
 62
             7
100
AcDbLine
 10
167.4861561236693
 20
-18.84999999999999
 11
168.22527626529379
 21
-18.84999999999999
  0
LINE
  5
FD
100
AcDbEntity
  8
0
  6
CONTINUOUS
 62
             7
100
AcDbLine
 10
167.4861561236693
 20
-20.71139990636703
 11
167.4861561236693
 21
-22.48860009363293
  0
LINE
  5
FC
100
AcDbEntity
  8
0
  6
CONTINUOUS
 62
             7
100
AcDbLine
 10
167.4861561236693
 20
-16.59999999999999
 11
167.4861561236693
 21
-14.08860009363295
  0
LINE
  5
FB
100
AcDbEntity
  8
0
  6
CONTINUOUS
 62
             7
100
AcDbLine
 10
166.4861561236693
 20
-14.95000000000002
 11
166.4861561236693
 21
-14.08860009363295
  0
LINE
  5
FA
100
AcDbEntity
  8
0
  6
CONTINUOUS
 62
             7
100
AcDbLine
 10
166.4861561236693
 20
-12.31139990636709
 11
166.4861561236693
 21
-11.45000000000002
  0
LINE
  5
F9
100
AcDbEntity
  8
0
  6
CONTINUOUS
 62
             7
100
AcDbLine
 10
167.4861561236693
 20
-16.59999999999999
 11
167.0861561236693
 21
-16.59999999999999
  0
LINE
  5
F8
100
AcDbEntity
  8
0
  6
CONTINUOUS
 62
             7
100
AcDbLine
 10
167.4861561236693
 20
-9.79999999999998
 11
167.0861561236693
 21
-9.79999999999998
  0
LINE
  5
F7
100
AcDbEntity
  8
0
  6
CONTINUOUS
 62
             7
100
AcDbLine
 10
166.4861561236693
 20
-14.95000000000002
 11
166.0861561236693
 21
-16.59999999999999
  0
LINE
  5
F6
100
AcDbEntity
  8
0
  6
CONTINUOUS
 62
             7
100
AcDbLine
 10
167.4861561236693
 20
-14.95000000000002
 11
167.0861561236693
 21
-16.59999999999999
  0
LINE
  5
F5
100
AcDbEntity
  8
0
  6
CONTINUOUS
 62
             7
100
AcDbLine
 10
167.4861561236693
 20
-9.79999999999998
 11
167.4861561236693
 21
-12.31139990636709
  0
LINE
  5
F4
100
AcDbEntity
  8
0
  6
CONTINUOUS
 62
             7
100
AcDbLine
 10
166.0861561236693
 20
-13.79999999999998
 11
166.35638081198701
 21
-13.90133425811914
  0
LINE
  5
F3
100
AcDbEntity
  8
0
  6
CONTINUOUS
 62
             7
100
AcDbLine
 10
166.0861561236693
 20
-12.59999999999999
 11
166.35638081198701
 21
-12.49866574188084
  0
LINE
  5
F2
100
AcDbEntity
  8
0
  6
CONTINUOUS
 62
             7
100
AcDbLine
 10
167.0861561236693
 20
-13.79999999999998
 11
167.35638081198701
 21
-13.90133425811914
  0
LINE
  5
F1
100
AcDbEntity
  8
0
  6
CONTINUOUS
 62
             7
100
AcDbLine
 10
167.0861561236693
 20
-12.59999999999999
 11
167.0861561236693
 21
-13.79999999999998
  0
LINE
  5
F0
100
AcDbEntity
  8
0
  6
CONTINUOUS
 62
             7
100
AcDbLine
 10
167.0861561236693
 20
-12.59999999999999
 11
167.35638081198701
 21
-12.49866574188084
  0
LINE
  5
EF
100
AcDbEntity
  8
0
  6
CONTINUOUS
 62
             7
100
AcDbLine
 10
166.0861561236693
 20
-9.79999999999998
 11
166.4861561236693
 21
-11.45000000000002
  0
LINE
  5
EE
100
AcDbEntity
  8
0
  6
CONTINUOUS
 62
             7
100
AcDbLine
 10
167.0861561236693
 20
-9.79999999999998
 11
167.4861561236693
 21
-11.45000000000002
  0
LINE
  5
ED
100
AcDbEntity
  8
0
  6
CONTINUOUS
 62
             7
100
AcDbLine
 10
167.0861561236693
 20
-16.59999999999999
 11
166.0861561236693
 21
-16.59999999999999
  0
LINE
  5
EC
100
AcDbEntity
  8
0
  6
CONTINUOUS
 62
             7
100
AcDbLine
 10
167.0861561236693
 20
-9.79999999999998
 11
166.0861561236693
 21
-9.79999999999998
  0
LINE
  5
EB
100
AcDbEntity
  8
0
  6
CONTINUOUS
 62
             7
100
AcDbLine
 10
168.22527626529379
 20
-15.95000000000002
 11
167.4861561236693
 21
-15.95000000000002
  0
LINE
  5
EA
100
AcDbEntity
  8
0
  6
CONTINUOUS
 62
             7
100
AcDbLine
 10
167.4861561236693
 20
-10.45000000000002
 11
168.22527626529379
 21
-10.45000000000002
  0
LINE
  5
E9
100
AcDbEntity
  8
0
  6
CONTINUOUS
 62
             7
100
AcDbLine
 10
167.4861561236693
 20
-12.31139990636709
 11
167.4861561236693
 21
-14.08860009363295
  0
LINE
  5
E8
100
AcDbEntity
  8
0
  6
CONTINUOUS
 62
             7
100
AcDbLine
 10
167.4861561236693
 20
-8.20000000000002
 11
167.4861561236693
 21
-5.68860009363297
  0
LINE
  5
E7
100
AcDbEntity
  8
0
  6
CONTINUOUS
 62
             7
100
AcDbLine
 10
166.4861561236693
 20
-6.55000000000004
 11
166.4861561236693
 21
-5.68860009363297
  0
LINE
  5
E6
100
AcDbEntity
  8
0
  6
CONTINUOUS
 62
             7
100
AcDbLine
 10
166.4861561236693
 20
-3.91139990636711
 11
166.4861561236693
 21
-3.05000000000004
  0
LINE
  5
E5
100
AcDbEntity
  8
0
  6
CONTINUOUS
 62
             7
100
AcDbLine
 10
167.4861561236693
 20
-8.20000000000002
 11
167.0861561236693
 21
-8.20000000000002
  0
LINE
  5
E4
100
AcDbEntity
  8
0
  6
CONTINUOUS
 62
             7
100
AcDbLine
 10
167.4861561236693
 20
-1.40000000000001
 11
167.0861561236693
 21
-1.40000000000001
  0
LINE
  5
E3
100
AcDbEntity
  8
0
  6
CONTINUOUS
 62
             7
100
AcDbLine
 10
166.4861561236693
 20
-6.55000000000004
 11
166.0861561236693
 21
-8.20000000000002
  0
LINE
  5
E2
100
AcDbEntity
  8
0
  6
CONTINUOUS
 62
             7
100
AcDbLine
 10
167.4861561236693
 20
-6.55000000000004
 11
167.0861561236693
 21
-8.20000000000002
  0
LINE
  5
E1
100
AcDbEntity
  8
0
  6
CONTINUOUS
 62
             7
100
AcDbLine
 10
167.4861561236693
 20
-1.40000000000001
 11
167.4861561236693
 21
-3.91139990636711
  0
LINE
  5
E0
100
AcDbEntity
  8
0
  6
CONTINUOUS
 62
             7
100
AcDbLine
 10
166.0861561236693
 20
-5.40000000000001
 11
166.35638081198701
 21
-5.50133425811916
  0
LINE
  5
DF
100
AcDbEntity
  8
0
  6
CONTINUOUS
 62
             7
100
AcDbLine
 10
166.0861561236693
 20
-4.20000000000002
 11
166.35638081198701
 21
-4.09866574188086
  0
LINE
  5
DE
100
AcDbEntity
  8
0
  6
CONTINUOUS
 62
             7
100
AcDbLine
 10
167.0861561236693
 20
-5.40000000000001
 11
167.35638081198701
 21
-5.50133425811916
  0
LINE
  5
DD
100
AcDbEntity
  8
0
  6
CONTINUOUS
 62
             7
100
AcDbLine
 10
167.0861561236693
 20
-4.20000000000002
 11
167.0861561236693
 21
-5.40000000000001
  0
LINE
  5
DC
100
AcDbEntity
  8
0
  6
CONTINUOUS
 62
             7
100
AcDbLine
 10
167.0861561236693
 20
-4.20000000000002
 11
167.35638081198701
 21
-4.09866574188086
  0
LINE
  5
DB
100
AcDbEntity
  8
0
  6
CONTINUOUS
 62
             7
100
AcDbLine
 10
166.0861561236693
 20
-1.40000000000001
 11
166.4861561236693
 21
-3.05000000000004
  0
LINE
  5
DA
100
AcDbEntity
  8
0
  6
CONTINUOUS
 62
             7
100
AcDbLine
 10
167.0861561236693
 20
-1.40000000000001
 11
167.4861561236693
 21
-3.05000000000004
  0
LINE
  5
D9
100
AcDbEntity
  8
0
  6
CONTINUOUS
 62
             7
100
AcDbLine
 10
167.0861561236693
 20
-8.20000000000002
 11
166.0861561236693
 21
-8.20000000000002
  0
LINE
  5
D8
100
AcDbEntity
  8
0
  6
CONTINUOUS
 62
             7
100
AcDbLine
 10
167.0861561236693
 20
-1.40000000000001
 11
166.0861561236693
 21
-1.40000000000001
  0
LINE
  5
D7
100
AcDbEntity
  8
0
  6
CONTINUOUS
 62
             7
100
AcDbLine
 10
168.22527626529379
 20
-7.55000000000004
 11
167.4861561236693
 21
-7.55000000000004
  0
LINE
  5
D6
100
AcDbEntity
  8
0
  6
CONTINUOUS
 62
             7
100
AcDbLine
 10
167.4861561236693
 20
-2.05000000000004
 11
168.22527626529379
 21
-2.05000000000004
  0
LINE
  5
D5
100
AcDbEntity
  8
0
  6
CONTINUOUS
 62
             7
100
AcDbLine
 10
167.4861561236693
 20
-3.91139990636711
 11
167.4861561236693
 21
-5.68860009363297
  0
LINE
  5
D4
100
AcDbEntity
  8
0
  6
CONTINUOUS
 62
             7
100
AcDbLine
 10
167.4861561236693
 20
0.19999999999996
 11
167.4861561236693
 21
2.71139990636703
  0
LINE
  5
D3
100
AcDbEntity
  8
0
  6
CONTINUOUS
 62
             7
100
AcDbLine
 10
166.4861561236693
 20
1.84999999999997
 11
166.4861561236693
 21
2.71139990636703
  0
LINE
  5
D2
100
AcDbEntity
  8
0
  6
CONTINUOUS
 62
             7
100
AcDbLine
 10
166.4861561236693
 20
4.48860009363287
 11
166.4861561236693
 21
5.34999999999994
  0
LINE
  5
D1
100
AcDbEntity
  8
0
  6
CONTINUOUS
 62
             7
100
AcDbLine
 10
167.4861561236693
 20
0.19999999999996
 11
167.0861561236693
 21
0.19999999999996
  0
LINE
  5
D0
100
AcDbEntity
  8
0
  6
CONTINUOUS
 62
             7
100
AcDbLine
 10
167.4861561236693
 20
6.99999999999997
 11
167.0861561236693
 21
6.99999999999997
  0
LINE
  5
CF
100
AcDbEntity
  8
0
  6
CONTINUOUS
 62
             7
100
AcDbLine
 10
166.4861561236693
 20
1.84999999999997
 11
166.0861561236693
 21
0.19999999999996
  0
LINE
  5
CE
100
AcDbEntity
  8
0
  6
CONTINUOUS
 62
             7
100
AcDbLine
 10
167.4861561236693
 20
1.84999999999997
 11
167.0861561236693
 21
0.19999999999996
  0
LINE
  5
CD
100
AcDbEntity
  8
0
  6
CONTINUOUS
 62
             7
100
AcDbLine
 10
167.4861561236693
 20
6.99999999999997
 11
167.4861561236693
 21
4.48860009363287
  0
LINE
  5
CC
100
AcDbEntity
  8
0
  6
CONTINUOUS
 62
             7
100
AcDbLine
 10
166.0861561236693
 20
2.99999999999994
 11
166.35638081198701
 21
2.89866574188082
  0
LINE
  5
CB
100
AcDbEntity
  8
0
  6
CONTINUOUS
 62
             7
100
AcDbLine
 10
166.0861561236693
 20
4.19999999999996
 11
166.35638081198701
 21
4.30133425811911
  0
LINE
  5
CA
100
AcDbEntity
  8
0
  6
CONTINUOUS
 62
             7
100
AcDbLine
 10
167.0861561236693
 20
2.99999999999994
 11
167.35638081198701
 21
2.89866574188082
  0
LINE
  5
C9
100
AcDbEntity
  8
0
  6
CONTINUOUS
 62
             7
100
AcDbLine
 10
167.0861561236693
 20
4.19999999999996
 11
167.0861561236693
 21
2.99999999999994
  0
LINE
  5
C8
100
AcDbEntity
  8
0
  6
CONTINUOUS
 62
             7
100
AcDbLine
 10
167.0861561236693
 20
4.19999999999996
 11
167.35638081198701
 21
4.30133425811911
  0
LINE
  5
C7
100
AcDbEntity
  8
0
  6
CONTINUOUS
 62
             7
100
AcDbLine
 10
166.0861561236693
 20
6.99999999999997
 11
166.4861561236693
 21
5.34999999999994
  0
LINE
  5
C6
100
AcDbEntity
  8
0
  6
CONTINUOUS
 62
             7
100
AcDbLine
 10
167.0861561236693
 20
6.99999999999997
 11
167.4861561236693
 21
5.34999999999994
  0
LINE
  5
C5
100
AcDbEntity
  8
0
  6
CONTINUOUS
 62
             7
100
AcDbLine
 10
167.0861561236693
 20
0.19999999999996
 11
166.0861561236693
 21
0.19999999999996
  0
LINE
  5
C4
100
AcDbEntity
  8
0
  6
CONTINUOUS
 62
             7
100
AcDbLine
 10
167.0861561236693
 20
6.99999999999997
 11
166.0861561236693
 21
6.99999999999997
  0
LINE
  5
C3
100
AcDbEntity
  8
0
  6
CONTINUOUS
 62
             7
100
AcDbLine
 10
168.22527626529379
 20
0.84999999999994
 11
167.4861561236693
 21
0.84999999999994
  0
LINE
  5
C2
100
AcDbEntity
  8
0
  6
CONTINUOUS
 62
             7
100
AcDbLine
 10
167.4861561236693
 20
6.34999999999994
 11
168.22527626529379
 21
6.34999999999994
  0
LINE
  5
C1
100
AcDbEntity
  8
0
  6
CONTINUOUS
 62
             7
100
AcDbLine
 10
167.4861561236693
 20
4.48860009363287
 11
167.4861561236693
 21
2.71139990636703
  0
LINE
  5
C0
100
AcDbEntity
  8
0
  6
CONTINUOUS
 62
             7
100
AcDbLine
 10
167.4861561236693
 20
8.59999999999994
 11
167.4861561236693
 21
11.11139990636701
  0
LINE
  5
BF
100
AcDbEntity
  8
0
  6
CONTINUOUS
 62
             7
100
AcDbLine
 10
166.4861561236693
 20
10.24999999999991
 11
166.4861561236693
 21
11.11139990636701
  0
LINE
  5
BE
100
AcDbEntity
  8
0
  6
CONTINUOUS
 62
             7
100
AcDbLine
 10
166.4861561236693
 20
12.88860009363285
 11
166.4861561236693
 21
13.74999999999991
  0
LINE
  5
BD
100
AcDbEntity
  8
0
  6
CONTINUOUS
 62
             7
100
AcDbLine
 10
167.4861561236693
 20
8.59999999999994
 11
167.0861561236693
 21
8.59999999999994
  0
LINE
  5
BC
100
AcDbEntity
  8
0
  6
CONTINUOUS
 62
             7
100
AcDbLine
 10
167.4861561236693
 20
15.39999999999995
 11
167.0861561236693
 21
15.39999999999995
  0
LINE
  5
BB
100
AcDbEntity
  8
0
  6
CONTINUOUS
 62
             7
100
AcDbLine
 10
166.4861561236693
 20
10.24999999999991
 11
166.0861561236693
 21
8.59999999999994
  0
LINE
  5
BA
100
AcDbEntity
  8
0
  6
CONTINUOUS
 62
             7
100
AcDbLine
 10
167.4861561236693
 20
10.24999999999991
 11
167.0861561236693
 21
8.59999999999994
  0
LINE
  5
B9
100
AcDbEntity
  8
0
  6
CONTINUOUS
 62
             7
100
AcDbLine
 10
167.4861561236693
 20
15.39999999999995
 11
167.4861561236693
 21
12.88860009363285
  0
LINE
  5
B8
100
AcDbEntity
  8
0
  6
CONTINUOUS
 62
             7
100
AcDbLine
 10
166.0861561236693
 20
11.39999999999995
 11
166.35638081198701
 21
11.29866574188082
  0
LINE
  5
B7
100
AcDbEntity
  8
0
  6
CONTINUOUS
 62
             7
100
AcDbLine
 10
166.0861561236693
 20
12.59999999999994
 11
166.35638081198701
 21
12.70133425811909
  0
LINE
  5
B6
100
AcDbEntity
  8
0
  6
CONTINUOUS
 62
             7
100
AcDbLine
 10
167.0861561236693
 20
11.39999999999995
 11
167.35638081198701
 21
11.29866574188082
  0
LINE
  5
B5
100
AcDbEntity
  8
0
  6
CONTINUOUS
 62
             7
100
AcDbLine
 10
167.0861561236693
 20
12.59999999999994
 11
167.0861561236693
 21
11.39999999999995
  0
LINE
  5
B4
100
AcDbEntity
  8
0
  6
CONTINUOUS
 62
             7
100
AcDbLine
 10
167.0861561236693
 20
12.59999999999994
 11
167.35638081198701
 21
12.70133425811909
  0
LINE
  5
B3
100
AcDbEntity
  8
0
  6
CONTINUOUS
 62
             7
100
AcDbLine
 10
166.0861561236693
 20
15.39999999999995
 11
166.4861561236693
 21
13.74999999999991
  0
LINE
  5
B2
100
AcDbEntity
  8
0
  6
CONTINUOUS
 62
             7
100
AcDbLine
 10
167.0861561236693
 20
15.39999999999995
 11
167.4861561236693
 21
13.74999999999991
  0
LINE
  5
B1
100
AcDbEntity
  8
0
  6
CONTINUOUS
 62
             7
100
AcDbLine
 10
167.0861561236693
 20
8.59999999999994
 11
166.0861561236693
 21
8.59999999999994
  0
LINE
  5
B0
100
AcDbEntity
  8
0
  6
CONTINUOUS
 62
             7
100
AcDbLine
 10
167.0861561236693
 20
15.39999999999995
 11
166.0861561236693
 21
15.39999999999995
  0
LINE
  5
AF
100
AcDbEntity
  8
0
  6
CONTINUOUS
 62
             7
100
AcDbLine
 10
168.22527626529379
 20
9.24999999999994
 11
167.4861561236693
 21
9.24999999999994
  0
LINE
  5
AE
100
AcDbEntity
  8
0
  6
CONTINUOUS
 62
             7
100
AcDbLine
 10
167.4861561236693
 20
14.74999999999991
 11
168.22527626529379
 21
14.74999999999991
  0
LINE
  5
AD
100
AcDbEntity
  8
0
  6
CONTINUOUS
 62
             7
100
AcDbLine
 10
167.4861561236693
 20
12.88860009363285
 11
167.4861561236693
 21
11.11139990636701
  0
LINE
  5
AC
100
AcDbEntity
  8
0
  6
CONTINUOUS
 62
             7
100
AcDbLine
 10
167.4861561236693
 20
16.99999999999991
 11
167.4861561236693
 21
19.51139990636699
  0
LINE
  5
AB
100
AcDbEntity
  8
0
  6
CONTINUOUS
 62
             7
100
AcDbLine
 10
166.4861561236693
 20
18.64999999999992
 11
166.4861561236693
 21
19.51139990636699
  0
LINE
  5
AA
100
AcDbEntity
  8
0
  6
CONTINUOUS
 62
             7
100
AcDbLine
 10
166.4861561236693
 20
21.28860009363285
 11
166.4861561236693
 21
22.14999999999992
  0
LINE
  5
A9
100
AcDbEntity
  8
0
  6
CONTINUOUS
 62
             7
100
AcDbLine
 10
167.4861561236693
 20
16.99999999999991
 11
167.0861561236693
 21
16.99999999999991
  0
LINE
  5
A8
100
AcDbEntity
  8
0
  6
CONTINUOUS
 62
             7
100
AcDbLine
 10
167.4861561236693
 20
23.79999999999993
 11
167.0861561236693
 21
23.79999999999993
  0
LINE
  5
A7
100
AcDbEntity
  8
0
  6
CONTINUOUS
 62
             7
100
AcDbLine
 10
166.4861561236693
 20
18.64999999999992
 11
166.0861561236693
 21
16.99999999999991
  0
LINE
  5
A6
100
AcDbEntity
  8
0
  6
CONTINUOUS
 62
             7
100
AcDbLine
 10
167.4861561236693
 20
18.64999999999992
 11
167.0861561236693
 21
16.99999999999991
  0
LINE
  5
A5
100
AcDbEntity
  8
0
  6
CONTINUOUS
 62
             7
100
AcDbLine
 10
167.4861561236693
 20
23.79999999999993
 11
167.4861561236693
 21
21.28860009363285
  0
LINE
  5
A4
100
AcDbEntity
  8
0
  6
CONTINUOUS
 62
             7
100
AcDbLine
 10
166.0861561236693
 20
19.79999999999993
 11
166.35638081198701
 21
19.6986657418808
  0
LINE
  5
A3
100
AcDbEntity
  8
0
  6
CONTINUOUS
 62
             7
100
AcDbLine
 10
166.0861561236693
 20
20.99999999999991
 11
166.35638081198701
 21
21.10133425811907
  0
LINE
  5
A2
100
AcDbEntity
  8
0
  6
CONTINUOUS
 62
             7
100
AcDbLine
 10
167.0861561236693
 20
19.79999999999993
 11
167.35638081198701
 21
19.6986657418808
  0
LINE
  5
A1
100
AcDbEntity
  8
0
  6
CONTINUOUS
 62
             7
100
AcDbLine
 10
167.0861561236693
 20
20.99999999999991
 11
167.0861561236693
 21
19.79999999999993
  0
LINE
  5
A0
100
AcDbEntity
  8
0
  6
CONTINUOUS
 62
             7
100
AcDbLine
 10
167.0861561236693
 20
20.99999999999991
 11
167.35638081198701
 21
21.10133425811907
  0
LINE
  5
9F
100
AcDbEntity
  8
0
  6
CONTINUOUS
 62
             7
100
AcDbLine
 10
166.0861561236693
 20
23.79999999999993
 11
166.4861561236693
 21
22.14999999999992
  0
LINE
  5
9E
100
AcDbEntity
  8
0
  6
CONTINUOUS
 62
             7
100
AcDbLine
 10
167.0861561236693
 20
23.79999999999993
 11
167.4861561236693
 21
22.14999999999992
  0
LINE
  5
9D
100
AcDbEntity
  8
0
  6
CONTINUOUS
 62
             7
100
AcDbLine
 10
167.0861561236693
 20
16.99999999999991
 11
166.0861561236693
 21
16.99999999999991
  0
LINE
  5
9C
100
AcDbEntity
  8
0
  6
CONTINUOUS
 62
             7
100
AcDbLine
 10
167.0861561236693
 20
23.79999999999993
 11
166.0861561236693
 21
23.79999999999993
  0
LINE
  5
9B
100
AcDbEntity
  8
0
  6
CONTINUOUS
 62
             7
100
AcDbLine
 10
168.22527626529379
 20
17.64999999999992
 11
167.4861561236693
 21
17.64999999999992
  0
LINE
  5
9A
100
AcDbEntity
  8
0
  6
CONTINUOUS
 62
             7
100
AcDbLine
 10
167.4861561236693
 20
23.14999999999992
 11
168.22527626529379
 21
23.14999999999992
  0
LINE
  5
99
100
AcDbEntity
  8
0
  6
CONTINUOUS
 62
             7
100
AcDbLine
 10
167.4861561236693
 20
21.28860009363285
 11
167.4861561236693
 21
19.51139990636699
  0
LINE
  5
98
100
AcDbEntity
  8
0
  6
CONTINUOUS
 62
             7
100
AcDbLine
 10
167.4861561236693
 20
25.39999999999989
 11
167.4861561236693
 21
27.91139990636697
  0
LINE
  5
97
100
AcDbEntity
  8
0
  6
CONTINUOUS
 62
             7
100
AcDbLine
 10
166.4861561236693
 20
27.0499999999999
 11
166.4861561236693
 21
27.91139990636697
  0
LINE
  5
96
100
AcDbEntity
  8
0
  6
CONTINUOUS
 62
             7
100
AcDbLine
 10
166.4861561236693
 20
29.68860009363283
 11
166.4861561236693
 21
30.5499999999999
  0
LINE
  5
95
100
AcDbEntity
  8
0
  6
CONTINUOUS
 62
             7
100
AcDbLine
 10
167.4861561236693
 20
25.39999999999989
 11
167.0861561236693
 21
25.39999999999989
  0
LINE
  5
94
100
AcDbEntity
  8
0
  6
CONTINUOUS
 62
             7
100
AcDbLine
 10
167.4861561236693
 20
32.1999999999999
 11
167.0861561236693
 21
32.1999999999999
  0
LINE
  5
93
100
AcDbEntity
  8
0
  6
CONTINUOUS
 62
             7
100
AcDbLine
 10
166.4861561236693
 20
27.0499999999999
 11
166.0861561236693
 21
25.39999999999989
  0
LINE
  5
92
100
AcDbEntity
  8
0
  6
CONTINUOUS
 62
             7
100
AcDbLine
 10
167.4861561236693
 20
27.0499999999999
 11
167.0861561236693
 21
25.39999999999989
  0
LINE
  5
91
100
AcDbEntity
  8
0
  6
CONTINUOUS
 62
             7
100
AcDbLine
 10
167.4861561236693
 20
32.1999999999999
 11
167.4861561236693
 21
29.68860009363283
  0
LINE
  5
90
100
AcDbEntity
  8
0
  6
CONTINUOUS
 62
             7
100
AcDbLine
 10
166.0861561236693
 20
28.1999999999999
 11
166.35638081198701
 21
28.09866574188078
  0
LINE
  5
8F
100
AcDbEntity
  8
0
  6
CONTINUOUS
 62
             7
100
AcDbLine
 10
166.0861561236693
 20
29.39999999999989
 11
166.35638081198701
 21
29.50133425811904
  0
LINE
  5
8E
100
AcDbEntity
  8
0
  6
CONTINUOUS
 62
             7
100
AcDbLine
 10
167.0861561236693
 20
28.1999999999999
 11
167.35638081198701
 21
28.09866574188078
  0
LINE
  5
8D
100
AcDbEntity
  8
0
  6
CONTINUOUS
 62
             7
100
AcDbLine
 10
167.0861561236693
 20
29.39999999999989
 11
167.0861561236693
 21
28.1999999999999
  0
LINE
  5
8C
100
AcDbEntity
  8
0
  6
CONTINUOUS
 62
             7
100
AcDbLine
 10
167.0861561236693
 20
29.39999999999989
 11
167.35638081198701
 21
29.50133425811904
  0
LINE
  5
8B
100
AcDbEntity
  8
0
  6
CONTINUOUS
 62
             7
100
AcDbLine
 10
166.0861561236693
 20
32.1999999999999
 11
166.4861561236693
 21
30.5499999999999
  0
LINE
  5
8A
100
AcDbEntity
  8
0
  6
CONTINUOUS
 62
             7
100
AcDbLine
 10
167.0861561236693
 20
32.1999999999999
 11
167.4861561236693
 21
30.5499999999999
  0
LINE
  5
89
100
AcDbEntity
  8
0
  6
CONTINUOUS
 62
             7
100
AcDbLine
 10
167.0861561236693
 20
25.39999999999989
 11
166.0861561236693
 21
25.39999999999989
  0
LINE
  5
88
100
AcDbEntity
  8
0
  6
CONTINUOUS
 62
             7
100
AcDbLine
 10
167.0861561236693
 20
32.1999999999999
 11
166.0861561236693
 21
32.1999999999999
  0
LINE
  5
87
100
AcDbEntity
  8
0
  6
CONTINUOUS
 62
             7
100
AcDbLine
 10
168.22527626529379
 20
26.0499999999999
 11
167.4861561236693
 21
26.0499999999999
  0
LINE
  5
86
100
AcDbEntity
  8
0
  6
CONTINUOUS
 62
             7
100
AcDbLine
 10
167.4861561236693
 20
31.5499999999999
 11
168.22527626529379
 21
31.5499999999999
  0
LINE
  5
85
100
AcDbEntity
  8
0
  6
CONTINUOUS
 62
             7
100
AcDbLine
 10
167.4861561236693
 20
29.68860009363283
 11
167.4861561236693
 21
27.91139990636697
  0
LINE
  5
84
100
AcDbEntity
  8
1
  6
CONTINUOUS
 62
             7
100
AcDbLine
 10
166.90000000000001
 20
36.50000000000001
 11
166.40000000000001
 21
36.50000000000001
  0
LINE
  5
83
100
AcDbEntity
  8
1
  6
CONTINUOUS
 62
             7
100
AcDbLine
 10
167.5
 20
37.09999999999999
 11
167.5
 21
37.25000000000001
  0
LINE
  5
82
100
AcDbEntity
  8
1
  6
CONTINUOUS
 62
             7
100
AcDbLine
 10
167.5
 20
43.50000000000001
 11
166.90000000000001
 21
43.50000000000001
  0
LINE
  5
81
100
AcDbEntity
  8
1
  6
CONTINUOUS
 62
             7
100
AcDbLine
 10
166.90000000000001
 20
43.50000000000001
 11
166.90000000000001
 21
41.5
  0
LINE
  5
80
100
AcDbEntity
  8
1
  6
CONTINUOUS
 62
             7
100
AcDbLine
 10
166.90000000000001
 20
37.09999999999999
 11
166.40000000000001
 21
37.09999999999999
  0
LINE
  5
7F
100
AcDbEntity
  8
1
  6
CONTINUOUS
 62
             7
100
AcDbLine
 10
166.40000000000001
 20
36.50000000000001
 11
166.40000000000001
 21
37.09999999999999
  0
LINE
  5
7E
100
AcDbEntity
  8
1
  6
CONTINUOUS
 62
             7
100
AcDbLine
 10
166.40000000000001
 20
37.09999999999999
 11
166.40000000000001
 21
38.5
  0
LINE
  5
7D
100
AcDbEntity
  8
1
  6
CONTINUOUS
 62
             7
100
AcDbLine
 10
166.40000000000001
 20
39.50000000000001
 11
162.0
 21
39.50000000000001
  0
LINE
  5
7C
100
AcDbEntity
  8
1
  6
CONTINUOUS
 62
             7
100
AcDbLine
 10
75.5
 20
39.50000000000001
 11
75.5
 21
36.50000000000001
  0
LINE
  5
7B
100
AcDbEntity
  8
1
  6
CONTINUOUS
 62
             7
100
AcDbLine
 10
134.80000000000001
 20
39.50000000000001
 11
134.80000000000001
 21
42.90000000000001
  0
LINE
  5
7A
100
AcDbEntity
  8
1
  6
CONTINUOUS
 62
             7
100
AcDbLine
 10
136.0
 20
39.50000000000001
 11
75.5
 21
39.50000000000001
  0
LINE
  5
79
100
AcDbEntity
  8
1
  6
CONTINUOUS
 62
             7
100
AcDbLine
 10
136.0
 20
44.10000000000001
 11
159.59999999999999
 21
44.10000000000001
  0
LINE
  5
78
100
AcDbEntity
  8
1
  6
CONTINUOUS
 62
             7
100
AcDbLine
 10
160.80000000000001
 20
42.90000000000001
 11
160.80000000000001
 21
41.5
  0
LINE
  5
77
100
AcDbEntity
  8
1
  6
CONTINUOUS
 62
             7
100
AcDbLine
 10
162.0
 20
39.50000000000001
 11
160.80000000000001
 21
39.50000000000001
  0
LINE
  5
76
100
AcDbEntity
  8
1
  6
CONTINUOUS
 62
             7
100
AcDbLine
 10
136.0
 20
39.50000000000001
 11
136.0
 21
42.90000000000001
  0
LINE
  5
75
100
AcDbEntity
  8
1
  6
CONTINUOUS
 62
             7
100
AcDbLine
 10
137.19999999999999
 20
39.50000000000001
 11
136.0
 21
39.50000000000001
  0
LINE
  5
74
100
AcDbEntity
  8
1
  6
CONTINUOUS
 62
             7
100
AcDbLine
 10
136.0
 20
42.90000000000001
 11
159.59999999999999
 21
42.90000000000001
  0
LINE
  5
73
100
AcDbEntity
  8
1
  6
CONTINUOUS
 62
             7
100
AcDbLine
 10
160.80000000000001
 20
42.90000000000001
 11
160.80000000000001
 21
41.5
  0
LINE
  5
72
100
AcDbEntity
  8
1
  6
CONTINUOUS
 62
             7
100
AcDbLine
 10
160.80000000000001
 20
39.50000000000001
 11
159.59999999999999
 21
39.50000000000001
  0
LINE
  5
71
100
AcDbEntity
  8
1
  6
CONTINUOUS
 62
             7
100
AcDbLine
 10
159.59999999999999
 20
42.90000000000001
 11
159.59999999999999
 21
41.5
  0
LINE
  5
70
100
AcDbEntity
  8
1
  6
CONTINUOUS
 62
             7
100
AcDbLine
 10
159.59999999999999
 20
39.50000000000001
 11
147.5
 21
39.50000000000001
  0
LINE
  5
6F
100
AcDbEntity
  8
1
  6
CONTINUOUS
 62
             7
100
AcDbLine
 10
167.5
 20
37.25000000000001
 11
168.5
 21
37.25000000000001
  0
LINE
  5
6E
100
AcDbEntity
  8
1
  6
CONTINUOUS
 62
             7
100
AcDbLine
 10
167.5
 20
37.25000000000001
 11
167.5
 21
42.75
  0
LINE
  5
6D
100
AcDbEntity
  8
1
  6
CONTINUOUS
 62
             7
100
AcDbLine
 10
169.5
 20
38.25000000000001
 11
169.5
 21
41.75000000000001
  0
LINE
  5
6C
100
AcDbEntity
  8
1
  6
CONTINUOUS
 62
             7
100
AcDbLine
 10
168.5
 20
42.75000000000001
 11
167.5
 21
42.75
  0
LINE
  5
6B
100
AcDbEntity
  8
1
  6
CONTINUOUS
 62
             7
100
AcDbLine
 10
167.5
 20
42.75
 11
167.5
 21
43.50000000000001
  0
LINE
  5
6A
100
AcDbEntity
  8
1
  6
CONTINUOUS
 62
             7
100
AcDbLine
 10
166.90000000000001
 20
41.5
 11
160.80000000000001
 21
41.5
  0
LINE
  5
69
100
AcDbEntity
  8
1
  6
CONTINUOUS
 62
             7
100
AcDbLine
 10
166.90000000000001
 20
41.5
 11
166.90000000000001
 21
41.0
  0
LINE
  5
68
100
AcDbEntity
  8
1
  6
CONTINUOUS
 62
             7
100
AcDbLine
 10
160.80000000000001
 20
41.5
 11
160.80000000000001
 21
41.0
  0
LINE
  5
67
100
AcDbEntity
  8
1
  6
CONTINUOUS
 62
             7
100
AcDbLine
 10
160.80000000000001
 20
41.5
 11
160.80000000000001
 21
41.0
  0
LINE
  5
66
100
AcDbEntity
  8
1
  6
CONTINUOUS
 62
             7
100
AcDbLine
 10
159.59999999999999
 20
41.5
 11
147.5
 21
41.50000000000001
  0
LINE
  5
65
100
AcDbEntity
  8
1
  6
CONTINUOUS
 62
             7
100
AcDbLine
 10
159.59999999999999
 20
41.5
 11
159.59999999999999
 21
41.0
  0
LINE
  5
64
100
AcDbEntity
  8
1
  6
CONTINUOUS
 62
             7
100
AcDbLine
 10
147.5
 20
41.50000000000001
 11
147.5
 21
41.00000000000001
  0
LINE
  5
63
100
AcDbEntity
  8
1
  6
CONTINUOUS
 62
             7
100
AcDbLine
 10
147.5
 20
39.50000000000001
 11
137.19999999999999
 21
39.50000000000001
  0
LINE
  5
62
100
AcDbEntity
  8
1
  6
CONTINUOUS
 62
             7
100
AcDbLine
 10
166.90000000000001
 20
38.5
 11
166.40000000000001
 21
38.5
  0
LINE
  5
61
100
AcDbEntity
  8
1
  6
CONTINUOUS
 62
             7
100
AcDbLine
 10
166.90000000000001
 20
38.5
 11
166.90000000000001
 21
37.09999999999999
  0
LINE
  5
60
100
AcDbEntity
  8
1
  6
CONTINUOUS
 62
             7
100
AcDbLine
 10
166.40000000000001
 20
38.5
 11
166.40000000000001
 21
39.0
  0
LINE
  5
5F
100
AcDbEntity
  8
1
  6
CONTINUOUS
 62
             7
100
AcDbLine
 10
147.5
 20
41.00000000000001
 11
159.59999999999999
 21
41.0
  0
LINE
  5
5E
100
AcDbEntity
  8
1
  6
CONTINUOUS
 62
             7
100
AcDbLine
 10
147.5
 20
41.00000000000001
 11
147.5
 21
39.50000000000001
  0
LINE
  5
5D
100
AcDbEntity
  8
1
  6
CONTINUOUS
 62
             7
100
AcDbLine
 10
159.59999999999999
 20
41.0
 11
159.59999999999999
 21
39.50000000000001
  0
LINE
  5
5C
100
AcDbEntity
  8
1
  6
CONTINUOUS
 62
             7
100
AcDbLine
 10
160.80000000000001
 20
41.0
 11
166.90000000000001
 21
41.0
  0
LINE
  5
5B
100
AcDbEntity
  8
1
  6
CONTINUOUS
 62
             7
100
AcDbLine
 10
160.80000000000001
 20
41.0
 11
160.80000000000001
 21
39.50000000000001
  0
LINE
  5
5A
100
AcDbEntity
  8
1
  6
CONTINUOUS
 62
             7
100
AcDbLine
 10
160.80000000000001
 20
41.0
 11
160.80000000000001
 21
39.50000000000001
  0
LINE
  5
59
100
AcDbEntity
  8
1
  6
CONTINUOUS
 62
             7
100
AcDbLine
 10
166.90000000000001
 20
41.0
 11
166.90000000000001
 21
39.0
  0
LINE
  5
58
100
AcDbEntity
  8
1
  6
CONTINUOUS
 62
             7
100
AcDbLine
 10
166.40000000000001
 20
39.0
 11
166.90000000000001
 21
39.0
  0
LINE
  5
57
100
AcDbEntity
  8
1
  6
CONTINUOUS
 62
             7
100
AcDbLine
 10
166.40000000000001
 20
39.0
 11
166.40000000000001
 21
39.50000000000001
  0
LINE
  5
56
100
AcDbEntity
  8
1
  6
CONTINUOUS
 62
             7
100
AcDbLine
 10
166.90000000000001
 20
39.0
 11
166.90000000000001
 21
38.5
  0
LINE
  5
55
100
AcDbEntity
  8
1
  6
CONTINUOUS
 62
             7
100
AcDbLine
 10
167.5
 20
-55.25
 11
167.5
 21
-55.09999999999997
  0
LINE
  5
54
100
AcDbEntity
  8
1
  6
CONTINUOUS
 62
             7
100
AcDbLine
 10
166.90000000000001
 20
-61.5
 11
167.5
 21
-61.5
  0
LINE
  5
53
100
AcDbEntity
  8
1
  6
CONTINUOUS
 62
             7
100
AcDbLine
 10
166.90000000000001
 20
-59.49999999999999
 11
166.90000000000001
 21
-61.5
  0
LINE
  5
52
100
AcDbEntity
  8
1
  6
CONTINUOUS
 62
             7
100
AcDbLine
 10
166.40000000000001
 20
-55.09999999999997
 11
166.90000000000001
 21
-55.09999999999998
  0
LINE
  5
51
100
AcDbEntity
  8
1
  6
CONTINUOUS
 62
             7
100
AcDbLine
 10
166.40000000000001
 20
-56.49999999999999
 11
166.40000000000001
 21
-55.09999999999997
  0
LINE
  5
50
100
AcDbEntity
  8
1
  6
CONTINUOUS
 62
             7
100
AcDbLine
 10
162.0
 20
-57.5
 11
166.40000000000001
 21
-57.5
  0
LINE
  5
4F
100
AcDbEntity
  8
1
  6
CONTINUOUS
 62
             7
100
AcDbLine
 10
134.80000000000001
 20
-60.89999999999998
 11
134.80000000000001
 21
-57.5
  0
LINE
  5
4E
100
AcDbEntity
  8
1
  6
CONTINUOUS
 62
             7
100
AcDbLine
 10
75.5
 20
-57.5
 11
136.0
 21
-57.5
  0
LINE
  5
4D
100
AcDbEntity
  8
1
  6
CONTINUOUS
 62
             7
100
AcDbLine
 10
159.59999999999999
 20
-62.09999999999998
 11
136.0
 21
-62.09999999999998
  0
LINE
  5
4C
100
AcDbEntity
  8
1
  6
CONTINUOUS
 62
             7
100
AcDbLine
 10
160.80000000000001
 20
-59.49999999999999
 11
160.80000000000001
 21
-60.89999999999998
  0
LINE
  5
4B
100
AcDbEntity
  8
1
  6
CONTINUOUS
 62
             7
100
AcDbLine
 10
160.80000000000001
 20
-57.5
 11
162.0
 21
-57.5
  0
LINE
  5
4A
100
AcDbEntity
  8
1
  6
CONTINUOUS
 62
             7
100
AcDbLine
 10
136.0
 20
-60.89999999999998
 11
136.0
 21
-57.5
  0
LINE
  5
49
100
AcDbEntity
  8
1
  6
CONTINUOUS
 62
             7
100
AcDbLine
 10
136.0
 20
-57.5
 11
137.19999999999999
 21
-57.5
  0
LINE
  5
48
100
AcDbEntity
  8
1
  6
CONTINUOUS
 62
             7
100
AcDbLine
 10
159.59999999999999
 20
-60.89999999999998
 11
136.0
 21
-60.89999999999998
  0
LINE
  5
47
100
AcDbEntity
  8
1
  6
CONTINUOUS
 62
             7
100
AcDbLine
 10
160.80000000000001
 20
-59.49999999999999
 11
160.80000000000001
 21
-60.89999999999998
  0
LINE
  5
46
100
AcDbEntity
  8
1
  6
CONTINUOUS
 62
             7
100
AcDbLine
 10
159.59999999999999
 20
-57.5
 11
160.80000000000001
 21
-57.5
  0
LINE
  5
45
100
AcDbEntity
  8
1
  6
CONTINUOUS
 62
             7
100
AcDbLine
 10
159.59999999999999
 20
-59.49999999999999
 11
159.59999999999999
 21
-60.89999999999998
  0
LINE
  5
44
100
AcDbEntity
  8
1
  6
CONTINUOUS
 62
             7
100
AcDbLine
 10
147.5
 20
-57.5
 11
159.59999999999999
 21
-57.5
  0
LINE
  5
43
100
AcDbEntity
  8
1
  6
CONTINUOUS
 62
             7
100
AcDbLine
 10
168.5
 20
-55.25
 11
167.5
 21
-55.25
  0
LINE
  5
42
100
AcDbEntity
  8
1
  6
CONTINUOUS
 62
             7
100
AcDbLine
 10
167.5
 20
-60.74999999999999
 11
167.5
 21
-55.25
  0
LINE
  5
41
100
AcDbEntity
  8
1
  6
CONTINUOUS
 62
             7
100
AcDbLine
 10
169.5
 20
-59.75
 11
169.5
 21
-56.25
  0
LINE
  5
40
100
AcDbEntity
  8
1
  6
CONTINUOUS
 62
             7
100
AcDbLine
 10
167.5
 20
-60.74999999999999
 11
168.5
 21
-60.75
  0
LINE
  5
3F
100
AcDbEntity
  8
1
  6
CONTINUOUS
 62
             7
100
AcDbLine
 10
167.5
 20
-61.5
 11
167.5
 21
-60.74999999999999
  0
LINE
  5
3E
100
AcDbEntity
  8
1
  6
CONTINUOUS
 62
             7
100
AcDbLine
 10
160.80000000000001
 20
-59.49999999999999
 11
166.90000000000001
 21
-59.49999999999999
  0
LINE
  5
3D
100
AcDbEntity
  8
1
  6
CONTINUOUS
 62
             7
100
AcDbLine
 10
166.90000000000001
 20
-58.99999999999999
 11
166.90000000000001
 21
-59.49999999999999
  0
LINE
  5
3C
100
AcDbEntity
  8
1
  6
CONTINUOUS
 62
             7
100
AcDbLine
 10
160.80000000000001
 20
-58.99999999999999
 11
160.80000000000001
 21
-59.49999999999999
  0
LINE
  5
3B
100
AcDbEntity
  8
1
  6
CONTINUOUS
 62
             7
100
AcDbLine
 10
160.80000000000001
 20
-58.99999999999999
 11
160.80000000000001
 21
-59.49999999999999
  0
LINE
  5
3A
100
AcDbEntity
  8
1
  6
CONTINUOUS
 62
             7
100
AcDbLine
 10
147.5
 20
-59.5
 11
159.59999999999999
 21
-59.49999999999999
  0
LINE
  5
39
100
AcDbEntity
  8
1
  6
CONTINUOUS
 62
             7
100
AcDbLine
 10
159.59999999999999
 20
-58.99999999999999
 11
159.59999999999999
 21
-59.49999999999999
  0
LINE
  5
38
100
AcDbEntity
  8
1
  6
CONTINUOUS
 62
             7
100
AcDbLine
 10
147.5
 20
-59.0
 11
147.5
 21
-59.5
  0
LINE
  5
37
100
AcDbEntity
  8
1
  6
CONTINUOUS
 62
             7
100
AcDbLine
 10
137.19999999999999
 20
-57.5
 11
147.5
 21
-57.5
  0
LINE
  5
36
100
AcDbEntity
  8
1
  6
CONTINUOUS
 62
             7
100
AcDbLine
 10
166.40000000000001
 20
-56.49999999999999
 11
166.90000000000001
 21
-56.49999999999999
  0
LINE
  5
35
100
AcDbEntity
  8
1
  6
CONTINUOUS
 62
             7
100
AcDbLine
 10
166.90000000000001
 20
-55.09999999999998
 11
166.90000000000001
 21
-56.49999999999999
  0
LINE
  5
34
100
AcDbEntity
  8
1
  6
CONTINUOUS
 62
             7
100
AcDbLine
 10
166.40000000000001
 20
-56.99999999999999
 11
166.40000000000001
 21
-56.49999999999999
  0
LINE
  5
33
100
AcDbEntity
  8
1
  6
CONTINUOUS
 62
             7
100
AcDbLine
 10
159.59999999999999
 20
-58.99999999999999
 11
147.5
 21
-59.0
  0
LINE
  5
32
100
AcDbEntity
  8
1
  6
CONTINUOUS
 62
             7
100
AcDbLine
 10
147.5
 20
-57.5
 11
147.5
 21
-59.0
  0
LINE
  5
31
100
AcDbEntity
  8
1
  6
CONTINUOUS
 62
             7
100
AcDbLine
 10
159.59999999999999
 20
-57.5
 11
159.59999999999999
 21
-58.99999999999999
  0
LINE
  5
30
100
AcDbEntity
  8
1
  6
CONTINUOUS
 62
             7
100
AcDbLine
 10
166.90000000000001
 20
-58.99999999999999
 11
160.80000000000001
 21
-58.99999999999999
  0
LINE
  5
2F
100
AcDbEntity
  8
1
  6
CONTINUOUS
 62
             7
100
AcDbLine
 10
160.80000000000001
 20
-57.5
 11
160.80000000000001
 21
-58.99999999999999
  0
LINE
  5
2E
100
AcDbEntity
  8
1
  6
CONTINUOUS
 62
             7
100
AcDbLine
 10
160.80000000000001
 20
-57.5
 11
160.80000000000001
 21
-58.99999999999999
  0
LINE
  5
2D
100
AcDbEntity
  8
1
  6
CONTINUOUS
 62
             7
100
AcDbLine
 10
166.90000000000001
 20
-56.99999999999999
 11
166.90000000000001
 21
-58.99999999999999
  0
LINE
  5
2C
100
AcDbEntity
  8
1
  6
CONTINUOUS
 62
             7
100
AcDbLine
 10
166.90000000000001
 20
-56.99999999999999
 11
166.40000000000001
 21
-56.99999999999999
  0
LINE
  5
2B
100
AcDbEntity
  8
1
  6
CONTINUOUS
 62
             7
100
AcDbLine
 10
166.40000000000001
 20
-57.5
 11
166.40000000000001
 21
-56.99999999999999
  0
LINE
  5
2A
100
AcDbEntity
  8
1
  6
CONTINUOUS
 62
             7
100
AcDbLine
 10
166.90000000000001
 20
-56.49999999999999
 11
166.90000000000001
 21
-56.99999999999999
  0
LINE
  5
29
100
AcDbEntity
  8
1
  6
CONTINUOUS
 62
             7
100
AcDbLine
 10
166.40000000000001
 20
-55.09999999999997
 11
166.40000000000001
 21
-54.5
  0
LINE
  5
28
100
AcDbEntity
  8
1
  6
CONTINUOUS
 62
             7
100
AcDbLine
 10
75.5
 20
-54.5
 11
75.5
 21
-57.5
  0
ENDSEC
  0
SECTION
  2
OBJECTS
  0
DICTIONARY
  5
19
100
AcDbDictionary
  3
ACAD_GROUP
350
1A
  3
ACAD_MLINESTYLE
350
1B
  0
DICTIONARY
  5
1A
102
{ACAD_REACTORS
330
19
102
}
100
AcDbDictionary
  0
DICTIONARY
  5
1B
102
{ACAD_REACTORS
330
19
102
}
100
AcDbDictionary
  3
STANDARD
350
1C
  0
MLINESTYLE
  5
1C
102
{ACAD_REACTORS
330
1B
102
}
100
AcDbMlineStyle
  2
STANDARD
 70
             0
  3

 62
             0
 51
90.0
 52
90.0
 71
             2
 49
0.5
 62
           256
  6
BYLAYER
 49
-0.5
 62
           256
  6
BYLAYER
  0
ENDSEC
  0
EOF
