  0
SECTION
  2
HEADER
  9
$ACADVER
  1
AC1014
  9
$ACADMAINTVER
 70
             0
  9
$DWGCODEPAGE
  3
ANSI_1252
  9
$INSBASE
 10
0.0
 20
0.0
 30
0.0
  9
$EXTMIN
 10
1.00000000000000E+20
 20
1.00000000000000E+20
 30
1.00000000000000E+20
  9
$EXTMAX
 10
-1.00000000000000E+20
 20
-1.00000000000000E+20
 30
-1.00000000000000E+20
  9
$LIMMIN
 10
0.0
 20
0.0
  9
$LIMMAX
 10
0.0
 20
0.0
  9
$ORTHOMODE
 70
             0
  9
$REGENMODE
 70
             1
  9
$FILLMODE
 70
             1
  9
$QTEXTMODE
 70
             0
  9
$MIRRTEXT
 70
             1
  9
$DRAGMODE
 70
             2
  9
$LTSCALE
 40
1.0
  9
$OSMODE
 70
             0
  9
$ATTMODE
 70
             1
  9
$TEXTSIZE
 40
0.2
  9
$TRACEWID
 40
0.05
  9
$TEXTSTYLE
  7
STANDARD
  9
$CLAYER
  8
0
  9
$CELTYPE
  6
CONTINUOUS
  9
$CECOLOR
 62
           256
  9
$CELTSCALE
 40
1.0
  9
$DELOBJ
 70
             1
  9
$DISPSILH
 70
             0
  9
$DIMSCALE
 40
1.0
  9
$DIMASZ
 40
0.18
  9
$DIMEXO
 40
0.0625
  9
$DIMDLI
 40
0.38
  9
$DIMRND
 40
0.0
  9
$DIMDLE
 40
0.0
  9
$DIMEXE
 40
0.18
  9
$DIMTP
 40
0.0
  9
$DIMTM
 40
0.0
  9
$DIMTXT
 40
0.18
  9
$DIMCEN
 40
0.09
  9
$DIMTSZ
 40
0.0
  9
$DIMTOL
 70
             0
  9
$DIMLIM
 70
             0
  9
$DIMTIH
 70
             1
  9
$DIMTOH
 70
             1
  9
$DIMSE1
 70
             0
  9
$DIMSE2
 70
             0
  9
$DIMTAD
 70
             0
  9
$DIMZIN
 70
             0
  9
$DIMBLK
  1

  9
$DIMASO
 70
             1
  9
$DIMSHO
 70
             1
  9
$DIMPOST
  1

  9
$DIMAPOST
  1

  9
$DIMALT
 70
             0
  9
$DIMALTD
 70
             2
  9
$DIMALTF
 40
25.4
  9
$DIMLFAC
 40
1.0
  9
$DIMTOFL
 70
             0
  9
$DIMTVP
 40
0.0
  9
$DIMTIX
 70
             0
  9
$DIMSOXD
 70
             0
  9
$DIMSAH
 70
             0
  9
$DIMBLK1
  1

  9
$DIMBLK2
  1

  9
$DIMSTYLE
  2
STANDARD
  9
$DIMCLRD
 70
             0
  9
$DIMCLRE
 70
             0
  9
$DIMCLRT
 70
             0
  9
$DIMTFAC
 40
1.0
  9
$DIMGAP
 40
0.09
  9
$DIMJUST
 70
             0
  9
$DIMSD1
 70
             0
  9
$DIMSD2
 70
             0
  9
$DIMTOLJ
 70
             1
  9
$DIMTZIN
 70
             0
  9
$DIMALTZ
 70
             0
  9
$DIMALTTZ
 70
             0
  9
$DIMFIT
 70
             3
  9
$DIMUPT
 70
             0
  9
$DIMUNIT
 70
             2
  9
$DIMDEC
 70
             4
  9
$DIMTDEC
 70
             4
  9
$DIMALTU
 70
             2
  9
$DIMALTTD
 70
             2
  9
$DIMTXSTY
  7
STANDARD
  9
$DIMAUNIT
 70
             0
  9
$LUNITS
 70
             2
  9
$LUPREC
 70
             4
  9
$SKETCHINC
 40
0.1
  9
$FILLETRAD
 40
0.0
  9
$AUNITS
 70
             0
  9
$AUPREC
 70
             0
  9
$MENU
  1
acad
  9
$ELEVATION
 40
0.0
  9
$PELEVATION
 40
0.0
  9
$THICKNESS
 40
0.0
  9
$LIMCHECK
 70
             0
  9
$BLIPMODE
 70
             1
  9
$CHAMFERA
 40
0.0
  9
$CHAMFERB
 40
0.0
  9
$CHAMFERC
 40
0.0
  9
$CHAMFERD
 40
0.0
  9
$SKPOLY
 70
             0
  9
$TDCREATE
 40
0.000000000
  9
$TDUPDATE
 40
0.000000000
  9
$TDINDWG
 40
0.0000000000
  9
$TDUSRTIMER
 40
0.0000000000
  9
$USRTIMER
 70
             1
  9
$ANGBASE
 50
0.0
  9
$ANGDIR
 70
             0
  9
$PDMODE
 70
             0
  9
$PDSIZE
 40
0.0
  9
$PLINEWID
 40
0.0
  9
$COORDS
 70
             0
  9
$SPLFRAME
 70
             0
  9
$SPLINETYPE
 70
             6
  9
$SPLINESEGS
 70
             8
  9
$ATTDIA
 70
             0
  9
$ATTREQ
 70
             1
  9
$HANDLING
 70
             1
  9
$HANDSEED
  5
380
  9
$SURFTAB1
 70
             6
  9
$SURFTAB2
 70
             6
  9
$SURFTYPE
 70
             6
  9
$SURFU
 70
             6
  9
$SURFV
 70
             6
  9
$UCSNAME
  2

  9
$UCSORG
 10
0.0
 20
0.0
 30
0.0
  9
$UCSXDIR
 10
1.0
 20
0.0
 30
0.0
  9
$UCSYDIR
 10
0.0
 20
1.0
 30
0.0
  9
$PUCSNAME
  2

  9
$PUCSORG
 10
0.0
 20
0.0
 30
0.0
  9
$PUCSXDIR
 10
1.0
 20
0.0
 30
0.0
  9
$PUCSYDIR
 10
0.0
 20
1.0
 30
0.0
  9
$USERI1
 70
             0
  9
$USERI2
 70
             0
  9
$USERI3
 70
             0
  9
$USERI4
 70
             0
  9
$USERI5
 70
             0
  9
$USERR1
 40
11.6
  9
$USERR2
 40
0.0
  9
$USERR3
 40
0.0
  9
$USERR4
 40
0.0
  9
$USERR5
 40
0.0
  9
$WORLDVIEW
 70
             1
  9
$SHADEDGE
 70
             3
  9
$SHADEDIF
 70
            70
  9
$TILEMODE
 70
             1
  9
$MAXACTVP
 70
            16
  9
$PINSBASE
 10
0.0
 20
0.0
 30
0.0
  9
$PLIMCHECK
 70
             0
  9
$PEXTMIN
 10
1.00000000000000E+20
 20
1.00000000000000E+20
 30
1.00000000000000E+20
  9
$PEXTMAX
 10
-1.00000000000000E+20
 20
-1.00000000000000E+20
 30
-1.00000000000000E+20
  9
$PLIMMIN
 10
0.0
 20
0.0
  9
$PLIMMAX
 10
12.0
 20
9.0
  9
$UNITMODE
 70
             0
  9
$VISRETAIN
 70
             0
  9
$PLINEGEN
 70
             1
  9
$PSLTSCALE
 70
             0
  9
$TREEDEPTH
 70
          3020
  9
$PICKSTYLE
 70
             1
  9
$CMLSTYLE
  2
STANDARD
  9
$CMLJUST
 70
             0
  9
$CMLSCALE
 40
1.0
  9
$PROXYGRAPHICS
 70
             0
  9
$MEASUREMENT
 70
             1
  0
ENDSEC
  0
SECTION
  2
CLASSES
  0
CLASS
  1
LWPOLYLINE
  2
AcDbPolyline
  3
"AutoCAD"
 90
        0
280
             0
281
             1
  0
CLASS
  1
IMAGE
  2
AcDbRasterImage
  3
ISM
 90
      127
280
             0
281
             1
  0
CLASS
  1
OLE2FRAME
  2
AcDbOle2Frame
  3
""
 90
        0
280
             0
281
             1
  0
CLASS
  1
HATCH
  2
AcDbHatch
  3
"ACAD_SEDONA"
 90
        0
280
             0
281
             1
  0
CLASS
  1
DICTIONARYVAR
  2
AcDbDictionaryVar
  3
"AutoCAD"
 90
        0
280
             0
281
             0
  0
CLASS
  1
RASTERVARIABLES
  2
AcDbRasterVariables
  3
ISM
 90
        0
280
             0
281
             0
  0
CLASS
  1
IMAGEDEF
  2
AcDbRasterImageDef
  3
ISM
 90
        0
280
             0
281
             0
  0
CLASS
  1
IMAGEDEF_REACTOR
  2
AcDbRasterImageDefReactor
  3
ISM
 90
        1
280
             0
281
             0
  0
CLASS
  1
IDBUFFER
  2
AcDbIdBuffer
  3
"Acad"
 90
        0
280
             0
281
             0
  0
CLASS
  1
SPATIAL_FILTER
  2
AcDbSpatialFilter
  3
"Acad"
 90
        0
280
             0
281
             0
  0
CLASS
  1
XRECORD
  2
AcDbXrecord
  3
"<Built In>"
 90
        0
280
             0
281
             0
  0
CLASS
  1
SORTENTSTABLE
  2
AcDbSortentsTable
  3
"AutoCAD"
 90
        0
280
             0
281
             0
  0
CLASS
  1
LAYER_INDEX
  2
AcDbLayerIndex
  3
"Acad"
 90
        0
280
             0
281
             0
  0
CLASS
  1
SPATIAL_INDEX
  2
AcDbSpatialIndex
  3
"Acad"
 90
        0
280
             0
281
             0
  0
CLASS
  1
OBJECT_PTR
  2
CAseDLPNTableRecord
  3
"ASE-LPNTableRecord"
 90
        1
280
             0
281
             0
  0
CLASS
  1
LAYOUT
  2
AcDbLayout
  3
"AutoCAD 2000"
 90
        1
280
             0
281
             0
  0
CLASS
  1
PLOTSETTINGS
  2
AcDbPlotSettings
  3
"AutoCAD 2000"
 90
        1
280
             0
281
             0
  0
CLASS
  1
ACDBDICTIONARYWDFLT
  2
AcDbDictionaryWithDefault
  3
"AutoCAD 2000"
 90
        1
280
             0
281
             0
  0
CLASS
  1
ACDBPLACEHOLDER
  2
AcDbPlaceHolder
  3
"AutoCAD 2000"
 90
        1
280
             0
281
             0
  0
ENDSEC
  0
SECTION
  2
TABLES
  0
TABLE
  2
VPORT
  5
7
100
AcDbSymbolTable
 70
             1
  0
VPORT
  5
15
100
AcDbSymbolTableRecord
100
AcDbViewportTableRecord
  2
*ACTIVE
 70
             0
 10
0.0
 20
0.0
 11
1.0
 21
1.0
 12
-264.33739980659107
 22
51.12970204775399
 13
0.0
 23
0.0
 14
1.0
 24
1.0
 15
0.0
 25
0.0
 16
0.0
 26
0.0
 36
1.0
 17
0.0
 27
0.0
 37
0.0
 40
119.61097083171542
 41
1.60267857142857
 42
50.0
 43
0.0
 44
0.0
 50
0.0
 51
0.0
 71
             0
 72
           100
 73
             1
 74
             1
 75
             0
 76
             0
 77
             0
 78
             0
  0
ENDTAB
  0
TABLE
  2
LTYPE
  5
4
100
AcDbSymbolTable
 70
            10
  0
LTYPE
  5
11
100
AcDbSymbolTableRecord
100
AcDbLinetypeTableRecord
  2
BYBLOCK
 70
            64
  3

 72
            65
 73
             0
 40
0.0
  0
LTYPE
  5
12
100
AcDbSymbolTableRecord
100
AcDbLinetypeTableRecord
  2
BYLAYER
 70
            64
  3

 72
            65
 73
             0
 40
0.0
  0
LTYPE
  5
13
100
AcDbSymbolTableRecord
100
AcDbLinetypeTableRecord
  2
CONTINUOUS
 70
            64
  3
Solid line
 72
            65
 73
             0
 40
0.0
  0
LTYPE
  5
1D
100
AcDbSymbolTableRecord
100
AcDbLinetypeTableRecord
  2
DASHED
 70
            64
  3
Dashed
 72
            65
 73
             2
 40
15.0
 49
12.0
 74
             0
 49
-3.0
 74
             0
  0
LTYPE
  5
1E
100
AcDbSymbolTableRecord
100
AcDbLinetypeTableRecord
  2
DOTTED
 70
            64
  3
Dotted
 72
            65
 73
             2
 40
3.5
 49
0.5
 74
             0
 49
-3.0
 74
             0
  0
LTYPE
  5
1F
100
AcDbSymbolTableRecord
100
AcDbLinetypeTableRecord
  2
DOT_CENTER
 70
            64
  3
Dot_Center
 72
            65
 73
             4
 40
2.0
 49
1.25
 74
             0
 49
-0.25
 74
             0
 49
0.25
 74
             0
 49
-0.25
 74
             0
  0
LTYPE
  5
20
100
AcDbSymbolTableRecord
100
AcDbLinetypeTableRecord
  2
LONG_DASHED
 70
            64
  3
Long_Dashed
 72
            65
 73
             2
 40
2.0
 49
1.5
 74
             0
 49
-0.5
 74
             0
  0
LTYPE
  5
21
100
AcDbSymbolTableRecord
100
AcDbLinetypeTableRecord
  2
DASH_CENTER
 70
            64
  3
Dash_Center
 72
            65
 73
             4
 40
36.0
 49
24.0
 74
             0
 49
-3.0
 74
             0
 49
6.0
 74
             0
 49
-3.0
 74
             0
  0
LTYPE
  5
22
100
AcDbSymbolTableRecord
100
AcDbLinetypeTableRecord
  2
PHANTOM
 70
            64
  3
Phantom
 72
            65
 73
             6
 40
2.5
 49
1.25
 74
             0
 49
-0.25
 74
             0
 49
0.25
 74
             0
 49
-0.25
 74
             0
 49
0.25
 74
             0
 49
-0.25
 74
             0
  0
LTYPE
  5
23
100
AcDbSymbolTableRecord
100
AcDbLinetypeTableRecord
  2
CENTER_DASH_DASH
 70
            64
  3
Center_Dash_Dash
 72
            65
 73
             6
 40
22.0
 49
12.0
 74
             0
 49
-3.0
 74
             0
 49
0.5
 74
             0
 49
-3.0
 74
             0
 49
0.5
 74
             0
 49
-3.0
 74
             0
  0
ENDTAB
  0
TABLE
  2
LAYER
  5
2
100
AcDbSymbolTable
 70
             2
  0
LAYER
  5
14
100
AcDbSymbolTableRecord
100
AcDbLayerTableRecord
  2
0
 70
             0
 62
             7
  6
CONTINUOUS
  0
LAYER
  5
24
100
AcDbSymbolTableRecord
100
AcDbLayerTableRecord
  2
1
 70
             0
 62
             7
  6
CONTINUOUS
  0
ENDTAB
  0
TABLE
  2
STYLE
  5
3
100
AcDbSymbolTable
 70
             1
  0
STYLE
  5
17
100
AcDbSymbolTableRecord
100
AcDbTextStyleTableRecord
  2
STANDARD
 70
             0
 40
0.0
 41
1.0
 50
0.0
 71
             0
 42
0.0
  3
txt
  4

  0
ENDTAB
  0
TABLE
  2
VIEW
  5
5
100
AcDbSymbolTable
 70
             0
  0
ENDTAB
  0
TABLE
  2
UCS
  5
6
100
AcDbSymbolTable
 70
             0
  0
ENDTAB
  0
TABLE
  2
APPID
  5
8
100
AcDbSymbolTable
 70
             1
  0
APPID
  5
16
100
AcDbSymbolTableRecord
100
AcDbRegAppTableRecord
  2
ACAD
 70
             0
  0
ENDTAB
  0
TABLE
  2
DIMSTYLE
  5
9
100
AcDbSymbolTable
 70
             1
  0
DIMSTYLE
105
18
100
AcDbSymbolTableRecord
100
AcDbDimStyleTableRecord
  2
STANDARD
 70
             0
  3

  4

  5

  6

  7

 40
1.0
 41
0.18
 42
0.0625
 43
0.38
 44
0.18
 45
0.0
 46
0.0
 47
0.0
 48
0.0
 71
             0
 72
             0
 73
             1
 74
             1
 75
             0
 76
             0
 77
             0
 78
             0
140
0.18
141
0.09
142
0.0
143
25.4
144
1.0
145
0.0
146
1.0
147
0.09
170
             0
171
             2
172
             0
173
             0
174
             0
175
             0
176
             0
177
             0
178
             0
270
             2
271
             4
272
             4
273
             2
274
             2
275
             0
280
             0
281
             0
282
             0
283
             1
284
             0
285
             0
286
             0
287
             0
288
             0
340
17
  0
ENDTAB
  0
TABLE
  2
BLOCK_RECORD
  5
1
100
AcDbSymbolTable
 70
             0
  0
BLOCK_RECORD
  5
A
100
AcDbSymbolTableRecord
100
AcDbBlockTableRecord
  2
*MODEL_SPACE
  0
BLOCK_RECORD
  5
B
100
AcDbSymbolTableRecord
100
AcDbBlockTableRecord
  2
*PAPER_SPACE
  0
ENDTAB
  0
ENDSEC
  0
SECTION
  2
BLOCKS
  0
BLOCK
  5
D
100
AcDbEntity
  8
0
100
AcDbBlockBegin
  2
*MODEL_SPACE
 70
             0
 10
0.0
 20
0.0
 30
0.0
  3
*MODEL_SPACE
  1

  0
ENDBLK
  5
E
100
AcDbEntity
  8
0
100
AcDbBlockEnd
  0
BLOCK
  5
F
100
AcDbEntity
 67
             1
  8
0
100
AcDbBlockBegin
  2
*PAPER_SPACE
 70
             0
 10
0.0
 20
0.0
 30
0.0
  3
*PAPER_SPACE
  1

  0
ENDBLK
  5
10
100
AcDbEntity
 67
             1
  8
0
100
AcDbBlockEnd
  0
ENDSEC
  0
SECTION
  2
ENTITIES
  0
ARC
  5
37E
100
AcDbEntity
  8
1
  6
CONTINUOUS
 62
             7
100
AcDbCircle
 10
-339.97282701557202
 20
46.629702047754
 40
0.5
100
AcDbArc
 50
0.0
 51
90.0
  0
ARC
  5
37D
100
AcDbEntity
  8
1
  6
CONTINUOUS
 62
             7
100
AcDbCircle
 10
-339.97282701557202
 20
45.629702047754
 40
0.5
100
AcDbArc
 50
-90.0
 51
0.0
  0
ARC
  5
37C
100
AcDbEntity
  8
1
  6
CONTINUOUS
 62
             7
100
AcDbCircle
 10
-343.97282701557202
 20
45.629702047754
 40
0.5
100
AcDbArc
 50
180.0
 51
-90.0
  0
ARC
  5
37B
100
AcDbEntity
  8
1
  6
CONTINUOUS
 62
             7
100
AcDbCircle
 10
-343.97282701557202
 20
46.629702047754
 40
0.5
100
AcDbArc
 50
90.0
 51
180.0
  0
ARC
  5
37A
100
AcDbEntity
  8
1
  6
CONTINUOUS
 62
             7
100
AcDbCircle
 10
-332.47282701557202
 20
46.629702047754
 40
0.5
100
AcDbArc
 50
0.0
 51
90.0
  0
ARC
  5
379
100
AcDbEntity
  8
1
  6
CONTINUOUS
 62
             7
100
AcDbCircle
 10
-332.47282701557202
 20
45.629702047754
 40
0.5
100
AcDbArc
 50
-90.0
 51
0.0
  0
ARC
  5
378
100
AcDbEntity
  8
1
  6
CONTINUOUS
 62
             7
100
AcDbCircle
 10
-336.47282701557202
 20
45.629702047754
 40
0.5
100
AcDbArc
 50
180.0
 51
-90.0
  0
ARC
  5
377
100
AcDbEntity
  8
1
  6
CONTINUOUS
 62
             7
100
AcDbCircle
 10
-336.47282701557202
 20
46.629702047754
 40
0.5
100
AcDbArc
 50
90.0
 51
180.0
  0
ARC
  5
376
100
AcDbEntity
  8
1
  6
CONTINUOUS
 62
             7
100
AcDbCircle
 10
-310.47282701557202
 20
66.629702047754
 40
0.5
100
AcDbArc
 50
0.0
 51
90.0
  0
ARC
  5
375
100
AcDbEntity
  8
1
  6
CONTINUOUS
 62
             7
100
AcDbCircle
 10
-310.47282701557202
 20
65.629702047754
 40
0.5
100
AcDbArc
 50
-90.0
 51
0.0
  0
ARC
  5
374
100
AcDbEntity
  8
1
  6
CONTINUOUS
 62
             7
100
AcDbCircle
 10
-314.47282701557202
 20
65.629702047754
 40
0.5
100
AcDbArc
 50
180.0
 51
-90.0
  0
ARC
  5
373
100
AcDbEntity
  8
1
  6
CONTINUOUS
 62
             7
100
AcDbCircle
 10
-314.47282701557202
 20
66.629702047754
 40
0.5
100
AcDbArc
 50
90.0
 51
180.0
  0
ARC
  5
372
100
AcDbEntity
  8
1
  6
CONTINUOUS
 62
             7
100
AcDbCircle
 10
-310.47282701557202
 20
60.629702047754
 40
0.5
100
AcDbArc
 50
0.0
 51
90.0
  0
ARC
  5
371
100
AcDbEntity
  8
1
  6
CONTINUOUS
 62
             7
100
AcDbCircle
 10
-310.47282701557202
 20
59.629702047754
 40
0.5
100
AcDbArc
 50
-90.0
 51
0.0
  0
ARC
  5
370
100
AcDbEntity
  8
1
  6
CONTINUOUS
 62
             7
100
AcDbCircle
 10
-314.47282701557202
 20
59.629702047754
 40
0.5
100
AcDbArc
 50
180.0
 51
-90.0
  0
ARC
  5
36F
100
AcDbEntity
  8
1
  6
CONTINUOUS
 62
             7
100
AcDbCircle
 10
-314.47282701557202
 20
60.629702047754
 40
0.5
100
AcDbArc
 50
90.0
 51
180.0
  0
ARC
  5
36E
100
AcDbEntity
  8
1
  6
CONTINUOUS
 62
             7
100
AcDbCircle
 10
-310.47282701557202
 20
54.629702047754
 40
0.5
100
AcDbArc
 50
0.0
 51
90.0
  0
ARC
  5
36D
100
AcDbEntity
  8
1
  6
CONTINUOUS
 62
             7
100
AcDbCircle
 10
-310.47282701557202
 20
53.629702047754
 40
0.5
100
AcDbArc
 50
-90.0
 51
0.0
  0
ARC
  5
36C
100
AcDbEntity
  8
1
  6
CONTINUOUS
 62
             7
100
AcDbCircle
 10
-314.47282701557202
 20
53.629702047754
 40
0.5
100
AcDbArc
 50
180.0
 51
-90.0
  0
ARC
  5
36B
100
AcDbEntity
  8
1
  6
CONTINUOUS
 62
             7
100
AcDbCircle
 10
-314.47282701557202
 20
54.629702047754
 40
0.49999999999998
100
AcDbArc
 50
90.0
 51
180.0
  0
ARC
  5
36A
100
AcDbEntity
  8
1
  6
CONTINUOUS
 62
             7
100
AcDbCircle
 10
-310.47282701557202
 20
48.629702047754
 40
0.5
100
AcDbArc
 50
0.0
 51
90.0
  0
ARC
  5
369
100
AcDbEntity
  8
1
  6
CONTINUOUS
 62
             7
100
AcDbCircle
 10
-310.47282701557202
 20
47.629702047754
 40
0.5
100
AcDbArc
 50
-90.0
 51
0.0
  0
ARC
  5
368
100
AcDbEntity
  8
1
  6
CONTINUOUS
 62
             7
100
AcDbCircle
 10
-314.47282701557202
 20
47.629702047754
 40
0.5
100
AcDbArc
 50
180.0
 51
-90.0
  0
ARC
  5
367
100
AcDbEntity
  8
1
  6
CONTINUOUS
 62
             7
100
AcDbCircle
 10
-314.47282701557202
 20
48.629702047754
 40
0.5
100
AcDbArc
 50
90.0
 51
180.0
  0
ARC
  5
366
100
AcDbEntity
  8
1
  6
CONTINUOUS
 62
             7
100
AcDbCircle
 10
-317.47282701557202
 20
46.629702047754
 40
0.5
100
AcDbArc
 50
0.0
 51
90.0
  0
ARC
  5
365
100
AcDbEntity
  8
1
  6
CONTINUOUS
 62
             7
100
AcDbCircle
 10
-317.47282701557202
 20
45.629702047754
 40
0.5
100
AcDbArc
 50
-90.0
 51
0.0
  0
ARC
  5
364
100
AcDbEntity
  8
1
  6
CONTINUOUS
 62
             7
100
AcDbCircle
 10
-321.47282701557202
 20
45.629702047754
 40
0.5
100
AcDbArc
 50
180.0
 51
-90.0
  0
ARC
  5
363
100
AcDbEntity
  8
1
  6
CONTINUOUS
 62
             7
100
AcDbCircle
 10
-321.47282701557202
 20
46.629702047754
 40
0.5
100
AcDbArc
 50
90.0
 51
180.0
  0
ARC
  5
362
100
AcDbEntity
  8
1
  6
CONTINUOUS
 62
             7
100
AcDbCircle
 10
-308.97282701557202
 20
45.62970204775401
 40
1.5
100
AcDbArc
 50
-90.0
 51
0.0
  0
ARC
  5
361
100
AcDbEntity
  8
1
  6
CONTINUOUS
 62
             7
100
AcDbCircle
 10
-308.97282701557202
 20
41.62970204775401
 40
1.5
100
AcDbArc
 50
0.0
 51
90.0
  0
ARC
  5
360
100
AcDbEntity
  8
1
  6
CONTINUOUS
 62
             7
100
AcDbCircle
 10
-308.97282701557202
 20
35.62970204775401
 40
1.5
100
AcDbArc
 50
-90.0
 51
0.0
  0
ARC
  5
35F
100
AcDbEntity
  8
1
  6
CONTINUOUS
 62
             7
100
AcDbCircle
 10
-345.97282701557202
 20
35.62970204775401
 40
1.5
100
AcDbArc
 50
180.0
 51
-90.0
  0
ARC
  5
35E
100
AcDbEntity
  8
1
  6
CONTINUOUS
 62
             7
100
AcDbCircle
 10
-345.97282701557202
 20
41.62970204775401
 40
1.5
100
AcDbArc
 50
90.0
 51
180.0
  0
ARC
  5
35D
100
AcDbEntity
  8
1
  6
CONTINUOUS
 62
             7
100
AcDbCircle
 10
-345.97282701557202
 20
45.62970204775401
 40
1.5
100
AcDbArc
 50
180.0
 51
-90.0
  0
ARC
  5
35C
100
AcDbEntity
  8
1
  6
CONTINUOUS
 62
             7
100
AcDbCircle
 10
-308.97282701557202
 20
69.12970204775402
 40
1.5
100
AcDbArc
 50
0.0
 51
90.0
  0
ARC
  5
35B
100
AcDbEntity
  8
1
  6
CONTINUOUS
 62
             7
100
AcDbCircle
 10
-345.97282701557202
 20
69.12970204775402
 40
1.5
100
AcDbArc
 50
90.0
 51
180.0
  0
ARC
  5
35A
100
AcDbEntity
  8
1
  6
CONTINUOUS
 62
             7
100
AcDbCircle
 10
-344.97282701557202
 20
41.12970204775401
 40
1.0
100
AcDbArc
 50
90.0
 51
180.0
  0
ARC
  5
359
100
AcDbEntity
  8
1
  6
CONTINUOUS
 62
             7
100
AcDbCircle
 10
-344.97282701557202
 20
36.12970204775401
 40
1.0
100
AcDbArc
 50
180.0
 51
-90.0
  0
ARC
  5
358
100
AcDbEntity
  8
1
  6
CONTINUOUS
 62
             7
100
AcDbCircle
 10
-309.97282701557202
 20
36.12970204775401
 40
1.0
100
AcDbArc
 50
-90.0
 51
0.0
  0
ARC
  5
357
100
AcDbEntity
  8
1
  6
CONTINUOUS
 62
             7
100
AcDbCircle
 10
-309.97282701557202
 20
41.12970204775401
 40
1.0
100
AcDbArc
 50
0.0
 51
90.0
  0
ARC
  5
356
100
AcDbEntity
  8
1
  6
CONTINUOUS
 62
             7
100
AcDbCircle
 10
-328.97282701557202
 20
46.629702047754
 40
0.5
100
AcDbArc
 50
90.0
 51
180.0
  0
ARC
  5
355
100
AcDbEntity
  8
1
  6
CONTINUOUS
 62
             7
100
AcDbCircle
 10
-328.97282701557202
 20
45.629702047754
 40
0.5
100
AcDbArc
 50
180.0
 51
-90.0
  0
ARC
  5
354
100
AcDbEntity
  8
1
  6
CONTINUOUS
 62
             7
100
AcDbCircle
 10
-324.97282701557202
 20
45.629702047754
 40
0.5
100
AcDbArc
 50
-90.0
 51
0.0
  0
ARC
  5
353
100
AcDbEntity
  8
1
  6
CONTINUOUS
 62
             7
100
AcDbCircle
 10
-324.97282701557202
 20
46.629702047754
 40
0.5
100
AcDbArc
 50
0.0
 51
90.0
  0
ARC
  5
352
100
AcDbEntity
  8
1
  6
CONTINUOUS
 62
             7
100
AcDbCircle
 10
-211.70197259761011
 20
22.47970204775399
 40
1.1999999999999
100
AcDbArc
 50
180.0
 51
-90.0
  0
ARC
  5
351
100
AcDbEntity
  8
1
  6
CONTINUOUS
 62
             7
100
AcDbCircle
 10
-188.10197259761009
 20
22.47970204775399
 40
1.2
100
AcDbArc
 50
-90.0
 51
0.0
  0
ARC
  5
350
100
AcDbEntity
  8
1
  6
CONTINUOUS
 62
             7
100
AcDbCircle
 10
-211.70197259761011
 20
79.77970204775399
 40
1.2
100
AcDbArc
 50
90.0
 51
180.0
  0
ARC
  5
34F
100
AcDbEntity
  8
1
  6
CONTINUOUS
 62
             7
100
AcDbCircle
 10
-188.10197259761009
 20
79.77970204775399
 40
1.19999999999999
100
AcDbArc
 50
0.0
 51
90.0
  0
ARC
  5
34E
100
AcDbEntity
  8
0
  6
CONTINUOUS
 62
             7
100
AcDbCircle
 10
-181.64983026277079
 20
66.64110195412091
 40
0.19999999999999
100
AcDbArc
 50
0.0
 51
69.44395478041274
  0
ARC
  5
34D
100
AcDbEntity
  8
0
  6
CONTINUOUS
 62
             7
100
AcDbCircle
 10
-181.64983026277079
 20
68.41830214138678
 40
0.20000000000001
100
AcDbArc
 50
-69.44395478041274
 51
0.0
  0
ARC
  5
34C
100
AcDbEntity
  8
0
  6
CONTINUOUS
 62
             7
100
AcDbCircle
 10
-182.64983026277079
 20
66.64110195412091
 40
0.19999999999999
100
AcDbArc
 50
0.0
 51
69.44395478041274
  0
ARC
  5
34B
100
AcDbEntity
  8
0
  6
CONTINUOUS
 62
             7
100
AcDbCircle
 10
-182.64983026277079
 20
68.41830214138678
 40
0.20000000000001
100
AcDbArc
 50
-69.44395478041274
 51
0.0
  0
ARC
  5
34A
100
AcDbEntity
  8
0
  6
CONTINUOUS
 62
             7
100
AcDbCircle
 10
-182.64983026277079
 20
60.21830214138687
 40
0.20000000000001
100
AcDbArc
 50
-69.44395478041274
 51
0.0
  0
ARC
  5
349
100
AcDbEntity
  8
0
  6
CONTINUOUS
 62
             7
100
AcDbCircle
 10
-182.64983026277079
 20
58.44110195412101
 40
0.19999999999999
100
AcDbArc
 50
0.0
 51
69.44395478041274
  0
ARC
  5
348
100
AcDbEntity
  8
0
  6
CONTINUOUS
 62
             7
100
AcDbCircle
 10
-181.64983026277079
 20
60.21830214138687
 40
0.20000000000001
100
AcDbArc
 50
-69.44395478041274
 51
0.0
  0
ARC
  5
347
100
AcDbEntity
  8
0
  6
CONTINUOUS
 62
             7
100
AcDbCircle
 10
-181.64983026277079
 20
58.44110195412101
 40
0.19999999999999
100
AcDbArc
 50
0.0
 51
69.44395478041274
  0
ARC
  5
346
100
AcDbEntity
  8
0
  6
CONTINUOUS
 62
             7
100
AcDbCircle
 10
-182.64983026277079
 20
52.01830214138678
 40
0.20000000000002
100
AcDbArc
 50
-69.44395478041345
 51
0.0
  0
ARC
  5
345
100
AcDbEntity
  8
0
  6
CONTINUOUS
 62
             7
100
AcDbCircle
 10
-182.64983026277079
 20
50.24110195412091
 40
0.19999999999999
100
AcDbArc
 50
0.0
 51
69.44395478041345
  0
ARC
  5
344
100
AcDbEntity
  8
0
  6
CONTINUOUS
 62
             7
100
AcDbCircle
 10
-181.64983026277079
 20
52.01830214138678
 40
0.20000000000002
100
AcDbArc
 50
-69.44395478041345
 51
0.0
  0
ARC
  5
343
100
AcDbEntity
  8
0
  6
CONTINUOUS
 62
             7
100
AcDbCircle
 10
-181.64983026277079
 20
50.24110195412091
 40
0.19999999999999
100
AcDbArc
 50
0.0
 51
69.44395478041345
  0
ARC
  5
342
100
AcDbEntity
  8
0
  6
CONTINUOUS
 62
             7
100
AcDbCircle
 10
-182.64983026277079
 20
43.81830214138709
 40
0.20000000000001
100
AcDbArc
 50
-69.44395478041274
 51
0.0
  0
ARC
  5
341
100
AcDbEntity
  8
0
  6
CONTINUOUS
 62
             7
100
AcDbCircle
 10
-182.64983026277079
 20
42.04110195412123
 40
0.19999999999999
100
AcDbArc
 50
0.0
 51
69.44395478041201
  0
ARC
  5
340
100
AcDbEntity
  8
0
  6
CONTINUOUS
 62
             7
100
AcDbCircle
 10
-181.64983026277079
 20
43.81830214138709
 40
0.20000000000001
100
AcDbArc
 50
-69.44395478041274
 51
0.0
  0
ARC
  5
33F
100
AcDbEntity
  8
0
  6
CONTINUOUS
 62
             7
100
AcDbCircle
 10
-181.64983026277079
 20
42.04110195412123
 40
0.19999999999999
100
AcDbArc
 50
0.0
 51
69.44395478041201
  0
ARC
  5
33E
100
AcDbEntity
  8
0
  6
CONTINUOUS
 62
             7
100
AcDbCircle
 10
-181.64983026277079
 20
33.84110195412126
 40
0.19999999999999
100
AcDbArc
 50
0.0
 51
69.44395478041274
  0
ARC
  5
33D
100
AcDbEntity
  8
0
  6
CONTINUOUS
 62
             7
100
AcDbCircle
 10
-181.64983026277079
 20
35.61830214138712
 40
0.2
100
AcDbArc
 50
-69.44395478041201
 51
0.0
  0
ARC
  5
33C
100
AcDbEntity
  8
0
  6
CONTINUOUS
 62
             7
100
AcDbCircle
 10
-182.64983026277079
 20
33.84110195412126
 40
0.19999999999999
100
AcDbArc
 50
0.0
 51
69.44395478041274
  0
ARC
  5
33B
100
AcDbEntity
  8
0
  6
CONTINUOUS
 62
             7
100
AcDbCircle
 10
-182.64983026277079
 20
35.61830214138712
 40
0.2
100
AcDbArc
 50
-69.44395478041201
 51
0.0
  0
CIRCLE
  5
33A
100
AcDbEntity
  8
1
  6
CONTINUOUS
 62
             7
100
AcDbCircle
 10
-189.20197259761019
 20
62.16470204775396
 40
0.24500000000009
  0
CIRCLE
  5
339
100
AcDbEntity
  8
1
  6
CONTINUOUS
 62
             7
100
AcDbCircle
 10
-313.22282701557202
 20
38.629702047754
 40
2.5
  0
CIRCLE
  5
338
100
AcDbEntity
  8
1
  6
CONTINUOUS
 62
             7
100
AcDbCircle
 10
-338.97282701557202
 20
58.629702047754
 40
0.5
  0
CIRCLE
  5
337
100
AcDbEntity
  8
1
  6
CONTINUOUS
 62
             7
100
AcDbCircle
 10
-313.22282701557202
 20
38.629702047754
 40
2.0
  0
CIRCLE
  5
336
100
AcDbEntity
  8
1
  6
CONTINUOUS
 62
             7
100
AcDbCircle
 10
-338.87441477406321
 20
48.729702047754
 40
0.5
  0
CIRCLE
  5
335
100
AcDbEntity
  8
1
  6
CONTINUOUS
 62
             7
100
AcDbCircle
 10
-331.37441477406321
 20
48.729702047754
 40
0.5
  0
CIRCLE
  5
334
100
AcDbEntity
  8
1
  6
CONTINUOUS
 62
             7
100
AcDbCircle
 10
-331.47282701557202
 20
58.629702047754
 40
0.5
  0
CIRCLE
  5
333
100
AcDbEntity
  8
1
  6
CONTINUOUS
 62
             7
100
AcDbCircle
 10
-323.87441477406321
 20
48.729702047754
 40
0.5
  0
CIRCLE
  5
332
100
AcDbEntity
  8
1
  6
CONTINUOUS
 62
             7
100
AcDbCircle
 10
-323.97282701557202
 20
58.629702047754
 40
0.5
  0
ARC
  5
331
100
AcDbEntity
  8
1
  6
CONTINUOUS
 62
             7
100
AcDbCircle
 10
-284.20197259761011
 20
27.9316082881517
 40
0.5
100
AcDbArc
 50
-179.99999999999633
 51
-94.0000000000031
  0
ARC
  5
330
100
AcDbEntity
  8
1
  6
CONTINUOUS
 62
             7
100
AcDbCircle
 10
-284.20197259761011
 20
74.32779580735632
 40
0.5
100
AcDbArc
 50
94.00000000000301
 51
180.0
  0
ARC
  5
32F
100
AcDbEntity
  8
1
  6
CONTINUOUS
 62
             7
100
AcDbCircle
 10
-304.47282701557202
 20
28.129702047754
 40
1.0
100
AcDbArc
 50
-90.0
 51
0.0
  0
ARC
  5
32E
100
AcDbEntity
  8
1
  6
CONTINUOUS
 62
             7
100
AcDbCircle
 10
-350.47282701557202
 20
28.129702047754
 40
1.0
100
AcDbArc
 50
180.0
 51
-90.0
  0
ARC
  5
32D
100
AcDbEntity
  8
1
  6
CONTINUOUS
 62
             7
100
AcDbCircle
 10
-350.47282701557202
 20
74.129702047754
 40
1.0
100
AcDbArc
 50
90.0
 51
180.0
  0
ARC
  5
32C
100
AcDbEntity
  8
1
  6
CONTINUOUS
 62
             7
100
AcDbCircle
 10
-304.47282701557202
 20
74.129702047754
 40
1.0
100
AcDbArc
 50
0.0
 51
90.0
  0
ARC
  5
32B
100
AcDbEntity
  8
1
  6
CONTINUOUS
 62
             7
100
AcDbCircle
 10
-189.20197259761019
 20
65.25322652629757
 40
0.20999999999945
100
AcDbArc
 50
30.00000000009293
 51
150.00000000000401
  0
ARC
  5
32A
100
AcDbEntity
  8
1
  6
CONTINUOUS
 62
             7
100
AcDbCircle
 10
-191.28824192802111
 20
61.63970204775376
 40
0.21000000000029
100
AcDbArc
 50
150.00000000000429
 51
-90.0
  0
ARC
  5
329
100
AcDbEntity
  8
1
  6
CONTINUOUS
 62
             7
100
AcDbCircle
 10
-187.11570326720059
 20
61.63970204775376
 40
0.20999999999992
100
AcDbArc
 50
-90.0
 51
29.99999999999572
  0
ARC
  5
328
100
AcDbEntity
  8
1
  6
CONTINUOUS
 62
             7
100
AcDbCircle
 10
-189.20197259761019
 20
64.01970204775375
 40
0.27999999999964
100
AcDbArc
 50
-6.75632703056706
 51
-173.24367296945485
  0
ARC
  5
327
100
AcDbEntity
  8
1
  6
CONTINUOUS
 62
             7
100
AcDbCircle
 10
-189.20197259761019
 20
62.82970204775381
 40
0.14000000000067
100
AcDbArc
 50
-173.24367296949777
 51
-6.75632703056517
  0
ARC
  5
326
100
AcDbEntity
  8
1
  6
CONTINUOUS
 62
             7
100
AcDbCircle
 10
-321.872827015572
 20
38.62970204775401
 40
1.25
100
AcDbArc
 50
-90.0
 51
90.0
  0
ARC
  5
325
100
AcDbEntity
  8
1
  6
CONTINUOUS
 62
             7
100
AcDbCircle
 10
-323.97282701557202
 20
38.62970204775401
 40
1.75
100
AcDbArc
 50
90.0
 51
-90.0
  0
ARC
  5
324
100
AcDbEntity
  8
1
  6
CONTINUOUS
 62
             7
100
AcDbCircle
 10
-321.47282701557202
 20
38.62970204775401
 40
1.75
100
AcDbArc
 50
-90.0
 51
90.0
  0
ARC
  5
323
100
AcDbEntity
  8
1
  6
CONTINUOUS
 62
             7
100
AcDbCircle
 10
-323.57282701557222
 20
38.62970204775401
 40
1.25
100
AcDbArc
 50
90.0
 51
-90.0
  0
ARC
  5
322
100
AcDbEntity
  8
1
  6
CONTINUOUS
 62
             7
100
AcDbCircle
 10
-341.39121897547778
 20
59.229702047754
 40
1.19999999999984
100
AcDbArc
 50
-31.08127165113323
 51
-10.00000000000032
  0
ARC
  5
321
100
AcDbEntity
  8
1
  6
CONTINUOUS
 62
             7
100
AcDbCircle
 10
-341.39121897547778
 20
59.229702047754
 40
1.2
100
AcDbArc
 50
-90.0
 51
-60.42597215213637
  0
ARC
  5
320
100
AcDbEntity
  8
1
  6
CONTINUOUS
 62
             7
100
AcDbCircle
 10
-343.92978550519223
 20
59.229702047754
 40
1.20000000000001
100
AcDbArc
 50
-126.02077068994311
 51
-90.0
  0
ARC
  5
31F
100
AcDbEntity
  8
1
  6
CONTINUOUS
 62
             7
100
AcDbCircle
 10
-343.92978550519223
 20
59.229702047754
 40
1.20000000000001
100
AcDbArc
 50
170.00000000000017
 51
-155.11610209557406
  0
ARC
  5
31E
100
AcDbEntity
  8
1
  6
CONTINUOUS
 62
             7
100
AcDbCircle
 10
-342.55443505566632
 20
67.029702047754
 40
1.19999999999985
100
AcDbArc
 50
148.91872834886593
 51
170.00000000000017
  0
ARC
  5
31D
100
AcDbEntity
  8
1
  6
CONTINUOUS
 62
             7
100
AcDbCircle
 10
-340.01586852595182
 20
67.029702047754
 40
1.19999999999995
100
AcDbArc
 50
-10.00000000000032
 51
24.88389790442938
  0
ARC
  5
31C
100
AcDbEntity
  8
1
  6
CONTINUOUS
 62
             7
100
AcDbCircle
 10
-342.55443505566632
 20
67.029702047754
 40
1.19999999999999
100
AcDbArc
 50
90.0
 51
119.5740278478611
  0
ARC
  5
31B
100
AcDbEntity
  8
1
  6
CONTINUOUS
 62
             7
100
AcDbCircle
 10
-340.01586852595182
 20
67.029702047754
 40
1.20000000000005
100
AcDbArc
 50
53.9792293100549
 51
90.0
  0
ARC
  5
31A
100
AcDbEntity
  8
1
  6
CONTINUOUS
 62
             7
100
AcDbCircle
 10
-342.67788474080618
 20
55.72958409278229
 40
1.19999999999999
100
AcDbArc
 50
90.0
 51
117.97530081943381
  0
ARC
  5
319
100
AcDbEntity
  8
1
  6
CONTINUOUS
 62
             7
100
AcDbCircle
 10
-340.1393182110919
 20
55.72958409278229
 40
1.20000000000005
100
AcDbArc
 50
52.02469918056146
 51
90.0
  0
ARC
  5
318
100
AcDbEntity
  8
1
  6
CONTINUOUS
 62
             7
100
AcDbCircle
 10
-342.67788474080618
 20
55.72958409278229
 40
1.19999999999993
100
AcDbArc
 50
146.95776330000243
 51
170.00000000000034
  0
ARC
  5
317
100
AcDbEntity
  8
1
  6
CONTINUOUS
 62
             7
100
AcDbCircle
 10
-340.1393182110919
 20
55.72958409278229
 40
1.20000000000018
100
AcDbArc
 50
-9.9999999999991
 51
23.04223669999606
  0
ARC
  5
316
100
AcDbEntity
  8
1
  6
CONTINUOUS
 62
             7
100
AcDbCircle
 10
-343.80635661869638
 20
49.329702047754
 40
1.19999999999996
100
AcDbArc
 50
169.99999999999869
 51
-156.9577633000047
  0
ARC
  5
315
100
AcDbEntity
  8
1
  6
CONTINUOUS
 62
             7
100
AcDbCircle
 10
-341.26779008898188
 20
49.329702047754
 40
1.19999999999992
100
AcDbArc
 50
-33.04223669999729
 51
-10.00000000000032
  0
ARC
  5
314
100
AcDbEntity
  8
1
  6
CONTINUOUS
 62
             7
100
AcDbCircle
 10
-341.26779008898188
 20
49.329702047754
 40
1.2
100
AcDbArc
 50
-90.0
 51
-62.02469918056634
  0
ARC
  5
313
100
AcDbEntity
  8
1
  6
CONTINUOUS
 62
             7
100
AcDbCircle
 10
-343.80635661869638
 20
49.329702047754
 40
1.19999999999995
100
AcDbArc
 50
-127.97530081943171
 51
-90.0
  0
ARC
  5
312
100
AcDbEntity
  8
1
  6
CONTINUOUS
 62
             7
100
AcDbCircle
 10
-336.30635661869638
 20
49.329702047754
 40
1.19999999999995
100
AcDbArc
 50
-127.97530081943171
 51
-90.0
  0
ARC
  5
311
100
AcDbEntity
  8
1
  6
CONTINUOUS
 62
             7
100
AcDbCircle
 10
-333.76779008898188
 20
49.329702047754
 40
1.2
100
AcDbArc
 50
-90.0
 51
-62.02469918056634
  0
ARC
  5
310
100
AcDbEntity
  8
1
  6
CONTINUOUS
 62
             7
100
AcDbCircle
 10
-333.76779008898188
 20
49.329702047754
 40
1.19999999999992
100
AcDbArc
 50
-33.04223669999729
 51
-10.00000000000032
  0
ARC
  5
30F
100
AcDbEntity
  8
1
  6
CONTINUOUS
 62
             7
100
AcDbCircle
 10
-336.30635661869638
 20
49.329702047754
 40
1.19999999999996
100
AcDbArc
 50
169.99999999999869
 51
-156.9577633000047
  0
ARC
  5
30E
100
AcDbEntity
  8
1
  6
CONTINUOUS
 62
             7
100
AcDbCircle
 10
-332.63931821109168
 20
55.72958409278229
 40
1.19999999999995
100
AcDbArc
 50
-10.00000000000099
 51
23.04223670000031
  0
ARC
  5
30D
100
AcDbEntity
  8
1
  6
CONTINUOUS
 62
             7
100
AcDbCircle
 10
-335.17788474080618
 20
55.72958409278229
 40
1.19999999999993
100
AcDbArc
 50
146.95776330000243
 51
170.00000000000034
  0
ARC
  5
30C
100
AcDbEntity
  8
1
  6
CONTINUOUS
 62
             7
100
AcDbCircle
 10
-332.63931821109168
 20
55.72958409278229
 40
1.19999999999991
100
AcDbArc
 50
52.02469918057001
 51
90.0
  0
ARC
  5
30B
100
AcDbEntity
  8
1
  6
CONTINUOUS
 62
             7
100
AcDbCircle
 10
-335.17788474080618
 20
55.72958409278229
 40
1.19999999999999
100
AcDbArc
 50
90.0
 51
117.97530081943381
  0
ARC
  5
30A
100
AcDbEntity
  8
1
  6
CONTINUOUS
 62
             7
100
AcDbCircle
 10
-332.51586852595182
 20
67.029702047754
 40
1.19999999999992
100
AcDbArc
 50
53.97922931006367
 51
90.0
  0
ARC
  5
309
100
AcDbEntity
  8
1
  6
CONTINUOUS
 62
             7
100
AcDbCircle
 10
-335.05443505566632
 20
67.029702047754
 40
1.19999999999999
100
AcDbArc
 50
90.0
 51
119.5740278478611
  0
ARC
  5
308
100
AcDbEntity
  8
1
  6
CONTINUOUS
 62
             7
100
AcDbCircle
 10
-332.51586852595182
 20
67.029702047754
 40
1.19999999999995
100
AcDbArc
 50
-10.00000000000032
 51
24.88389790442938
  0
ARC
  5
307
100
AcDbEntity
  8
1
  6
CONTINUOUS
 62
             7
100
AcDbCircle
 10
-335.05443505566632
 20
67.029702047754
 40
1.19999999999985
100
AcDbArc
 50
148.91872834886593
 51
170.00000000000017
  0
ARC
  5
306
100
AcDbEntity
  8
1
  6
CONTINUOUS
 62
             7
100
AcDbCircle
 10
-336.42978550519223
 20
59.229702047754
 40
1.20000000000001
100
AcDbArc
 50
170.00000000000017
 51
-155.11610209557406
  0
ARC
  5
305
100
AcDbEntity
  8
1
  6
CONTINUOUS
 62
             7
100
AcDbCircle
 10
-336.42978550519223
 20
59.229702047754
 40
1.20000000000001
100
AcDbArc
 50
-126.02077068994311
 51
-90.0
  0
ARC
  5
304
100
AcDbEntity
  8
1
  6
CONTINUOUS
 62
             7
100
AcDbCircle
 10
-333.89121897547778
 20
59.229702047754
 40
1.2
100
AcDbArc
 50
-90.0
 51
-60.42597215213637
  0
ARC
  5
303
100
AcDbEntity
  8
1
  6
CONTINUOUS
 62
             7
100
AcDbCircle
 10
-333.89121897547778
 20
59.229702047754
 40
1.19999999999995
100
AcDbArc
 50
-31.081271651131
 51
-10.00000000000032
  0
ARC
  5
302
100
AcDbEntity
  8
1
  6
CONTINUOUS
 62
             7
100
AcDbCircle
 10
-328.80635661869638
 20
49.329702047754
 40
1.19999999999995
100
AcDbArc
 50
-127.97530081943171
 51
-90.0
  0
ARC
  5
301
100
AcDbEntity
  8
1
  6
CONTINUOUS
 62
             7
100
AcDbCircle
 10
-326.26779008898188
 20
49.329702047754
 40
1.2
100
AcDbArc
 50
-90.0
 51
-62.02469918056634
  0
ARC
  5
300
100
AcDbEntity
  8
1
  6
CONTINUOUS
 62
             7
100
AcDbCircle
 10
-326.26779008898188
 20
49.329702047754
 40
1.19999999999992
100
AcDbArc
 50
-33.04223669999729
 51
-10.00000000000032
  0
ARC
  5
2FF
100
AcDbEntity
  8
1
  6
CONTINUOUS
 62
             7
100
AcDbCircle
 10
-328.80635661869638
 20
49.329702047754
 40
1.19999999999996
100
AcDbArc
 50
169.99999999999869
 51
-156.9577633000047
  0
ARC
  5
2FE
100
AcDbEntity
  8
1
  6
CONTINUOUS
 62
             7
100
AcDbCircle
 10
-325.13931821109168
 20
55.72958409278229
 40
1.19999999999995
100
AcDbArc
 50
-10.00000000000099
 51
23.04223670000031
  0
ARC
  5
2FD
100
AcDbEntity
  8
1
  6
CONTINUOUS
 62
             7
100
AcDbCircle
 10
-327.67788474080618
 20
55.72958409278229
 40
1.19999999999993
100
AcDbArc
 50
146.95776330000243
 51
170.00000000000034
  0
ARC
  5
2FC
100
AcDbEntity
  8
1
  6
CONTINUOUS
 62
             7
100
AcDbCircle
 10
-325.13931821109168
 20
55.72958409278229
 40
1.19999999999991
100
AcDbArc
 50
52.02469918057001
 51
90.0
  0
ARC
  5
2FB
100
AcDbEntity
  8
1
  6
CONTINUOUS
 62
             7
100
AcDbCircle
 10
-327.67788474080618
 20
55.72958409278229
 40
1.19999999999999
100
AcDbArc
 50
90.0
 51
117.97530081943381
  0
ARC
  5
2FA
100
AcDbEntity
  8
1
  6
CONTINUOUS
 62
             7
100
AcDbCircle
 10
-325.01586852595182
 20
67.029702047754
 40
1.19999999999992
100
AcDbArc
 50
53.97922931006367
 51
90.0
  0
ARC
  5
2F9
100
AcDbEntity
  8
1
  6
CONTINUOUS
 62
             7
100
AcDbCircle
 10
-327.55443505566632
 20
67.029702047754
 40
1.19999999999999
100
AcDbArc
 50
90.0
 51
119.5740278478611
  0
ARC
  5
2F8
100
AcDbEntity
  8
1
  6
CONTINUOUS
 62
             7
100
AcDbCircle
 10
-325.01586852595182
 20
67.029702047754
 40
1.19999999999995
100
AcDbArc
 50
-10.00000000000032
 51
24.88389790442938
  0
ARC
  5
2F7
100
AcDbEntity
  8
1
  6
CONTINUOUS
 62
             7
100
AcDbCircle
 10
-327.55443505566632
 20
67.029702047754
 40
1.19999999999985
100
AcDbArc
 50
148.91872834886593
 51
170.00000000000017
  0
ARC
  5
2F6
100
AcDbEntity
  8
1
  6
CONTINUOUS
 62
             7
100
AcDbCircle
 10
-328.92978550519223
 20
59.229702047754
 40
1.20000000000001
100
AcDbArc
 50
170.00000000000017
 51
-155.11610209557406
  0
ARC
  5
2F5
100
AcDbEntity
  8
1
  6
CONTINUOUS
 62
             7
100
AcDbCircle
 10
-328.92978550519223
 20
59.229702047754
 40
1.20000000000001
100
AcDbArc
 50
-126.02077068994311
 51
-90.0
  0
ARC
  5
2F4
100
AcDbEntity
  8
1
  6
CONTINUOUS
 62
             7
100
AcDbCircle
 10
-326.39121897547778
 20
59.229702047754
 40
1.2
100
AcDbArc
 50
-90.0
 51
-60.42597215213637
  0
ARC
  5
2F3
100
AcDbEntity
  8
1
  6
CONTINUOUS
 62
             7
100
AcDbCircle
 10
-326.39121897547778
 20
59.229702047754
 40
1.19999999999984
100
AcDbArc
 50
-31.08127165113323
 51
-10.00000000000032
  0
ARC
  5
2F2
100
AcDbEntity
  8
1
  6
CONTINUOUS
 62
             7
100
AcDbCircle
 10
-321.30635661869638
 20
49.329702047754
 40
1.19999999999995
100
AcDbArc
 50
-127.97530081943171
 51
-90.0
  0
ARC
  5
2F1
100
AcDbEntity
  8
1
  6
CONTINUOUS
 62
             7
100
AcDbCircle
 10
-318.76779008898188
 20
49.329702047754
 40
1.2
100
AcDbArc
 50
-90.0
 51
-62.02469918056634
  0
ARC
  5
2F0
100
AcDbEntity
  8
1
  6
CONTINUOUS
 62
             7
100
AcDbCircle
 10
-318.76779008898188
 20
49.329702047754
 40
1.19999999999992
100
AcDbArc
 50
-33.04223669999729
 51
-10.00000000000032
  0
ARC
  5
2EF
100
AcDbEntity
  8
1
  6
CONTINUOUS
 62
             7
100
AcDbCircle
 10
-321.30635661869638
 20
49.329702047754
 40
1.19999999999996
100
AcDbArc
 50
169.99999999999869
 51
-156.9577633000047
  0
ARC
  5
2EE
100
AcDbEntity
  8
1
  6
CONTINUOUS
 62
             7
100
AcDbCircle
 10
-317.63931821109168
 20
55.72958409278229
 40
1.19999999999995
100
AcDbArc
 50
-10.00000000000099
 51
23.04223670000031
  0
ARC
  5
2ED
100
AcDbEntity
  8
1
  6
CONTINUOUS
 62
             7
100
AcDbCircle
 10
-320.17788474080618
 20
55.72958409278229
 40
1.19999999999993
100
AcDbArc
 50
146.95776330000243
 51
170.00000000000034
  0
ARC
  5
2EC
100
AcDbEntity
  8
1
  6
CONTINUOUS
 62
             7
100
AcDbCircle
 10
-317.63931821109168
 20
55.72958409278229
 40
1.19999999999991
100
AcDbArc
 50
52.02469918057001
 51
90.0
  0
ARC
  5
2EB
100
AcDbEntity
  8
1
  6
CONTINUOUS
 62
             7
100
AcDbCircle
 10
-320.17788474080618
 20
55.72958409278229
 40
1.19999999999999
100
AcDbArc
 50
90.0
 51
117.97530081943381
  0
ARC
  5
2EA
100
AcDbEntity
  8
1
  6
CONTINUOUS
 62
             7
100
AcDbCircle
 10
-317.51586852595182
 20
67.029702047754
 40
1.20000000000005
100
AcDbArc
 50
53.9792293100549
 51
90.0
  0
ARC
  5
2E9
100
AcDbEntity
  8
1
  6
CONTINUOUS
 62
             7
100
AcDbCircle
 10
-320.05443505566632
 20
67.029702047754
 40
1.19999999999999
100
AcDbArc
 50
90.0
 51
119.5740278478611
  0
ARC
  5
2E8
100
AcDbEntity
  8
1
  6
CONTINUOUS
 62
             7
100
AcDbCircle
 10
-317.51586852595182
 20
67.029702047754
 40
1.19999999999995
100
AcDbArc
 50
-10.00000000000032
 51
24.88389790442938
  0
ARC
  5
2E7
100
AcDbEntity
  8
1
  6
CONTINUOUS
 62
             7
100
AcDbCircle
 10
-320.05443505566632
 20
67.029702047754
 40
1.19999999999985
100
AcDbArc
 50
148.91872834886593
 51
170.00000000000017
  0
ARC
  5
2E6
100
AcDbEntity
  8
1
  6
CONTINUOUS
 62
             7
100
AcDbCircle
 10
-321.42978550519223
 20
59.229702047754
 40
1.20000000000001
100
AcDbArc
 50
170.00000000000017
 51
-155.11610209557406
  0
ARC
  5
2E5
100
AcDbEntity
  8
1
  6
CONTINUOUS
 62
             7
100
AcDbCircle
 10
-321.42978550519223
 20
59.229702047754
 40
1.20000000000001
100
AcDbArc
 50
-126.02077068994311
 51
-90.0
  0
ARC
  5
2E4
100
AcDbEntity
  8
1
  6
CONTINUOUS
 62
             7
100
AcDbCircle
 10
-318.89121897547778
 20
59.229702047754
 40
1.2
100
AcDbArc
 50
-90.0
 51
-60.42597215213637
  0
ARC
  5
2E3
100
AcDbEntity
  8
1
  6
CONTINUOUS
 62
             7
100
AcDbCircle
 10
-318.89121897547778
 20
59.229702047754
 40
1.19999999999984
100
AcDbArc
 50
-31.08127165113323
 51
-10.00000000000032
  0
ARC
  5
2E2
100
AcDbEntity
  8
1
  6
CONTINUOUS
 62
             7
100
AcDbCircle
 10
-326.77282701557198
 20
38.62970204775401
 40
0.3
100
AcDbArc
 50
-90.0
 51
90.0
  0
ARC
  5
2E1
100
AcDbEntity
  8
1
  6
CONTINUOUS
 62
             7
100
AcDbCircle
 10
-328.17282701557212
 20
38.62970204775401
 40
0.3
100
AcDbArc
 50
90.0
 51
-90.0
  0
ARC
  5
2E0
100
AcDbEntity
  8
1
  6
CONTINUOUS
 62
             7
100
AcDbCircle
 10
-328.17282701557212
 20
39.82970204775401
 40
0.3
100
AcDbArc
 50
90.0
 51
-90.0
  0
ARC
  5
2DF
100
AcDbEntity
  8
1
  6
CONTINUOUS
 62
             7
100
AcDbCircle
 10
-326.77282701557198
 20
39.82970204775401
 40
0.30000000000001
100
AcDbArc
 50
-90.0
 51
90.0
  0
ARC
  5
2DE
100
AcDbEntity
  8
1
  6
CONTINUOUS
 62
             7
100
AcDbCircle
 10
-328.17282701557212
 20
37.42970204775401
 40
0.3
100
AcDbArc
 50
90.0
 51
-90.0
  0
ARC
  5
2DD
100
AcDbEntity
  8
1
  6
CONTINUOUS
 62
             7
100
AcDbCircle
 10
-326.77282701557198
 20
37.42970204775401
 40
0.3
100
AcDbArc
 50
-90.0
 51
90.0
  0
ARC
  5
2DC
100
AcDbEntity
  8
1
  6
CONTINUOUS
 62
             7
100
AcDbCircle
 10
-336.27282701557198
 20
37.42970204775401
 40
0.3
100
AcDbArc
 50
-90.0
 51
90.0
  0
ARC
  5
2DB
100
AcDbEntity
  8
1
  6
CONTINUOUS
 62
             7
100
AcDbCircle
 10
-337.67282701557212
 20
37.42970204775401
 40
0.3
100
AcDbArc
 50
90.0
 51
-90.0
  0
ARC
  5
2DA
100
AcDbEntity
  8
1
  6
CONTINUOUS
 62
             7
100
AcDbCircle
 10
-336.27282701557198
 20
39.82970204775401
 40
0.30000000000001
100
AcDbArc
 50
-90.0
 51
90.0
  0
ARC
  5
2D9
100
AcDbEntity
  8
1
  6
CONTINUOUS
 62
             7
100
AcDbCircle
 10
-337.67282701557212
 20
39.82970204775401
 40
0.3
100
AcDbArc
 50
90.0
 51
-90.0
  0
ARC
  5
2D8
100
AcDbEntity
  8
1
  6
CONTINUOUS
 62
             7
100
AcDbCircle
 10
-337.67282701557212
 20
38.62970204775401
 40
0.3
100
AcDbArc
 50
90.0
 51
-90.0
  0
ARC
  5
2D7
100
AcDbEntity
  8
1
  6
CONTINUOUS
 62
             7
100
AcDbCircle
 10
-336.27282701557198
 20
38.62970204775401
 40
0.3
100
AcDbArc
 50
-90.0
 51
90.0
  0
ARC
  5
2D6
100
AcDbEntity
  8
1
  6
CONTINUOUS
 62
             7
100
AcDbCircle
 10
-317.27282701557198
 20
37.42970204775401
 40
0.3
100
AcDbArc
 50
-90.0
 51
90.0
  0
ARC
  5
2D5
100
AcDbEntity
  8
1
  6
CONTINUOUS
 62
             7
100
AcDbCircle
 10
-318.67282701557212
 20
37.42970204775401
 40
0.3
100
AcDbArc
 50
90.0
 51
-90.0
  0
ARC
  5
2D4
100
AcDbEntity
  8
1
  6
CONTINUOUS
 62
             7
100
AcDbCircle
 10
-317.27282701557198
 20
39.82970204775401
 40
0.30000000000001
100
AcDbArc
 50
-90.0
 51
90.0
  0
ARC
  5
2D3
100
AcDbEntity
  8
1
  6
CONTINUOUS
 62
             7
100
AcDbCircle
 10
-318.67282701557212
 20
39.82970204775401
 40
0.3
100
AcDbArc
 50
90.0
 51
-90.0
  0
ARC
  5
2D2
100
AcDbEntity
  8
1
  6
CONTINUOUS
 62
             7
100
AcDbCircle
 10
-318.67282701557212
 20
38.62970204775401
 40
0.3
100
AcDbArc
 50
90.0
 51
-90.0
  0
ARC
  5
2D1
100
AcDbEntity
  8
1
  6
CONTINUOUS
 62
             7
100
AcDbCircle
 10
-317.27282701557198
 20
38.62970204775401
 40
0.3
100
AcDbArc
 50
-90.0
 51
90.0
  0
ARC
  5
2D0
100
AcDbEntity
  8
1
  6
CONTINUOUS
 62
             7
100
AcDbCircle
 10
-180.8019725976101
 20
28.27970204775399
 40
0.59999999999999
100
AcDbArc
 50
0.0
 51
90.0
  0
ARC
  5
2CF
100
AcDbEntity
  8
1
  6
CONTINUOUS
 62
             7
100
AcDbCircle
 10
-178.4628524559856
 20
23.62970204775398
 40
1.0
100
AcDbArc
 50
-90.0
 51
-16.95776330000355
  0
ARC
  5
2CE
100
AcDbEntity
  8
1
  6
CONTINUOUS
 62
             7
100
AcDbCircle
 10
-184.20197259761011
 20
25.37970204775398
 40
7.00000000000003
100
AcDbArc
 50
-16.95776330000403
 51
16.95776330000411
  0
ARC
  5
2CD
100
AcDbEntity
  8
1
  6
CONTINUOUS
 62
             7
100
AcDbCircle
 10
-178.4628524559856
 20
27.12970204775398
 40
1.00000000000002
100
AcDbArc
 50
16.95776330000413
 51
90.0
  0
ARC
  5
2CC
100
AcDbEntity
  8
1
  6
CONTINUOUS
 62
             7
100
AcDbCircle
 10
-178.4628524559856
 20
78.629702047754
 40
1.00000000000001
100
AcDbArc
 50
16.95776330000335
 51
90.0
  0
ARC
  5
2CB
100
AcDbEntity
  8
1
  6
CONTINUOUS
 62
             7
100
AcDbCircle
 10
-184.20197259761011
 20
76.879702047754
 40
7.00000000000003
100
AcDbArc
 50
-16.957763300004
 51
16.957763300004
  0
ARC
  5
2CA
100
AcDbEntity
  8
1
  6
CONTINUOUS
 62
             7
100
AcDbCircle
 10
-178.4628524559856
 20
75.129702047754
 40
1.0
100
AcDbArc
 50
-90.0
 51
-16.95776330000335
  0
ARC
  5
2C9
100
AcDbEntity
  8
1
  6
CONTINUOUS
 62
             7
100
AcDbCircle
 10
-180.8019725976101
 20
73.97970204775399
 40
0.59999999999999
100
AcDbArc
 50
-90.0
 51
0.0
  0
ARC
  5
2C8
100
AcDbEntity
  8
0
  6
CONTINUOUS
 62
             7
100
AcDbCircle
 10
-180.71071012114629
 20
65.77970204775384
 40
1.0
100
AcDbArc
 50
-90.0
 51
-16.95776330000335
  0
ARC
  5
2C7
100
AcDbEntity
  8
0
  6
CONTINUOUS
 62
             7
100
AcDbCircle
 10
-186.4498302627708
 20
67.52970204775384
 40
7.00000000000003
100
AcDbArc
 50
-16.957763300004
 51
16.957763300004
  0
ARC
  5
2C6
100
AcDbEntity
  8
0
  6
CONTINUOUS
 62
             7
100
AcDbCircle
 10
-180.71071012114629
 20
69.27970204775384
 40
1.00000000000001
100
AcDbArc
 50
16.95776330000335
 51
90.0
  0
ARC
  5
2C5
100
AcDbEntity
  8
0
  6
CONTINUOUS
 62
             7
100
AcDbCircle
 10
-180.71071012114629
 20
61.07970204775394
 40
1.00000000000002
100
AcDbArc
 50
16.95776330000413
 51
90.0
  0
ARC
  5
2C4
100
AcDbEntity
  8
0
  6
CONTINUOUS
 62
             7
100
AcDbCircle
 10
-186.4498302627708
 20
59.32970204775394
 40
7.00000000000003
100
AcDbArc
 50
-16.957763300004
 51
16.95776330000411
  0
ARC
  5
2C3
100
AcDbEntity
  8
0
  6
CONTINUOUS
 62
             7
100
AcDbCircle
 10
-180.71071012114629
 20
57.57970204775394
 40
1.0
100
AcDbArc
 50
-90.0
 51
-16.95776330000335
  0
ARC
  5
2C2
100
AcDbEntity
  8
0
  6
CONTINUOUS
 62
             7
100
AcDbCircle
 10
-180.71071012114629
 20
52.87970204775383
 40
1.00000000000002
100
AcDbArc
 50
16.95776330000413
 51
90.0
  0
ARC
  5
2C1
100
AcDbEntity
  8
0
  6
CONTINUOUS
 62
             7
100
AcDbCircle
 10
-186.4498302627708
 20
51.12970204775383
 40
7.00000000000002
100
AcDbArc
 50
-16.95776330000394
 51
16.95776330000411
  0
ARC
  5
2C0
100
AcDbEntity
  8
0
  6
CONTINUOUS
 62
             7
100
AcDbCircle
 10
-180.71071012114629
 20
49.37970204775383
 40
1.0
100
AcDbArc
 50
-90.0
 51
-16.95776330000297
  0
ARC
  5
2BF
100
AcDbEntity
  8
0
  6
CONTINUOUS
 62
             7
100
AcDbCircle
 10
-180.71071012114629
 20
44.67970204775416
 40
1.00000000000001
100
AcDbArc
 50
16.95776330000335
 51
90.0
  0
ARC
  5
2BE
100
AcDbEntity
  8
0
  6
CONTINUOUS
 62
             7
100
AcDbCircle
 10
-186.4498302627708
 20
42.92970204775416
 40
7.00000000000002
100
AcDbArc
 50
-16.95776330000394
 51
16.957763300004
  0
ARC
  5
2BD
100
AcDbEntity
  8
0
  6
CONTINUOUS
 62
             7
100
AcDbCircle
 10
-180.71071012114629
 20
41.17970204775416
 40
1.0
100
AcDbArc
 50
-90.0
 51
-16.95776330000297
  0
ARC
  5
2BC
100
AcDbEntity
  8
0
  6
CONTINUOUS
 62
             7
100
AcDbCircle
 10
-180.71071012114629
 20
32.97970204775419
 40
1.0
100
AcDbArc
 50
-90.0
 51
-16.95776330000374
  0
ARC
  5
2BB
100
AcDbEntity
  8
0
  6
CONTINUOUS
 62
             7
100
AcDbCircle
 10
-186.4498302627708
 20
34.72970204775419
 40
7.00000000000003
100
AcDbArc
 50
-16.95776330000406
 51
16.95776330000406
  0
ARC
  5
2BA
100
AcDbEntity
  8
0
  6
CONTINUOUS
 62
             7
100
AcDbCircle
 10
-180.71071012114629
 20
36.47970204775419
 40
1.00000000000001
100
AcDbArc
 50
16.95776330000374
 51
90.0
  0
LINE
  5
2B9
100
AcDbEntity
  8
1
  6
CONTINUOUS
 62
             7
100
AcDbLine
 10
-279.9019725976101
 20
27.129702047754
 11
-284.2368508344822
 21
27.4328262630218
  0
LINE
  5
2B8
100
AcDbEntity
  8
1
  6
CONTINUOUS
 62
             7
100
AcDbLine
 10
-279.9019725976101
 20
28.22970204775402
 11
-279.9019725976101
 21
27.129702047754
  0
LINE
  5
2B7
100
AcDbEntity
  8
1
  6
CONTINUOUS
 62
             7
100
AcDbLine
 10
-284.2368508344822
 20
74.82657783248624
 11
-279.9019725976101
 21
75.129702047754
  0
LINE
  5
2B6
100
AcDbEntity
  8
1
  6
CONTINUOUS
 62
             7
100
AcDbLine
 10
-279.9019725976101
 20
75.129702047754
 11
-279.9019725976101
 21
28.22970204775402
  0
LINE
  5
2B5
100
AcDbEntity
  8
1
  6
CONTINUOUS
 62
             7
100
AcDbLine
 10
-284.70197259761011
 20
51.129702047754
 11
-284.70197259761011
 21
27.93160828815167
  0
LINE
  5
2B4
100
AcDbEntity
  8
1
  6
CONTINUOUS
 62
             7
100
AcDbLine
 10
-284.70197259761011
 20
74.32779580735632
 11
-284.70197259761011
 21
51.129702047754
  0
LINE
  5
2B3
100
AcDbEntity
  8
1
  6
CONTINUOUS
 62
             7
100
AcDbLine
 10
-349.72282701557202
 20
28.879702047754
 11
-349.72282701557202
 21
73.379702047754
  0
LINE
  5
2B2
100
AcDbEntity
  8
1
  6
CONTINUOUS
 62
             7
100
AcDbLine
 10
-305.22282701557202
 20
28.879702047754
 11
-349.72282701557202
 21
28.879702047754
  0
LINE
  5
2B1
100
AcDbEntity
  8
1
  6
CONTINUOUS
 62
             7
100
AcDbLine
 10
-305.22282701557202
 20
73.379702047754
 11
-305.22282701557202
 21
28.879702047754
  0
LINE
  5
2B0
100
AcDbEntity
  8
1
  6
CONTINUOUS
 62
             7
100
AcDbLine
 10
-349.72282701557202
 20
73.379702047754
 11
-305.22282701557202
 21
73.379702047754
  0
LINE
  5
2AF
100
AcDbEntity
  8
1
  6
CONTINUOUS
 62
             7
100
AcDbLine
 10
-351.47282701557202
 20
74.129702047754
 11
-351.47282701557202
 21
28.129702047754
  0
LINE
  5
2AE
100
AcDbEntity
  8
1
  6
CONTINUOUS
 62
             7
100
AcDbLine
 10
-303.47282701557202
 20
74.129702047754
 11
-303.47282701557202
 21
28.129702047754
  0
LINE
  5
2AD
100
AcDbEntity
  8
1
  6
CONTINUOUS
 62
             7
100
AcDbLine
 10
-350.47282701557202
 20
75.129702047754
 11
-332.97282701557202
 21
75.129702047754
  0
LINE
  5
2AC
100
AcDbEntity
  8
1
  6
CONTINUOUS
 62
             7
100
AcDbLine
 10
-321.97282701557202
 20
75.129702047754
 11
-304.47282701557202
 21
75.129702047754
  0
LINE
  5
2AB
100
AcDbEntity
  8
1
  6
CONTINUOUS
 62
             7
100
AcDbLine
 10
-332.97282701557202
 20
27.12970204775401
 11
-332.97282701557202
 21
28.22970204775401
  0
LINE
  5
2AA
100
AcDbEntity
  8
1
  6
CONTINUOUS
 62
             7
100
AcDbLine
 10
-321.97282701557202
 20
27.12970204775401
 11
-321.97282701557202
 21
28.22970204775401
  0
LINE
  5
2A9
100
AcDbEntity
  8
1
  6
CONTINUOUS
 62
             7
100
AcDbLine
 10
-332.97282701557202
 20
27.12970204775401
 11
-350.47282701557202
 21
27.129702047754
  0
LINE
  5
2A8
100
AcDbEntity
  8
1
  6
CONTINUOUS
 62
             7
100
AcDbLine
 10
-304.47282701557202
 20
27.129702047754
 11
-321.97282701557202
 21
27.12970204775401
  0
LINE
  5
2A7
100
AcDbEntity
  8
1
  6
CONTINUOUS
 62
             7
100
AcDbLine
 10
-332.97282701557202
 20
74.029702047754
 11
-332.97282701557202
 21
75.129702047754
  0
LINE
  5
2A6
100
AcDbEntity
  8
1
  6
CONTINUOUS
 62
             7
100
AcDbLine
 10
-321.97282701557202
 20
74.029702047754
 11
-321.97282701557202
 21
75.129702047754
  0
LINE
  5
2A5
100
AcDbEntity
  8
1
  6
CONTINUOUS
 62
             7
100
AcDbLine
 10
-332.97282701557202
 20
74.029702047754
 11
-321.97282701557202
 21
74.029702047754
  0
LINE
  5
2A4
100
AcDbEntity
  8
1
  6
CONTINUOUS
 62
             7
100
AcDbLine
 10
-332.97282701557202
 20
75.129702047754
 11
-321.97282701557202
 21
75.129702047754
  0
LINE
  5
2A3
100
AcDbEntity
  8
1
  6
CONTINUOUS
 62
             7
100
AcDbLine
 10
-332.97282701557202
 20
28.22970204775401
 11
-321.97282701557202
 21
28.22970204775401
  0
LINE
  5
2A2
100
AcDbEntity
  8
1
  6
CONTINUOUS
 62
             7
100
AcDbLine
 10
-332.97282701557202
 20
27.12970204775401
 11
-321.97282701557202
 21
27.12970204775401
  0
LINE
  5
2A1
100
AcDbEntity
  8
1
  6
CONTINUOUS
 62
             7
100
AcDbLine
 10
-182.84983026277081
 20
38.17970204775418
 11
-182.84983026277081
 21
31.27970204775409
  0
LINE
  5
2A0
100
AcDbEntity
  8
1
  6
CONTINUOUS
 62
             7
100
AcDbLine
 10
-182.84983026277081
 20
46.37970204775411
 11
-182.84983026277081
 21
39.47970204775413
  0
LINE
  5
29F
100
AcDbEntity
  8
1
  6
CONTINUOUS
 62
             7
100
AcDbLine
 10
-182.84983026277081
 20
54.57970204775404
 11
-182.84983026277081
 21
47.67970204775406
  0
LINE
  5
29E
100
AcDbEntity
  8
1
  6
CONTINUOUS
 62
             7
100
AcDbLine
 10
-182.84983026277081
 20
62.77970204775386
 11
-182.84983026277081
 21
55.879702047754
  0
LINE
  5
29D
100
AcDbEntity
  8
1
  6
CONTINUOUS
 62
             7
100
AcDbLine
 10
-182.84983026277081
 20
64.07970204775381
 11
-180.20197259761011
 21
64.07970204775381
  0
LINE
  5
29C
100
AcDbEntity
  8
1
  6
CONTINUOUS
 62
             7
100
AcDbLine
 10
-182.84983026277081
 20
70.97970204775379
 11
-180.20197259761011
 21
70.97970204775379
  0
LINE
  5
29B
100
AcDbEntity
  8
1
  6
CONTINUOUS
 62
             7
100
AcDbLine
 10
-182.84983026277081
 20
70.97970204775379
 11
-182.84983026277081
 21
64.07970204775381
  0
LINE
  5
29A
100
AcDbEntity
  8
1
  6
CONTINUOUS
 62
             7
100
AcDbLine
 10
-207.87228649244511
 20
32.129702047754
 11
-229.20197259761011
 21
32.129702047754
  0
LINE
  5
299
100
AcDbEntity
  8
1
  6
CONTINUOUS
 62
             7
100
AcDbLine
 10
-207.87228649244511
 20
70.129702047754
 11
-196.20197259761011
 21
70.129702047754
  0
LINE
  5
298
100
AcDbEntity
  8
1
  6
CONTINUOUS
 62
             7
100
AcDbLine
 10
-183.20197259761011
 20
38.17970204775395
 11
-183.20197259761011
 21
31.27970204775397
  0
LINE
  5
297
100
AcDbEntity
  8
1
  6
CONTINUOUS
 62
             7
100
AcDbLine
 10
-183.20197259761011
 20
46.37970204775377
 11
-183.20197259761011
 21
39.4797020477539
  0
LINE
  5
296
100
AcDbEntity
  8
1
  6
CONTINUOUS
 62
             7
100
AcDbLine
 10
-183.20197259761011
 20
54.57970204775381
 11
-183.20197259761011
 21
47.67970204775384
  0
LINE
  5
295
100
AcDbEntity
  8
1
  6
CONTINUOUS
 62
             7
100
AcDbLine
 10
-183.20197259761011
 20
62.77970204775386
 11
-183.20197259761011
 21
55.87970204775388
  0
LINE
  5
294
100
AcDbEntity
  8
1
  6
CONTINUOUS
 62
             7
100
AcDbLine
 10
-183.20197259761011
 20
70.97970204775379
 11
-183.20197259761011
 21
64.07970204775381
  0
LINE
  5
293
100
AcDbEntity
  8
1
  6
CONTINUOUS
 62
             7
100
AcDbLine
 10
-184.20197259761011
 20
31.27970204775397
 11
-180.20197259761011
 21
31.27970204775397
  0
LINE
  5
292
100
AcDbEntity
  8
1
  6
CONTINUOUS
 62
             7
100
AcDbLine
 10
-184.20197259761011
 20
38.17970204775395
 11
-180.20197259761011
 21
38.17970204775395
  0
LINE
  5
291
100
AcDbEntity
  8
1
  6
CONTINUOUS
 62
             7
100
AcDbLine
 10
-184.20197259761011
 20
39.4797020477539
 11
-180.20197259761011
 21
39.4797020477539
  0
LINE
  5
290
100
AcDbEntity
  8
1
  6
CONTINUOUS
 62
             7
100
AcDbLine
 10
-184.20197259761011
 20
46.37970204775377
 11
-180.20197259761011
 21
46.37970204775377
  0
LINE
  5
28F
100
AcDbEntity
  8
1
  6
CONTINUOUS
 62
             7
100
AcDbLine
 10
-184.20197259761011
 20
47.67970204775384
 11
-180.20197259761011
 21
47.67970204775384
  0
LINE
  5
28E
100
AcDbEntity
  8
1
  6
CONTINUOUS
 62
             7
100
AcDbLine
 10
-184.20197259761011
 20
54.57970204775381
 11
-180.20197259761011
 21
54.57970204775381
  0
LINE
  5
28D
100
AcDbEntity
  8
1
  6
CONTINUOUS
 62
             7
100
AcDbLine
 10
-184.20197259761011
 20
55.87970204775388
 11
-180.20197259761011
 21
55.87970204775388
  0
LINE
  5
28C
100
AcDbEntity
  8
1
  6
CONTINUOUS
 62
             7
100
AcDbLine
 10
-184.20197259761011
 20
62.77970204775386
 11
-180.20197259761011
 21
62.77970204775386
  0
LINE
  5
28B
100
AcDbEntity
  8
1
  6
CONTINUOUS
 62
             7
100
AcDbLine
 10
-184.20197259761011
 20
64.07970204775381
 11
-182.84983026277081
 21
64.07970204775381
  0
LINE
  5
28A
100
AcDbEntity
  8
1
  6
CONTINUOUS
 62
             7
100
AcDbLine
 10
-184.20197259761011
 20
70.97970204775379
 11
-182.84983026277081
 21
70.97970204775379
  0
LINE
  5
289
100
AcDbEntity
  8
1
  6
CONTINUOUS
 62
             7
100
AcDbLine
 10
-180.20197259761011
 20
31.27970204775397
 11
-178.50197259761001
 21
31.27970204775397
  0
LINE
  5
288
100
AcDbEntity
  8
1
  6
CONTINUOUS
 62
             7
100
AcDbLine
 10
-180.20197259761011
 20
31.27970204775397
 11
-180.20197259761019
 21
28.879702047754
  0
LINE
  5
287
100
AcDbEntity
  8
1
  6
CONTINUOUS
 62
             7
100
AcDbLine
 10
-180.20197259761011
 20
38.17970204775395
 11
-178.50197259761001
 21
38.17970204775395
  0
LINE
  5
286
100
AcDbEntity
  8
1
  6
CONTINUOUS
 62
             7
100
AcDbLine
 10
-180.20197259761011
 20
39.4797020477539
 11
-178.50197259761001
 21
39.4797020477539
  0
LINE
  5
285
100
AcDbEntity
  8
1
  6
CONTINUOUS
 62
             7
100
AcDbLine
 10
-180.20197259761011
 20
39.4797020477539
 11
-180.20197259761011
 21
38.17970204775395
  0
LINE
  5
284
100
AcDbEntity
  8
1
  6
CONTINUOUS
 62
             7
100
AcDbLine
 10
-180.20197259761011
 20
46.37970204775377
 11
-178.50197259761001
 21
46.37970204775377
  0
LINE
  5
283
100
AcDbEntity
  8
1
  6
CONTINUOUS
 62
             7
100
AcDbLine
 10
-180.20197259761011
 20
47.67970204775384
 11
-178.50197259761001
 21
47.67970204775384
  0
LINE
  5
282
100
AcDbEntity
  8
1
  6
CONTINUOUS
 62
             7
100
AcDbLine
 10
-180.20197259761011
 20
47.67970204775384
 11
-180.20197259761011
 21
46.37970204775377
  0
LINE
  5
281
100
AcDbEntity
  8
1
  6
CONTINUOUS
 62
             7
100
AcDbLine
 10
-180.20197259761011
 20
54.57970204775381
 11
-178.50197259761001
 21
54.57970204775381
  0
LINE
  5
280
100
AcDbEntity
  8
1
  6
CONTINUOUS
 62
             7
100
AcDbLine
 10
-180.20197259761011
 20
55.87970204775388
 11
-178.50197259761001
 21
55.87970204775388
  0
LINE
  5
27F
100
AcDbEntity
  8
1
  6
CONTINUOUS
 62
             7
100
AcDbLine
 10
-180.20197259761011
 20
55.87970204775388
 11
-180.20197259761011
 21
54.57970204775381
  0
LINE
  5
27E
100
AcDbEntity
  8
1
  6
CONTINUOUS
 62
             7
100
AcDbLine
 10
-180.20197259761011
 20
62.77970204775386
 11
-178.50197259761001
 21
62.77970204775386
  0
LINE
  5
27D
100
AcDbEntity
  8
1
  6
CONTINUOUS
 62
             7
100
AcDbLine
 10
-180.20197259761011
 20
64.07970204775381
 11
-178.50197259761001
 21
64.07970204775381
  0
LINE
  5
27C
100
AcDbEntity
  8
1
  6
CONTINUOUS
 62
             7
100
AcDbLine
 10
-180.20197259761011
 20
64.07970204775381
 11
-180.20197259761011
 21
62.77970204775386
  0
LINE
  5
27B
100
AcDbEntity
  8
1
  6
CONTINUOUS
 62
             7
100
AcDbLine
 10
-180.20197259761011
 20
70.97970204775379
 11
-178.50197259761001
 21
70.97970204775379
  0
LINE
  5
27A
100
AcDbEntity
  8
1
  6
CONTINUOUS
 62
             7
100
AcDbLine
 10
-180.20197259761019
 20
73.379702047754
 11
-178.70197259761019
 21
73.379702047754
  0
LINE
  5
279
100
AcDbEntity
  8
1
  6
CONTINUOUS
 62
             7
100
AcDbLine
 10
-180.20197259761019
 20
73.379702047754
 11
-180.20197259761011
 21
70.97970204775379
  0
LINE
  5
278
100
AcDbEntity
  8
1
  6
CONTINUOUS
 62
             7
100
AcDbLine
 10
-229.20197259761011
 20
32.129702047754
 11
-230.70197259761011
 21
33.629702047754
  0
LINE
  5
277
100
AcDbEntity
  8
1
  6
CONTINUOUS
 62
             7
100
AcDbLine
 10
-184.20197259761011
 20
31.27970204775397
 11
-184.20197259761011
 21
38.17970204775395
  0
LINE
  5
276
100
AcDbEntity
  8
1
  6
CONTINUOUS
 62
             7
100
AcDbLine
 10
-184.20197259761011
 20
39.4797020477539
 11
-184.20197259761011
 21
46.37970204775377
  0
LINE
  5
275
100
AcDbEntity
  8
1
  6
CONTINUOUS
 62
             7
100
AcDbLine
 10
-184.20197259761011
 20
47.67970204775384
 11
-184.20197259761011
 21
54.57970204775381
  0
LINE
  5
274
100
AcDbEntity
  8
1
  6
CONTINUOUS
 62
             7
100
AcDbLine
 10
-184.20197259761011
 20
55.87970204775388
 11
-184.20197259761011
 21
62.77970204775386
  0
LINE
  5
273
100
AcDbEntity
  8
1
  6
CONTINUOUS
 62
             7
100
AcDbLine
 10
-184.20197259761011
 20
64.07970204775381
 11
-184.20197259761011
 21
70.97970204775379
  0
LINE
  5
272
100
AcDbEntity
  8
1
  6
CONTINUOUS
 62
             7
100
AcDbLine
 10
-178.70197259761019
 20
28.879702047754
 11
-178.20197259761019
 21
29.379702047754
  0
LINE
  5
271
100
AcDbEntity
  8
1
  6
CONTINUOUS
 62
             7
100
AcDbLine
 10
-178.70197259761019
 20
73.379702047754
 11
-178.20197259761019
 21
72.879702047754
  0
LINE
  5
270
100
AcDbEntity
  8
1
  6
CONTINUOUS
 62
             7
100
AcDbLine
 10
-178.20197259761011
 20
30.9797020477539
 11
-178.50197259761001
 21
31.27970204775397
  0
LINE
  5
26F
100
AcDbEntity
  8
1
  6
CONTINUOUS
 62
             7
100
AcDbLine
 10
-178.20197259761011
 20
38.4797020477539
 11
-178.50197259761001
 21
38.17970204775395
  0
LINE
  5
26E
100
AcDbEntity
  8
1
  6
CONTINUOUS
 62
             7
100
AcDbLine
 10
-178.20197259761011
 20
39.17970204775395
 11
-178.50197259761001
 21
39.4797020477539
  0
LINE
  5
26D
100
AcDbEntity
  8
1
  6
CONTINUOUS
 62
             7
100
AcDbLine
 10
-178.20197259761011
 20
46.67970204775384
 11
-178.50197259761001
 21
46.37970204775377
  0
LINE
  5
26C
100
AcDbEntity
  8
1
  6
CONTINUOUS
 62
             7
100
AcDbLine
 10
-178.20197259761011
 20
47.37970204775388
 11
-178.50197259761001
 21
47.67970204775384
  0
LINE
  5
26B
100
AcDbEntity
  8
1
  6
CONTINUOUS
 62
             7
100
AcDbLine
 10
-178.20197259761011
 20
54.87970204775377
 11
-178.50197259761001
 21
54.57970204775381
  0
LINE
  5
26A
100
AcDbEntity
  8
1
  6
CONTINUOUS
 62
             7
100
AcDbLine
 10
-178.20197259761011
 20
55.57970204775381
 11
-178.50197259761001
 21
55.87970204775388
  0
LINE
  5
269
100
AcDbEntity
  8
1
  6
CONTINUOUS
 62
             7
100
AcDbLine
 10
-178.20197259761011
 20
63.07970204775381
 11
-178.50197259761001
 21
62.77970204775386
  0
LINE
  5
268
100
AcDbEntity
  8
1
  6
CONTINUOUS
 62
             7
100
AcDbLine
 10
-178.20197259761011
 20
63.77970204775386
 11
-178.50197259761001
 21
64.07970204775381
  0
LINE
  5
267
100
AcDbEntity
  8
1
  6
CONTINUOUS
 62
             7
100
AcDbLine
 10
-178.20197259761011
 20
71.27970204775386
 11
-178.50197259761001
 21
70.97970204775379
  0
LINE
  5
266
100
AcDbEntity
  8
1
  6
CONTINUOUS
 62
             7
100
AcDbLine
 10
-178.20197259761019
 20
29.379702047754
 11
-178.20197259761011
 21
30.9797020477539
  0
LINE
  5
265
100
AcDbEntity
  8
1
  6
CONTINUOUS
 62
             7
100
AcDbLine
 10
-178.20197259761011
 20
38.4797020477539
 11
-178.20197259761011
 21
39.17970204775395
  0
LINE
  5
264
100
AcDbEntity
  8
1
  6
CONTINUOUS
 62
             7
100
AcDbLine
 10
-178.20197259761011
 20
46.67970204775384
 11
-178.20197259761011
 21
47.37970204775388
  0
LINE
  5
263
100
AcDbEntity
  8
1
  6
CONTINUOUS
 62
             7
100
AcDbLine
 10
-178.20197259761011
 20
54.87970204775377
 11
-178.20197259761011
 21
55.57970204775381
  0
LINE
  5
262
100
AcDbEntity
  8
1
  6
CONTINUOUS
 62
             7
100
AcDbLine
 10
-178.20197259761011
 20
63.07970204775381
 11
-178.20197259761011
 21
63.77970204775386
  0
LINE
  5
261
100
AcDbEntity
  8
1
  6
CONTINUOUS
 62
             7
100
AcDbLine
 10
-178.20197259761011
 20
71.27970204775386
 11
-178.20197259761019
 21
72.879702047754
  0
LINE
  5
260
100
AcDbEntity
  8
1
  6
CONTINUOUS
 62
             7
100
AcDbLine
 10
-196.20197259761011
 20
70.129702047754
 11
-196.20197259761011
 21
32.129702047754
  0
LINE
  5
25F
100
AcDbEntity
  8
1
  6
CONTINUOUS
 62
             7
100
AcDbLine
 10
-196.20197259761011
 20
32.129702047754
 11
-207.87228649244511
 21
32.129702047754
  0
LINE
  5
25E
100
AcDbEntity
  8
1
  6
CONTINUOUS
 62
             7
100
AcDbLine
 10
-230.70197259761011
 20
33.629702047754
 11
-230.70197259761011
 21
70.129702047754
  0
LINE
  5
25D
100
AcDbEntity
  8
1
  6
CONTINUOUS
 62
             7
100
AcDbLine
 10
-230.70197259761011
 20
70.129702047754
 11
-207.87228649244511
 21
70.129702047754
  0
LINE
  5
25C
100
AcDbEntity
  8
1
  6
CONTINUOUS
 62
             7
100
AcDbLine
 10
-178.70197259761019
 20
28.879702047754
 11
-180.20197259761019
 21
28.879702047754
  0
LINE
  5
25B
100
AcDbEntity
  8
1
  6
CONTINUOUS
 62
             7
100
AcDbLine
 10
-274.70197259761011
 20
75.129702047754
 11
-274.70197259761011
 21
66.54380366289172
  0
LINE
  5
25A
100
AcDbEntity
  8
1
  6
CONTINUOUS
 62
             7
100
AcDbLine
 10
-279.70197259761011
 20
75.129702047754
 11
-274.70197259761011
 21
75.129702047754
  0
LINE
  5
259
100
AcDbEntity
  8
1
  6
CONTINUOUS
 62
             7
100
AcDbLine
 10
-274.70197259761011
 20
27.129702047754
 11
-274.70197259761011
 21
66.54380366289172
  0
LINE
  5
258
100
AcDbEntity
  8
1
  6
CONTINUOUS
 62
             7
100
AcDbLine
 10
-279.70197259761011
 20
27.129702047754
 11
-274.70197259761011
 21
27.129702047754
  0
LINE
  5
257
100
AcDbEntity
  8
1
  6
CONTINUOUS
 62
             7
100
AcDbLine
 10
-279.70197259761011
 20
75.129702047754
 11
-285.00197259761012
 21
75.129702047754
  0
LINE
  5
256
100
AcDbEntity
  8
1
  6
CONTINUOUS
 62
             7
100
AcDbLine
 10
-279.70197259761011
 20
27.129702047754
 11
-285.00197259761012
 21
27.129702047754
  0
LINE
  5
255
100
AcDbEntity
  8
1
  6
CONTINUOUS
 62
             7
100
AcDbLine
 10
-279.70197259761011
 20
27.129702047754
 11
-279.70197259761011
 21
75.129702047754
  0
LINE
  5
254
100
AcDbEntity
  8
1
  6
CONTINUOUS
 62
             7
100
AcDbLine
 10
-285.00197259761012
 20
75.129702047754
 11
-285.00197259761012
 21
74.42970204775395
  0
LINE
  5
253
100
AcDbEntity
  8
1
  6
CONTINUOUS
 62
             7
100
AcDbLine
 10
-285.00197259761012
 20
27.82970204775404
 11
-285.00197259761012
 21
27.129702047754
  0
LINE
  5
252
100
AcDbEntity
  8
1
  6
CONTINUOUS
 62
             7
100
AcDbLine
 10
-285.00197259761012
 20
74.42970204775395
 11
-284.70197259761011
 21
74.129702047754
  0
LINE
  5
251
100
AcDbEntity
  8
1
  6
CONTINUOUS
 62
             7
100
AcDbLine
 10
-285.00197259761012
 20
27.82970204775404
 11
-284.70197259761011
 21
28.129702047754
  0
LINE
  5
250
100
AcDbEntity
  8
1
  6
CONTINUOUS
 62
             7
100
AcDbLine
 10
-244.40197259761041
 20
43.92970204775395
 11
-251.90197259761041
 21
43.92970204775395
  0
LINE
  5
24F
100
AcDbEntity
  8
1
  6
CONTINUOUS
 62
             7
100
AcDbLine
 10
-244.70197259761031
 20
43.92970204775395
 11
-244.70197259761031
 21
58.32970204775404
  0
LINE
  5
24E
100
AcDbEntity
  8
1
  6
CONTINUOUS
 62
             7
100
AcDbLine
 10
-245.70197259761019
 20
43.92970204775395
 11
-245.70197259761031
 21
58.32970204775404
  0
LINE
  5
24D
100
AcDbEntity
  8
1
  6
CONTINUOUS
 62
             7
100
AcDbLine
 10
-245.9019725976103
 20
58.32970204775404
 11
-245.9019725976103
 21
43.92970204775395
  0
LINE
  5
24C
100
AcDbEntity
  8
1
  6
CONTINUOUS
 62
             7
100
AcDbLine
 10
-246.20197259761031
 20
43.92970204775395
 11
-246.20197259761031
 21
58.32970204775404
  0
LINE
  5
24B
100
AcDbEntity
  8
1
  6
CONTINUOUS
 62
             7
100
AcDbLine
 10
-247.20197259761019
 20
43.92970204775395
 11
-247.20197259761019
 21
58.32970204775404
  0
LINE
  5
24A
100
AcDbEntity
  8
1
  6
CONTINUOUS
 62
             7
100
AcDbLine
 10
-247.4019725976103
 20
58.32970204775404
 11
-247.4019725976103
 21
43.92970204775395
  0
LINE
  5
249
100
AcDbEntity
  8
1
  6
CONTINUOUS
 62
             7
100
AcDbLine
 10
-247.70197259761019
 20
43.92970204775395
 11
-247.70197259761031
 21
58.32970204775404
  0
LINE
  5
248
100
AcDbEntity
  8
1
  6
CONTINUOUS
 62
             7
100
AcDbLine
 10
-248.70197259761019
 20
43.92970204775395
 11
-248.70197259761019
 21
58.32970204775404
  0
LINE
  5
247
100
AcDbEntity
  8
1
  6
CONTINUOUS
 62
             7
100
AcDbLine
 10
-248.9019725976103
 20
58.32970204775404
 11
-248.9019725976103
 21
43.92970204775395
  0
LINE
  5
246
100
AcDbEntity
  8
1
  6
CONTINUOUS
 62
             7
100
AcDbLine
 10
-249.20197259761031
 20
43.92970204775395
 11
-249.20197259761031
 21
58.32970204775404
  0
LINE
  5
245
100
AcDbEntity
  8
1
  6
CONTINUOUS
 62
             7
100
AcDbLine
 10
-250.20197259761019
 20
43.92970204775395
 11
-250.20197259761019
 21
58.32970204775404
  0
LINE
  5
244
100
AcDbEntity
  8
1
  6
CONTINUOUS
 62
             7
100
AcDbLine
 10
-250.4019725976103
 20
58.32970204775404
 11
-250.4019725976103
 21
43.92970204775395
  0
LINE
  5
243
100
AcDbEntity
  8
1
  6
CONTINUOUS
 62
             7
100
AcDbLine
 10
-250.70197259761031
 20
43.92970204775395
 11
-250.70197259761031
 21
58.32970204775404
  0
LINE
  5
242
100
AcDbEntity
  8
1
  6
CONTINUOUS
 62
             7
100
AcDbLine
 10
-251.70197259761039
 20
43.92970204775395
 11
-251.70197259761019
 21
58.32970204775404
  0
LINE
  5
241
100
AcDbEntity
  8
1
  6
CONTINUOUS
 62
             7
100
AcDbLine
 10
-251.90197259761041
 20
58.32970204775404
 11
-251.90197259761041
 21
43.92970204775395
  0
LINE
  5
240
100
AcDbEntity
  8
1
  6
CONTINUOUS
 62
             7
100
AcDbLine
 10
-252.20197259761031
 20
43.92970204775395
 11
-252.20197259761031
 21
58.32970204775404
  0
LINE
  5
23F
100
AcDbEntity
  8
1
  6
CONTINUOUS
 62
             7
100
AcDbLine
 10
-253.20197259761039
 20
43.92970204775395
 11
-253.20197259761019
 21
58.32970204775404
  0
LINE
  5
23E
100
AcDbEntity
  8
1
  6
CONTINUOUS
 62
             7
100
AcDbLine
 10
-253.40197259761041
 20
58.32970204775404
 11
-253.40197259761041
 21
43.92970204775395
  0
LINE
  5
23D
100
AcDbEntity
  8
1
  6
CONTINUOUS
 62
             7
100
AcDbLine
 10
-253.70197259761031
 20
43.92970204775395
 11
-253.70197259761031
 21
58.32970204775404
  0
LINE
  5
23C
100
AcDbEntity
  8
1
  6
CONTINUOUS
 62
             7
100
AcDbLine
 10
-254.70197259761031
 20
43.92970204775395
 11
-254.70197259761019
 21
58.32970204775404
  0
LINE
  5
23B
100
AcDbEntity
  8
1
  6
CONTINUOUS
 62
             7
100
AcDbLine
 10
-256.20197259761039
 20
43.92970204775395
 11
-256.20197259761022
 21
58.32970204775404
  0
LINE
  5
23A
100
AcDbEntity
  8
1
  6
CONTINUOUS
 62
             7
100
AcDbLine
 10
-254.90197259761041
 20
58.32970204775404
 11
-254.90197259761041
 21
43.92970204775395
  0
LINE
  5
239
100
AcDbEntity
  8
1
  6
CONTINUOUS
 62
             7
100
AcDbLine
 10
-255.20197259761031
 20
43.92970204775395
 11
-255.20197259761031
 21
58.32970204775404
  0
LINE
  5
238
100
AcDbEntity
  8
1
  6
CONTINUOUS
 62
             7
100
AcDbLine
 10
-244.70197259761031
 20
58.32970204775404
 11
-244.4019725976103
 21
58.32970204775404
  0
LINE
  5
237
100
AcDbEntity
  8
1
  6
CONTINUOUS
 62
             7
100
AcDbLine
 10
-256.40197259761038
 20
43.92970204775395
 11
-256.70197259761028
 21
43.92970204775395
  0
LINE
  5
236
100
AcDbEntity
  8
1
  6
CONTINUOUS
 62
             7
100
AcDbLine
 10
-256.40197259761038
 20
58.32970204775404
 11
-256.40197259761038
 21
43.92970204775395
  0
LINE
  5
235
100
AcDbEntity
  8
1
  6
CONTINUOUS
 62
             7
100
AcDbLine
 10
-256.70197259761028
 20
58.32970204775404
 11
-256.40197259761038
 21
58.32970204775404
  0
LINE
  5
234
100
AcDbEntity
  8
1
  6
CONTINUOUS
 62
             7
100
AcDbLine
 10
-256.70197259761028
 20
43.92970204775395
 11
-257.70197259761022
 21
43.92970204775395
  0
LINE
  5
233
100
AcDbEntity
  8
1
  6
CONTINUOUS
 62
             7
100
AcDbLine
 10
-256.70197259761028
 20
43.92970204775395
 11
-256.70197259761028
 21
58.32970204775404
  0
LINE
  5
232
100
AcDbEntity
  8
1
  6
CONTINUOUS
 62
             7
100
AcDbLine
 10
-257.70197259761022
 20
58.32970204775404
 11
-256.70197259761028
 21
58.32970204775404
  0
LINE
  5
231
100
AcDbEntity
  8
1
  6
CONTINUOUS
 62
             7
100
AcDbLine
 10
-257.70197259761022
 20
43.92970204775395
 11
-257.70197259761022
 21
58.32970204775404
  0
LINE
  5
230
100
AcDbEntity
  8
1
  6
CONTINUOUS
 62
             7
100
AcDbLine
 10
-244.4019725976103
 20
58.32970204775404
 11
-244.40197259761041
 21
43.92970204775395
  0
LINE
  5
22F
100
AcDbEntity
  8
1
  6
CONTINUOUS
 62
             7
100
AcDbLine
 10
-251.90197259761041
 20
43.92970204775395
 11
-256.40197259761038
 21
43.92970204775395
  0
LINE
  5
22E
100
AcDbEntity
  8
1
  6
CONTINUOUS
 62
             7
100
AcDbLine
 10
-244.20197259761031
 20
43.92970204775395
 11
-244.20197259761031
 21
58.32970204775404
  0
LINE
  5
22D
100
AcDbEntity
  8
1
  6
CONTINUOUS
 62
             7
100
AcDbLine
 10
-243.20197259761031
 20
43.92970204775395
 11
-243.20197259761031
 21
58.32970204775404
  0
LINE
  5
22C
100
AcDbEntity
  8
1
  6
CONTINUOUS
 62
             7
100
AcDbLine
 10
-242.90197259761041
 20
58.32970204775404
 11
-242.90197259761041
 21
43.92970204775395
  0
LINE
  5
22B
100
AcDbEntity
  8
1
  6
CONTINUOUS
 62
             7
100
AcDbLine
 10
-242.70197259761019
 20
43.92970204775395
 11
-242.70197259761031
 21
58.32970204775404
  0
LINE
  5
22A
100
AcDbEntity
  8
1
  6
CONTINUOUS
 62
             7
100
AcDbLine
 10
-241.70197259761031
 20
43.92970204775395
 11
-241.70197259761031
 21
58.32970204775404
  0
LINE
  5
229
100
AcDbEntity
  8
1
  6
CONTINUOUS
 62
             7
100
AcDbLine
 10
-241.40197259761041
 20
58.32970204775404
 11
-241.4019725976103
 21
43.92970204775395
  0
LINE
  5
228
100
AcDbEntity
  8
1
  6
CONTINUOUS
 62
             7
100
AcDbLine
 10
-241.40197259761041
 20
58.32970204775404
 11
-244.70197259761031
 21
58.32970204775404
  0
LINE
  5
227
100
AcDbEntity
  8
1
  6
CONTINUOUS
 62
             7
100
AcDbLine
 10
-256.40197259761038
 20
58.32970204775404
 11
-244.70197259761031
 21
58.32970204775404
  0
LINE
  5
226
100
AcDbEntity
  8
1
  6
CONTINUOUS
 62
             7
100
AcDbLine
 10
-241.4019725976103
 20
43.92970204775395
 11
-244.40197259761041
 21
43.92970204775395
  0
LINE
  5
225
100
AcDbEntity
  8
1
  6
CONTINUOUS
 62
             7
100
AcDbLine
 10
-189.38383793240499
 20
65.35822652629759
 11
-191.4701072628161
 21
61.74470204775389
  0
LINE
  5
224
100
AcDbEntity
  8
1
  6
CONTINUOUS
 62
             7
100
AcDbLine
 10
-191.28824192802111
 20
61.42970204775384
 11
-187.11570326720059
 21
61.42970204775384
  0
LINE
  5
223
100
AcDbEntity
  8
1
  6
CONTINUOUS
 62
             7
100
AcDbLine
 10
-186.93383793240559
 20
61.74470204775389
 11
-189.02010726281611
 21
65.35822652629759
  0
LINE
  5
222
100
AcDbEntity
  8
1
  6
CONTINUOUS
 62
             7
100
AcDbLine
 10
-189.20197259761019
 20
65.18322652629763
 11
-191.22762014975621
 21
61.67470204775384
  0
LINE
  5
221
100
AcDbEntity
  8
1
  6
CONTINUOUS
 62
             7
100
AcDbLine
 10
-191.22762014975621
 20
61.67470204775384
 11
-187.17632504546509
 21
61.67470204775384
  0
LINE
  5
220
100
AcDbEntity
  8
1
  6
CONTINUOUS
 62
             7
100
AcDbLine
 10
-187.17632504546509
 20
61.67470204775384
 11
-189.20197259761019
 21
65.18322652629763
  0
LINE
  5
21F
100
AcDbEntity
  8
1
  6
CONTINUOUS
 62
             7
100
AcDbLine
 10
-188.9239170655801
 20
63.98676087128331
 11
-189.06294483159559
 21
62.81323145951865
  0
LINE
  5
21E
100
AcDbEntity
  8
1
  6
CONTINUOUS
 62
             7
100
AcDbLine
 10
-189.34100036362611
 20
62.81323145951865
 11
-189.4800281296412
 21
63.98676087128331
  0
LINE
  5
21D
100
AcDbEntity
  8
1
  6
CONTINUOUS
 62
             7
100
AcDbLine
 10
-186.20197259761011
 20
66.42970204775384
 11
-192.20197259761011
 21
66.42970204775384
  0
LINE
  5
21C
100
AcDbEntity
  8
1
  6
CONTINUOUS
 62
             7
100
AcDbLine
 10
-192.20197259761011
 20
66.42970204775384
 11
-192.20197259761011
 21
60.42970204775384
  0
LINE
  5
21B
100
AcDbEntity
  8
1
  6
CONTINUOUS
 62
             7
100
AcDbLine
 10
-192.20197259761011
 20
60.42970204775384
 11
-186.20197259761011
 21
60.42970204775384
  0
LINE
  5
21A
100
AcDbEntity
  8
1
  6
CONTINUOUS
 62
             7
100
AcDbLine
 10
-186.20197259761011
 20
60.42970204775384
 11
-186.20197259761011
 21
66.42970204775384
  0
LINE
  5
219
100
AcDbEntity
  8
1
  6
CONTINUOUS
 62
             7
100
AcDbLine
 10
-274.70197259761011
 20
27.129702047754
 11
-273.20197259761011
 21
27.129702047754
  0
LINE
  5
218
100
AcDbEntity
  8
1
  6
CONTINUOUS
 62
             7
100
AcDbLine
 10
-274.70197259761011
 20
75.129702047754
 11
-273.20197259761011
 21
75.129702047754
  0
LINE
  5
217
100
AcDbEntity
  8
1
  6
CONTINUOUS
 62
             7
100
AcDbLine
 10
-273.20197259761011
 20
27.129702047754
 11
-273.20197259761011
 21
75.129702047754
  0
LINE
  5
216
100
AcDbEntity
  8
1
  6
CONTINUOUS
 62
             7
100
AcDbLine
 10
-322.23539014849558
 20
37.37970204775401
 11
-322.23539014849558
 21
37.87970204775401
  0
LINE
  5
215
100
AcDbEntity
  8
1
  6
CONTINUOUS
 62
             7
100
AcDbLine
 10
-321.872827015572
 20
37.37970204775401
 11
-322.23539014849558
 21
37.37970204775401
  0
LINE
  5
214
100
AcDbEntity
  8
1
  6
CONTINUOUS
 62
             7
100
AcDbLine
 10
-323.97282701557202
 20
36.87970204775401
 11
-323.73539014849558
 21
36.87970204775401
  0
LINE
  5
213
100
AcDbEntity
  8
1
  6
CONTINUOUS
 62
             7
100
AcDbLine
 10
-321.47282701557202
 20
40.37970204775401
 11
-323.97282701557202
 21
40.37970204775401
  0
LINE
  5
212
100
AcDbEntity
  8
1
  6
CONTINUOUS
 62
             7
100
AcDbLine
 10
-323.23539014849558
 20
36.87970204775401
 11
-321.47282701557202
 21
36.87970204775401
  0
LINE
  5
211
100
AcDbEntity
  8
1
  6
CONTINUOUS
 62
             7
100
AcDbLine
 10
-322.23539014849558
 20
37.87970204775401
 11
-323.23539014849558
 21
36.87970204775401
  0
LINE
  5
210
100
AcDbEntity
  8
1
  6
CONTINUOUS
 62
             7
100
AcDbLine
 10
-323.57282701557222
 20
39.87970204775401
 11
-321.872827015572
 21
39.87970204775401
  0
LINE
  5
20F
100
AcDbEntity
  8
1
  6
CONTINUOUS
 62
             7
100
AcDbLine
 10
-323.23539014849558
 20
37.37970204775401
 11
-323.57282701557222
 21
37.37970204775401
  0
LINE
  5
20E
100
AcDbEntity
  8
1
  6
CONTINUOUS
 62
             7
100
AcDbLine
 10
-323.73539014849558
 20
36.87970204775401
 11
-323.23539014849558
 21
37.37970204775401
  0
LINE
  5
20D
100
AcDbEntity
  8
1
  6
CONTINUOUS
 62
             7
100
AcDbLine
 10
-341.2134432068986
 20
62.529702047754
 11
-343.10796223394237
 21
62.529702047754
  0
LINE
  5
20C
100
AcDbEntity
  8
1
  6
CONTINUOUS
 62
             7
100
AcDbLine
 10
-340.49823613469079
 20
63.2449091199617
 11
-341.2134432068986
 21
62.529702047754
  0
LINE
  5
20B
100
AcDbEntity
  8
1
  6
CONTINUOUS
 62
             7
100
AcDbLine
 10
-340.83769179720178
 20
63.72970204775399
 11
-340.49823613469079
 21
63.2449091199617
  0
LINE
  5
20A
100
AcDbEntity
  8
1
  6
CONTINUOUS
 62
             7
100
AcDbLine
 10
-342.73221082424561
 20
63.72970204775399
 11
-340.83769179720178
 21
63.72970204775399
  0
LINE
  5
209
100
AcDbEntity
  8
1
  6
CONTINUOUS
 62
             7
100
AcDbLine
 10
-343.44741789645332
 20
63.01449497554629
 11
-342.73221082424561
 21
63.72970204775399
  0
LINE
  5
208
100
AcDbEntity
  8
1
  6
CONTINUOUS
 62
             7
100
AcDbLine
 10
-343.10796223394237
 20
62.529702047754
 11
-343.44741789645332
 21
63.01449497554629
  0
LINE
  5
207
100
AcDbEntity
  8
1
  6
CONTINUOUS
 62
             7
100
AcDbLine
 10
-341.27173944570131
 20
59.90730413279297
 11
-340.36349592091722
 21
58.6101979532362
  0
LINE
  5
206
100
AcDbEntity
  8
1
  6
CONTINUOUS
 62
             7
100
AcDbLine
 10
-340.90447975018691
 20
61.99013736704185
 11
-341.27173944570131
 21
59.90730413279297
  0
LINE
  5
205
100
AcDbEntity
  8
1
  6
CONTINUOUS
 62
             7
100
AcDbLine
 10
-340.14878126823788
 20
62.74583584899071
 11
-340.90447975018691
 21
61.99013736704185
  0
LINE
  5
204
100
AcDbEntity
  8
1
  6
CONTINUOUS
 62
             7
100
AcDbLine
 10
-339.67262415666528
 20
62.06581301920221
 11
-340.14878126823788
 21
62.74583584899071
  0
LINE
  5
203
100
AcDbEntity
  8
1
  6
CONTINUOUS
 62
             7
100
AcDbLine
 10
-340.20944967186318
 20
59.02132423455369
 11
-339.67262415666528
 21
62.06581301920221
  0
LINE
  5
202
100
AcDbEntity
  8
1
  6
CONTINUOUS
 62
             7
100
AcDbLine
 10
-343.66491506947472
 20
59.229702047754
 11
-344.63547970041401
 21
58.25913741681472
  0
LINE
  5
201
100
AcDbEntity
  8
1
  6
CONTINUOUS
 62
             7
100
AcDbLine
 10
-341.52974211110723
 20
59.229702047754
 11
-343.66491506947472
 21
59.229702047754
  0
LINE
  5
200
100
AcDbEntity
  8
1
  6
CONTINUOUS
 62
             7
100
AcDbLine
 10
-340.79896176646952
 20
58.18603955519347
 11
-341.52974211110723
 21
59.229702047754
  0
LINE
  5
1FF
100
AcDbEntity
  8
1
  6
CONTINUOUS
 62
             7
100
AcDbLine
 10
-343.92978550519223
 20
58.029702047754
 11
-341.39121897547778
 21
58.029702047754
  0
LINE
  5
1FE
100
AcDbEntity
  8
1
  6
CONTINUOUS
 62
             7
100
AcDbLine
 10
-343.80483956438962
 20
59.93830569026295
 11
-345.01838027010672
 21
58.72476498454601
  0
LINE
  5
1FD
100
AcDbEntity
  8
1
  6
CONTINUOUS
 62
             7
100
AcDbLine
 10
-343.44698374882711
 20
61.9678068711068
 11
-343.80483956438962
 21
59.93830569026295
  0
LINE
  5
1FC
100
AcDbEntity
  8
1
  6
CONTINUOUS
 62
             7
100
AcDbLine
 10
-343.87822692229031
 20
62.58368594970926
 11
-343.44698374882711
 21
61.9678068711068
  0
LINE
  5
1FB
100
AcDbEntity
  8
1
  6
CONTINUOUS
 62
             7
100
AcDbLine
 10
-344.70218575849452
 20
61.75972711350499
 11
-343.87822692229031
 21
62.58368594970926
  0
LINE
  5
1FA
100
AcDbEntity
  8
1
  6
CONTINUOUS
 62
             7
100
AcDbLine
 10
-345.11155480880689
 20
59.43807986095432
 11
-344.70218575849452
 21
61.75972711350499
  0
LINE
  5
1F9
100
AcDbEntity
  8
1
  6
CONTINUOUS
 62
             7
100
AcDbLine
 10
-334.82282701557222
 20
39.92970204775401
 11
-329.622827015572
 21
39.92970204775401
  0
LINE
  5
1F8
100
AcDbEntity
  8
1
  6
CONTINUOUS
 62
             7
100
AcDbLine
 10
-329.622827015572
 20
39.92970204775401
 11
-332.22282701557202
 21
36.83114270700906
  0
LINE
  5
1F7
100
AcDbEntity
  8
1
  6
CONTINUOUS
 62
             7
100
AcDbLine
 10
-332.22282701557202
 20
36.83114270700906
 11
-334.82282701557222
 21
39.92970204775401
  0
LINE
  5
1F6
100
AcDbEntity
  8
1
  6
CONTINUOUS
 62
             7
100
AcDbLine
 10
-312.97282701557202
 20
37.37970204775401
 11
-312.97282701557202
 21
39.87970204775401
  0
LINE
  5
1F5
100
AcDbEntity
  8
1
  6
CONTINUOUS
 62
             7
100
AcDbLine
 10
-313.47282701557202
 20
37.37970204775401
 11
-312.97282701557202
 21
37.37970204775401
  0
LINE
  5
1F4
100
AcDbEntity
  8
1
  6
CONTINUOUS
 62
             7
100
AcDbLine
 10
-312.97282701557202
 20
39.87970204775401
 11
-313.47282701557202
 21
39.87970204775401
  0
LINE
  5
1F3
100
AcDbEntity
  8
1
  6
CONTINUOUS
 62
             7
100
AcDbLine
 10
-313.47282701557202
 20
39.87970204775401
 11
-313.47282701557202
 21
37.37970204775401
  0
LINE
  5
1F2
100
AcDbEntity
  8
1
  6
CONTINUOUS
 62
             7
100
AcDbLine
 10
-339.122827015572
 20
37.32970204775401
 11
-344.32282701557222
 21
37.32970204775401
  0
LINE
  5
1F1
100
AcDbEntity
  8
1
  6
CONTINUOUS
 62
             7
100
AcDbLine
 10
-341.72282701557202
 20
40.42826138849895
 11
-339.122827015572
 21
37.32970204775401
  0
LINE
  5
1F0
100
AcDbEntity
  8
1
  6
CONTINUOUS
 62
             7
100
AcDbLine
 10
-344.32282701557222
 20
37.32970204775401
 11
-341.72282701557202
 21
40.42826138849895
  0
LINE
  5
1EF
100
AcDbEntity
  8
1
  6
CONTINUOUS
 62
             7
100
AcDbLine
 10
-344.47282701557202
 20
46.629702047754
 11
-344.47282701557202
 21
45.629702047754
  0
LINE
  5
1EE
100
AcDbEntity
  8
1
  6
CONTINUOUS
 62
             7
100
AcDbLine
 10
-339.97282701557202
 20
47.129702047754
 11
-343.97282701557202
 21
47.129702047754
  0
LINE
  5
1ED
100
AcDbEntity
  8
1
  6
CONTINUOUS
 62
             7
100
AcDbLine
 10
-339.47282701557202
 20
45.629702047754
 11
-339.47282701557202
 21
46.629702047754
  0
LINE
  5
1EC
100
AcDbEntity
  8
1
  6
CONTINUOUS
 62
             7
100
AcDbLine
 10
-343.97282701557202
 20
45.129702047754
 11
-339.97282701557202
 21
45.129702047754
  0
LINE
  5
1EB
100
AcDbEntity
  8
1
  6
CONTINUOUS
 62
             7
100
AcDbLine
 10
-336.97282701557202
 20
46.629702047754
 11
-336.97282701557202
 21
45.629702047754
  0
LINE
  5
1EA
100
AcDbEntity
  8
1
  6
CONTINUOUS
 62
             7
100
AcDbLine
 10
-332.47282701557202
 20
47.129702047754
 11
-336.47282701557202
 21
47.129702047754
  0
LINE
  5
1E9
100
AcDbEntity
  8
1
  6
CONTINUOUS
 62
             7
100
AcDbLine
 10
-331.97282701557202
 20
45.629702047754
 11
-331.97282701557202
 21
46.629702047754
  0
LINE
  5
1E8
100
AcDbEntity
  8
1
  6
CONTINUOUS
 62
             7
100
AcDbLine
 10
-336.47282701557202
 20
45.129702047754
 11
-332.47282701557202
 21
45.129702047754
  0
LINE
  5
1E7
100
AcDbEntity
  8
1
  6
CONTINUOUS
 62
             7
100
AcDbLine
 10
-314.97282701557202
 20
66.629702047754
 11
-314.97282701557202
 21
65.629702047754
  0
LINE
  5
1E6
100
AcDbEntity
  8
1
  6
CONTINUOUS
 62
             7
100
AcDbLine
 10
-310.47282701557202
 20
67.129702047754
 11
-314.47282701557202
 21
67.129702047754
  0
LINE
  5
1E5
100
AcDbEntity
  8
1
  6
CONTINUOUS
 62
             7
100
AcDbLine
 10
-309.97282701557202
 20
65.629702047754
 11
-309.97282701557202
 21
66.629702047754
  0
LINE
  5
1E4
100
AcDbEntity
  8
1
  6
CONTINUOUS
 62
             7
100
AcDbLine
 10
-314.47282701557202
 20
65.129702047754
 11
-310.47282701557202
 21
65.129702047754
  0
LINE
  5
1E3
100
AcDbEntity
  8
1
  6
CONTINUOUS
 62
             7
100
AcDbLine
 10
-314.97282701557202
 20
60.629702047754
 11
-314.97282701557202
 21
59.629702047754
  0
LINE
  5
1E2
100
AcDbEntity
  8
1
  6
CONTINUOUS
 62
             7
100
AcDbLine
 10
-310.47282701557202
 20
61.129702047754
 11
-314.47282701557202
 21
61.129702047754
  0
LINE
  5
1E1
100
AcDbEntity
  8
1
  6
CONTINUOUS
 62
             7
100
AcDbLine
 10
-309.97282701557202
 20
59.629702047754
 11
-309.97282701557202
 21
60.629702047754
  0
LINE
  5
1E0
100
AcDbEntity
  8
1
  6
CONTINUOUS
 62
             7
100
AcDbLine
 10
-314.47282701557202
 20
59.129702047754
 11
-310.47282701557202
 21
59.129702047754
  0
LINE
  5
1DF
100
AcDbEntity
  8
1
  6
CONTINUOUS
 62
             7
100
AcDbLine
 10
-314.97282701557202
 20
54.629702047754
 11
-314.97282701557202
 21
53.629702047754
  0
LINE
  5
1DE
100
AcDbEntity
  8
1
  6
CONTINUOUS
 62
             7
100
AcDbLine
 10
-310.47282701557202
 20
55.129702047754
 11
-314.47282701557202
 21
55.12970204775398
  0
LINE
  5
1DD
100
AcDbEntity
  8
1
  6
CONTINUOUS
 62
             7
100
AcDbLine
 10
-309.97282701557202
 20
53.629702047754
 11
-309.97282701557202
 21
54.629702047754
  0
LINE
  5
1DC
100
AcDbEntity
  8
1
  6
CONTINUOUS
 62
             7
100
AcDbLine
 10
-314.47282701557202
 20
53.129702047754
 11
-310.47282701557202
 21
53.129702047754
  0
LINE
  5
1DB
100
AcDbEntity
  8
1
  6
CONTINUOUS
 62
             7
100
AcDbLine
 10
-314.97282701557202
 20
48.629702047754
 11
-314.97282701557202
 21
47.629702047754
  0
LINE
  5
1DA
100
AcDbEntity
  8
1
  6
CONTINUOUS
 62
             7
100
AcDbLine
 10
-310.47282701557202
 20
49.129702047754
 11
-314.47282701557202
 21
49.129702047754
  0
LINE
  5
1D9
100
AcDbEntity
  8
1
  6
CONTINUOUS
 62
             7
100
AcDbLine
 10
-309.97282701557202
 20
47.629702047754
 11
-309.97282701557202
 21
48.629702047754
  0
LINE
  5
1D8
100
AcDbEntity
  8
1
  6
CONTINUOUS
 62
             7
100
AcDbLine
 10
-314.47282701557202
 20
47.129702047754
 11
-310.47282701557202
 21
47.129702047754
  0
LINE
  5
1D7
100
AcDbEntity
  8
1
  6
CONTINUOUS
 62
             7
100
AcDbLine
 10
-321.97282701557202
 20
46.629702047754
 11
-321.97282701557202
 21
45.629702047754
  0
LINE
  5
1D6
100
AcDbEntity
  8
1
  6
CONTINUOUS
 62
             7
100
AcDbLine
 10
-317.47282701557202
 20
47.129702047754
 11
-321.47282701557202
 21
47.129702047754
  0
LINE
  5
1D5
100
AcDbEntity
  8
1
  6
CONTINUOUS
 62
             7
100
AcDbLine
 10
-316.97282701557202
 20
45.629702047754
 11
-316.97282701557202
 21
46.629702047754
  0
LINE
  5
1D4
100
AcDbEntity
  8
1
  6
CONTINUOUS
 62
             7
100
AcDbLine
 10
-321.47282701557202
 20
45.129702047754
 11
-317.47282701557202
 21
45.129702047754
  0
LINE
  5
1D3
100
AcDbEntity
  8
1
  6
CONTINUOUS
 62
             7
100
AcDbLine
 10
-345.97282701557202
 20
44.12970204775401
 11
-308.97282701557202
 21
44.12970204775401
  0
LINE
  5
1D2
100
AcDbEntity
  8
1
  6
CONTINUOUS
 62
             7
100
AcDbLine
 10
-307.47282701557202
 20
45.62970204775401
 11
-307.47282701557202
 21
69.12970204775402
  0
LINE
  5
1D1
100
AcDbEntity
  8
1
  6
CONTINUOUS
 62
             7
100
AcDbLine
 10
-308.97282701557202
 20
70.62970204775402
 11
-345.97282701557202
 21
70.62970204775402
  0
LINE
  5
1D0
100
AcDbEntity
  8
1
  6
CONTINUOUS
 62
             7
100
AcDbLine
 10
-347.47282701557202
 20
69.12970204775402
 11
-347.47282701557202
 21
45.62970204775401
  0
LINE
  5
1CF
100
AcDbEntity
  8
1
  6
CONTINUOUS
 62
             7
100
AcDbLine
 10
-345.97282701557202
 20
34.12970204775401
 11
-308.97282701557202
 21
34.12970204775401
  0
LINE
  5
1CE
100
AcDbEntity
  8
1
  6
CONTINUOUS
 62
             7
100
AcDbLine
 10
-307.47282701557202
 20
35.62970204775401
 11
-307.47282701557202
 21
41.62970204775401
  0
LINE
  5
1CD
100
AcDbEntity
  8
1
  6
CONTINUOUS
 62
             7
100
AcDbLine
 10
-308.97282701557202
 20
43.12970204775401
 11
-345.97282701557202
 21
43.12970204775401
  0
LINE
  5
1CC
100
AcDbEntity
  8
1
  6
CONTINUOUS
 62
             7
100
AcDbLine
 10
-347.47282701557202
 20
41.62970204775401
 11
-347.47282701557202
 21
35.62970204775401
  0
LINE
  5
1CB
100
AcDbEntity
  8
1
  6
CONTINUOUS
 62
             7
100
AcDbLine
 10
-345.97282701557202
 20
41.12970204775401
 11
-345.97282701557202
 21
36.12970204775401
  0
LINE
  5
1CA
100
AcDbEntity
  8
1
  6
CONTINUOUS
 62
             7
100
AcDbLine
 10
-308.97282701557202
 20
36.12970204775401
 11
-308.97282701557202
 21
41.12970204775401
  0
LINE
  5
1C9
100
AcDbEntity
  8
1
  6
CONTINUOUS
 62
             7
100
AcDbLine
 10
-343.73620435928098
 20
67.23807986095432
 11
-344.27302987447871
 21
64.19359107630581
  0
LINE
  5
1C8
100
AcDbEntity
  8
1
  6
CONTINUOUS
 62
             7
100
AcDbLine
 10
-344.27302987447871
 20
64.19359107630581
 11
-343.79687276290622
 21
63.51356824651728
  0
LINE
  5
1C7
100
AcDbEntity
  8
1
  6
CONTINUOUS
 62
             7
100
AcDbLine
 10
-343.79687276290622
 20
63.51356824651728
 11
-343.04117428095731
 21
64.26926672846614
  0
LINE
  5
1C6
100
AcDbEntity
  8
1
  6
CONTINUOUS
 62
             7
100
AcDbLine
 10
-343.04117428095731
 20
64.26926672846614
 11
-342.67391458544279
 21
66.35209996271502
  0
LINE
  5
1C5
100
AcDbEntity
  8
1
  6
CONTINUOUS
 62
             7
100
AcDbLine
 10
-342.67391458544279
 20
66.35209996271502
 11
-343.58215811022689
 21
67.64920614227182
  0
LINE
  5
1C4
100
AcDbEntity
  8
1
  6
CONTINUOUS
 62
             7
100
AcDbLine
 10
-340.49867028231688
 20
64.29159722440122
 11
-340.14081446675448
 21
66.32109840524504
  0
LINE
  5
1C3
100
AcDbEntity
  8
1
  6
CONTINUOUS
 62
             7
100
AcDbLine
 10
-340.14081446675448
 20
66.32109840524504
 11
-338.9272737610375
 21
67.53463911096199
  0
LINE
  5
1C2
100
AcDbEntity
  8
1
  6
CONTINUOUS
 62
             7
100
AcDbLine
 10
-338.83409922233722
 20
66.82132423455369
 11
-339.24346827264952
 21
64.499676982003
  0
LINE
  5
1C1
100
AcDbEntity
  8
1
  6
CONTINUOUS
 62
             7
100
AcDbLine
 10
-339.24346827264952
 20
64.499676982003
 11
-340.06742710885379
 21
63.67571814579873
  0
LINE
  5
1C0
100
AcDbEntity
  8
1
  6
CONTINUOUS
 62
             7
100
AcDbLine
 10
-340.06742710885379
 20
63.67571814579873
 11
-340.49867028231688
 21
64.29159722440122
  0
LINE
  5
1BF
100
AcDbEntity
  8
1
  6
CONTINUOUS
 62
             7
100
AcDbLine
 10
-342.41591192003688
 20
67.029702047754
 11
-343.14669226467453
 21
68.07336454031454
  0
LINE
  5
1BE
100
AcDbEntity
  8
1
  6
CONTINUOUS
 62
             7
100
AcDbLine
 10
-342.55443505566632
 20
68.22970204775399
 11
-340.01586852595182
 21
68.22970204775399
  0
LINE
  5
1BD
100
AcDbEntity
  8
1
  6
CONTINUOUS
 62
             7
100
AcDbLine
 10
-339.31017433072998
 20
68.00026667869329
 11
-340.28073896166927
 21
67.029702047754
  0
LINE
  5
1BC
100
AcDbEntity
  8
1
  6
CONTINUOUS
 62
             7
100
AcDbLine
 10
-340.28073896166927
 20
67.029702047754
 11
-342.41591192003688
 21
67.029702047754
  0
LINE
  5
1BB
100
AcDbEntity
  8
1
  6
CONTINUOUS
 62
             7
100
AcDbLine
 10
-342.35153291847308
 20
55.72958409278229
 11
-343.24079381641587
 21
56.78936396265914
  0
LINE
  5
1BA
100
AcDbEntity
  8
1
  6
CONTINUOUS
 62
             7
100
AcDbLine
 10
-342.67788474080618
 20
56.92958409278228
 11
-340.1393182110919
 21
56.92958409278228
  0
LINE
  5
1B9
100
AcDbEntity
  8
1
  6
CONTINUOUS
 62
             7
100
AcDbLine
 10
-339.40093214605821
 20
56.67551538995147
 11
-340.52824916780691
 21
55.72958409278229
  0
LINE
  5
1B8
100
AcDbEntity
  8
1
  6
CONTINUOUS
 62
             7
100
AcDbLine
 10
-340.52824916780691
 20
55.72958409278229
 11
-342.35153291847308
 21
55.72958409278229
  0
LINE
  5
1B7
100
AcDbEntity
  8
1
  6
CONTINUOUS
 62
             7
100
AcDbLine
 10
-343.05116504070548
 20
53.61260631434178
 11
-343.84544076809249
 21
52.94612984443819
  0
LINE
  5
1B6
100
AcDbEntity
  8
1
  6
CONTINUOUS
 62
             7
100
AcDbLine
 10
-343.84544076809249
 20
52.94612984443819
 11
-344.29312016542087
 21
53.47965337453459
  0
LINE
  5
1B5
100
AcDbEntity
  8
1
  6
CONTINUOUS
 62
             7
100
AcDbLine
 10
-344.29312016542087
 20
53.47965337453459
 11
-343.85965404442078
 21
55.93796190598259
  0
LINE
  5
1B4
100
AcDbEntity
  8
1
  6
CONTINUOUS
 62
             7
100
AcDbLine
 10
-343.68380735940548
 20
56.38389264796872
 11
-342.75722329972308
 21
55.2796327660017
  0
LINE
  5
1B3
100
AcDbEntity
  8
1
  6
CONTINUOUS
 62
             7
100
AcDbLine
 10
-342.75722329972308
 20
55.2796327660017
 11
-343.05116504070548
 21
53.61260631434178
  0
LINE
  5
1B2
100
AcDbEntity
  8
1
  6
CONTINUOUS
 62
             7
100
AcDbLine
 10
-340.02627996163602
 20
52.95845552778138
 11
-340.52346526363652
 21
53.55097789762553
  0
LINE
  5
1B1
100
AcDbEntity
  8
1
  6
CONTINUOUS
 62
             7
100
AcDbLine
 10
-340.52346526363652
 20
53.55097789762553
 11
-340.23387022371242
 21
55.19335298259901
  0
LINE
  5
1B0
100
AcDbEntity
  8
1
  6
CONTINUOUS
 62
             7
100
AcDbLine
 10
-340.23387022371242
 20
55.19335298259901
 11
-339.03505832912492
 21
56.19927560119837
  0
LINE
  5
1AF
100
AcDbEntity
  8
1
  6
CONTINUOUS
 62
             7
100
AcDbLine
 10
-338.95754890747708
 20
55.52120627958196
 11
-339.30231631347721
 21
53.56593315793725
  0
LINE
  5
1AE
100
AcDbEntity
  8
1
  6
CONTINUOUS
 62
             7
100
AcDbLine
 10
-339.30231631347721
 20
53.56593315793725
 11
-340.02627996163602
 21
52.95845552778138
  0
LINE
  5
1AD
100
AcDbEntity
  8
1
  6
CONTINUOUS
 62
             7
100
AcDbLine
 10
-342.69337421243557
 20
53.1295840927823
 11
-340.95311825101152
 21
53.12958409278227
  0
LINE
  5
1AC
100
AcDbEntity
  8
1
  6
CONTINUOUS
 62
             7
100
AcDbLine
 10
-340.95311825101152
 20
53.12958409278227
 11
-340.4859066275074
 21
52.57278296196947
  0
LINE
  5
1AB
100
AcDbEntity
  8
1
  6
CONTINUOUS
 62
             7
100
AcDbLine
 10
-340.4859066275074
 20
52.57278296196947
 11
-341.25244119061392
 21
51.92958409278228
  0
LINE
  5
1AA
100
AcDbEntity
  8
1
  6
CONTINUOUS
 62
             7
100
AcDbLine
 10
-341.25244119061392
 20
51.92958409278228
 11
-342.99245760280331
 21
51.92958409278228
  0
LINE
  5
1A9
100
AcDbEntity
  8
1
  6
CONTINUOUS
 62
             7
100
AcDbLine
 10
-342.99245760280331
 20
51.92958409278228
 11
-343.45976820228071
 21
52.48650317856681
  0
LINE
  5
1A8
100
AcDbEntity
  8
1
  6
CONTINUOUS
 62
             7
100
AcDbLine
 10
-343.45976820228071
 20
52.48650317856681
 11
-342.69337421243557
 21
53.1295840927823
  0
LINE
  5
1A7
100
AcDbEntity
  8
1
  6
CONTINUOUS
 62
             7
100
AcDbLine
 10
-343.91939486815198
 20
52.10083061275489
 11
-343.42220956615148
 21
51.50830824291074
  0
LINE
  5
1A6
100
AcDbEntity
  8
1
  6
CONTINUOUS
 62
             7
100
AcDbLine
 10
-343.42220956615148
 20
51.50830824291074
 11
-343.71180460607582
 21
49.86593315793726
  0
LINE
  5
1A5
100
AcDbEntity
  8
1
  6
CONTINUOUS
 62
             7
100
AcDbLine
 10
-343.71180460607582
 20
49.86593315793726
 11
-344.91061650066342
 21
48.86001053933791
  0
LINE
  5
1A4
100
AcDbEntity
  8
1
  6
CONTINUOUS
 62
             7
100
AcDbLine
 10
-344.98812592231099
 20
49.53807986095433
 11
-344.64335851631091
 21
51.49335298259902
  0
LINE
  5
1A3
100
AcDbEntity
  8
1
  6
CONTINUOUS
 62
             7
100
AcDbLine
 10
-344.64335851631091
 20
51.49335298259902
 11
-343.91939486815198
 21
52.10083061275489
  0
LINE
  5
1A2
100
AcDbEntity
  8
1
  6
CONTINUOUS
 62
             7
100
AcDbLine
 10
-340.10023406169552
 20
52.11315629609808
 11
-339.65255466436719
 21
51.57963276600168
  0
LINE
  5
1A1
100
AcDbEntity
  8
1
  6
CONTINUOUS
 62
             7
100
AcDbLine
 10
-339.65255466436719
 20
51.57963276600168
 11
-340.08602078536728
 21
49.12132423455368
  0
LINE
  5
1A0
100
AcDbEntity
  8
1
  6
CONTINUOUS
 62
             7
100
AcDbLine
 10
-340.26186747038258
 20
48.67539349256757
 11
-341.18845153006492
 21
49.77965337453459
  0
LINE
  5
19F
100
AcDbEntity
  8
1
  6
CONTINUOUS
 62
             7
100
AcDbLine
 10
-341.18845153006492
 20
49.77965337453459
 11
-340.89450978908258
 21
51.44667982619448
  0
LINE
  5
19E
100
AcDbEntity
  8
1
  6
CONTINUOUS
 62
             7
100
AcDbLine
 10
-340.89450978908258
 20
51.44667982619448
 11
-340.10023406169552
 21
52.11315629609808
  0
LINE
  5
19D
100
AcDbEntity
  8
1
  6
CONTINUOUS
 62
             7
100
AcDbLine
 10
-344.54474268372991
 20
48.3837707505848
 11
-343.41742566198121
 21
49.329702047754
  0
LINE
  5
19C
100
AcDbEntity
  8
1
  6
CONTINUOUS
 62
             7
100
AcDbLine
 10
-343.41742566198121
 20
49.329702047754
 11
-341.59414191131498
 21
49.329702047754
  0
LINE
  5
19B
100
AcDbEntity
  8
1
  6
CONTINUOUS
 62
             7
100
AcDbLine
 10
-341.59414191131498
 20
49.329702047754
 11
-340.70488101337219
 21
48.26992217787714
  0
LINE
  5
19A
100
AcDbEntity
  8
1
  6
CONTINUOUS
 62
             7
100
AcDbLine
 10
-341.26779008898188
 20
48.129702047754
 11
-343.80635661869638
 21
48.129702047754
  0
LINE
  5
199
100
AcDbEntity
  8
1
  6
CONTINUOUS
 62
             7
100
AcDbLine
 10
-333.76779008898188
 20
48.129702047754
 11
-336.30635661869638
 21
48.129702047754
  0
LINE
  5
198
100
AcDbEntity
  8
1
  6
CONTINUOUS
 62
             7
100
AcDbLine
 10
-334.09414191131498
 20
49.329702047754
 11
-333.20488101337219
 21
48.26992217787714
  0
LINE
  5
197
100
AcDbEntity
  8
1
  6
CONTINUOUS
 62
             7
100
AcDbLine
 10
-335.91742566198121
 20
49.329702047754
 11
-334.09414191131498
 21
49.329702047754
  0
LINE
  5
196
100
AcDbEntity
  8
1
  6
CONTINUOUS
 62
             7
100
AcDbLine
 10
-337.04474268372991
 20
48.3837707505848
 11
-335.91742566198121
 21
49.329702047754
  0
LINE
  5
195
100
AcDbEntity
  8
1
  6
CONTINUOUS
 62
             7
100
AcDbLine
 10
-333.39450978908258
 20
51.44667982619448
 11
-332.60023406169552
 21
52.11315629609808
  0
LINE
  5
194
100
AcDbEntity
  8
1
  6
CONTINUOUS
 62
             7
100
AcDbLine
 10
-333.68845153006492
 20
49.77965337453459
 11
-333.39450978908258
 21
51.44667982619448
  0
LINE
  5
193
100
AcDbEntity
  8
1
  6
CONTINUOUS
 62
             7
100
AcDbLine
 10
-332.76186747038258
 20
48.67539349256757
 11
-333.68845153006492
 21
49.77965337453459
  0
LINE
  5
192
100
AcDbEntity
  8
1
  6
CONTINUOUS
 62
             7
100
AcDbLine
 10
-332.15255466436719
 20
51.57963276600168
 11
-332.58602078536728
 21
49.12132423455368
  0
LINE
  5
191
100
AcDbEntity
  8
1
  6
CONTINUOUS
 62
             7
100
AcDbLine
 10
-332.60023406169552
 20
52.11315629609808
 11
-332.15255466436719
 21
51.57963276600168
  0
LINE
  5
190
100
AcDbEntity
  8
1
  6
CONTINUOUS
 62
             7
100
AcDbLine
 10
-337.14335851631091
 20
51.49335298259902
 11
-336.41939486815198
 21
52.10083061275489
  0
LINE
  5
18F
100
AcDbEntity
  8
1
  6
CONTINUOUS
 62
             7
100
AcDbLine
 10
-337.48812592231099
 20
49.53807986095433
 11
-337.14335851631091
 21
51.49335298259902
  0
LINE
  5
18E
100
AcDbEntity
  8
1
  6
CONTINUOUS
 62
             7
100
AcDbLine
 10
-336.21180460607582
 20
49.86593315793726
 11
-337.41061650066342
 21
48.86001053933791
  0
LINE
  5
18D
100
AcDbEntity
  8
1
  6
CONTINUOUS
 62
             7
100
AcDbLine
 10
-335.92220956615148
 20
51.50830824291074
 11
-336.21180460607582
 21
49.86593315793726
  0
LINE
  5
18C
100
AcDbEntity
  8
1
  6
CONTINUOUS
 62
             7
100
AcDbLine
 10
-336.41939486815198
 20
52.10083061275489
 11
-335.92220956615148
 21
51.50830824291074
  0
LINE
  5
18B
100
AcDbEntity
  8
1
  6
CONTINUOUS
 62
             7
100
AcDbLine
 10
-335.95976820228071
 20
52.48650317856681
 11
-335.19337421243557
 21
53.1295840927823
  0
LINE
  5
18A
100
AcDbEntity
  8
1
  6
CONTINUOUS
 62
             7
100
AcDbLine
 10
-335.49245760280331
 20
51.92958409278228
 11
-335.95976820228071
 21
52.48650317856681
  0
LINE
  5
189
100
AcDbEntity
  8
1
  6
CONTINUOUS
 62
             7
100
AcDbLine
 10
-333.75244119061392
 20
51.92958409278228
 11
-335.49245760280331
 21
51.92958409278228
  0
LINE
  5
188
100
AcDbEntity
  8
1
  6
CONTINUOUS
 62
             7
100
AcDbLine
 10
-332.9859066275074
 20
52.57278296196947
 11
-333.75244119061392
 21
51.92958409278228
  0
LINE
  5
187
100
AcDbEntity
  8
1
  6
CONTINUOUS
 62
             7
100
AcDbLine
 10
-333.45311825101152
 20
53.12958409278227
 11
-332.9859066275074
 21
52.57278296196947
  0
LINE
  5
186
100
AcDbEntity
  8
1
  6
CONTINUOUS
 62
             7
100
AcDbLine
 10
-335.19337421243557
 20
53.1295840927823
 11
-333.45311825101152
 21
53.12958409278227
  0
LINE
  5
185
100
AcDbEntity
  8
1
  6
CONTINUOUS
 62
             7
100
AcDbLine
 10
-331.80231631347721
 20
53.56593315793725
 11
-332.52627996163602
 21
52.95845552778138
  0
LINE
  5
184
100
AcDbEntity
  8
1
  6
CONTINUOUS
 62
             7
100
AcDbLine
 10
-331.45754890747708
 20
55.52120627958196
 11
-331.80231631347721
 21
53.56593315793725
  0
LINE
  5
183
100
AcDbEntity
  8
1
  6
CONTINUOUS
 62
             7
100
AcDbLine
 10
-332.73387022371242
 20
55.19335298259901
 11
-331.53505832912492
 21
56.19927560119837
  0
LINE
  5
182
100
AcDbEntity
  8
1
  6
CONTINUOUS
 62
             7
100
AcDbLine
 10
-333.02346526363652
 20
53.55097789762553
 11
-332.73387022371242
 21
55.19335298259901
  0
LINE
  5
181
100
AcDbEntity
  8
1
  6
CONTINUOUS
 62
             7
100
AcDbLine
 10
-332.52627996163602
 20
52.95845552778138
 11
-333.02346526363652
 21
53.55097789762553
  0
LINE
  5
180
100
AcDbEntity
  8
1
  6
CONTINUOUS
 62
             7
100
AcDbLine
 10
-335.25722329972308
 20
55.2796327660017
 11
-335.55116504070548
 21
53.61260631434178
  0
LINE
  5
17F
100
AcDbEntity
  8
1
  6
CONTINUOUS
 62
             7
100
AcDbLine
 10
-336.18380735940548
 20
56.38389264796872
 11
-335.25722329972308
 21
55.2796327660017
  0
LINE
  5
17E
100
AcDbEntity
  8
1
  6
CONTINUOUS
 62
             7
100
AcDbLine
 10
-336.79312016542087
 20
53.47965337453459
 11
-336.35965404442078
 21
55.93796190598259
  0
LINE
  5
17D
100
AcDbEntity
  8
1
  6
CONTINUOUS
 62
             7
100
AcDbLine
 10
-336.34544076809249
 20
52.94612984443819
 11
-336.79312016542087
 21
53.47965337453459
  0
LINE
  5
17C
100
AcDbEntity
  8
1
  6
CONTINUOUS
 62
             7
100
AcDbLine
 10
-335.55116504070548
 20
53.61260631434178
 11
-336.34544076809249
 21
52.94612984443819
  0
LINE
  5
17B
100
AcDbEntity
  8
1
  6
CONTINUOUS
 62
             7
100
AcDbLine
 10
-333.02824916780691
 20
55.72958409278229
 11
-334.85153291847308
 21
55.72958409278229
  0
LINE
  5
17A
100
AcDbEntity
  8
1
  6
CONTINUOUS
 62
             7
100
AcDbLine
 10
-331.90093214605821
 20
56.67551538995147
 11
-333.02824916780691
 21
55.72958409278229
  0
LINE
  5
179
100
AcDbEntity
  8
1
  6
CONTINUOUS
 62
             7
100
AcDbLine
 10
-335.17788474080618
 20
56.92958409278228
 11
-332.63931821109168
 21
56.92958409278228
  0
LINE
  5
178
100
AcDbEntity
  8
1
  6
CONTINUOUS
 62
             7
100
AcDbLine
 10
-334.85153291847308
 20
55.72958409278229
 11
-335.74079381641587
 21
56.78936396265914
  0
LINE
  5
177
100
AcDbEntity
  8
1
  6
CONTINUOUS
 62
             7
100
AcDbLine
 10
-332.78073896166927
 20
67.029702047754
 11
-334.91591192003688
 21
67.029702047754
  0
LINE
  5
176
100
AcDbEntity
  8
1
  6
CONTINUOUS
 62
             7
100
AcDbLine
 10
-331.81017433073021
 20
68.00026667869329
 11
-332.78073896166927
 21
67.029702047754
  0
LINE
  5
175
100
AcDbEntity
  8
1
  6
CONTINUOUS
 62
             7
100
AcDbLine
 10
-335.05443505566632
 20
68.22970204775399
 11
-332.51586852595182
 21
68.22970204775399
  0
LINE
  5
174
100
AcDbEntity
  8
1
  6
CONTINUOUS
 62
             7
100
AcDbLine
 10
-334.91591192003688
 20
67.029702047754
 11
-335.64669226467453
 21
68.07336454031454
  0
LINE
  5
173
100
AcDbEntity
  8
1
  6
CONTINUOUS
 62
             7
100
AcDbLine
 10
-332.56742710885379
 20
63.67571814579873
 11
-332.99867028231688
 21
64.29159722440122
  0
LINE
  5
172
100
AcDbEntity
  8
1
  6
CONTINUOUS
 62
             7
100
AcDbLine
 10
-331.74346827264952
 20
64.499676982003
 11
-332.56742710885379
 21
63.67571814579873
  0
LINE
  5
171
100
AcDbEntity
  8
1
  6
CONTINUOUS
 62
             7
100
AcDbLine
 10
-331.33409922233722
 20
66.82132423455369
 11
-331.74346827264952
 21
64.499676982003
  0
LINE
  5
170
100
AcDbEntity
  8
1
  6
CONTINUOUS
 62
             7
100
AcDbLine
 10
-332.64081446675448
 20
66.32109840524504
 11
-331.4272737610375
 21
67.53463911096199
  0
LINE
  5
16F
100
AcDbEntity
  8
1
  6
CONTINUOUS
 62
             7
100
AcDbLine
 10
-332.99867028231688
 20
64.29159722440122
 11
-332.64081446675448
 21
66.32109840524504
  0
LINE
  5
16E
100
AcDbEntity
  8
1
  6
CONTINUOUS
 62
             7
100
AcDbLine
 10
-335.17391458544279
 20
66.35209996271502
 11
-336.08215811022689
 21
67.64920614227182
  0
LINE
  5
16D
100
AcDbEntity
  8
1
  6
CONTINUOUS
 62
             7
100
AcDbLine
 10
-335.54117428095742
 20
64.26926672846614
 11
-335.17391458544279
 21
66.35209996271502
  0
LINE
  5
16C
100
AcDbEntity
  8
1
  6
CONTINUOUS
 62
             7
100
AcDbLine
 10
-336.29687276290622
 20
63.51356824651728
 11
-335.54117428095742
 21
64.26926672846614
  0
LINE
  5
16B
100
AcDbEntity
  8
1
  6
CONTINUOUS
 62
             7
100
AcDbLine
 10
-336.77302987447871
 20
64.19359107630581
 11
-336.29687276290622
 21
63.51356824651728
  0
LINE
  5
16A
100
AcDbEntity
  8
1
  6
CONTINUOUS
 62
             7
100
AcDbLine
 10
-336.23620435928098
 20
67.23807986095432
 11
-336.77302987447871
 21
64.19359107630581
  0
LINE
  5
169
100
AcDbEntity
  8
1
  6
CONTINUOUS
 62
             7
100
AcDbLine
 10
-337.61155480880689
 20
59.43807986095432
 11
-337.20218575849452
 21
61.75972711350499
  0
LINE
  5
168
100
AcDbEntity
  8
1
  6
CONTINUOUS
 62
             7
100
AcDbLine
 10
-337.20218575849452
 20
61.75972711350499
 11
-336.37822692229031
 21
62.58368594970926
  0
LINE
  5
167
100
AcDbEntity
  8
1
  6
CONTINUOUS
 62
             7
100
AcDbLine
 10
-336.37822692229031
 20
62.58368594970926
 11
-335.94698374882711
 21
61.9678068711068
  0
LINE
  5
166
100
AcDbEntity
  8
1
  6
CONTINUOUS
 62
             7
100
AcDbLine
 10
-335.94698374882711
 20
61.9678068711068
 11
-336.30483956438962
 21
59.93830569026295
  0
LINE
  5
165
100
AcDbEntity
  8
1
  6
CONTINUOUS
 62
             7
100
AcDbLine
 10
-336.30483956438962
 20
59.93830569026295
 11
-337.51838027010672
 21
58.72476498454601
  0
LINE
  5
164
100
AcDbEntity
  8
1
  6
CONTINUOUS
 62
             7
100
AcDbLine
 10
-336.42978550519223
 20
58.029702047754
 11
-333.89121897547778
 21
58.029702047754
  0
LINE
  5
163
100
AcDbEntity
  8
1
  6
CONTINUOUS
 62
             7
100
AcDbLine
 10
-333.29896176646952
 20
58.18603955519347
 11
-334.02974211110723
 21
59.229702047754
  0
LINE
  5
162
100
AcDbEntity
  8
1
  6
CONTINUOUS
 62
             7
100
AcDbLine
 10
-334.02974211110723
 20
59.229702047754
 11
-336.16491506947472
 21
59.229702047754
  0
LINE
  5
161
100
AcDbEntity
  8
1
  6
CONTINUOUS
 62
             7
100
AcDbLine
 10
-336.16491506947472
 20
59.229702047754
 11
-337.13547970041401
 21
58.25913741681472
  0
LINE
  5
160
100
AcDbEntity
  8
1
  6
CONTINUOUS
 62
             7
100
AcDbLine
 10
-332.70944967186318
 20
59.02132423455369
 11
-332.17262415666528
 21
62.06581301920221
  0
LINE
  5
15F
100
AcDbEntity
  8
1
  6
CONTINUOUS
 62
             7
100
AcDbLine
 10
-332.17262415666528
 20
62.06581301920221
 11
-332.64878126823788
 21
62.74583584899071
  0
LINE
  5
15E
100
AcDbEntity
  8
1
  6
CONTINUOUS
 62
             7
100
AcDbLine
 10
-332.64878126823788
 20
62.74583584899071
 11
-333.40447975018691
 21
61.99013736704185
  0
LINE
  5
15D
100
AcDbEntity
  8
1
  6
CONTINUOUS
 62
             7
100
AcDbLine
 10
-333.40447975018691
 20
61.99013736704185
 11
-333.77173944570131
 21
59.90730413279297
  0
LINE
  5
15C
100
AcDbEntity
  8
1
  6
CONTINUOUS
 62
             7
100
AcDbLine
 10
-333.77173944570131
 20
59.90730413279297
 11
-332.8634959209171
 21
58.61019795323619
  0
LINE
  5
15B
100
AcDbEntity
  8
1
  6
CONTINUOUS
 62
             7
100
AcDbLine
 10
-335.60796223394237
 20
62.529702047754
 11
-335.94741789645332
 21
63.01449497554629
  0
LINE
  5
15A
100
AcDbEntity
  8
1
  6
CONTINUOUS
 62
             7
100
AcDbLine
 10
-335.94741789645332
 20
63.01449497554629
 11
-335.23221082424561
 21
63.72970204775399
  0
LINE
  5
159
100
AcDbEntity
  8
1
  6
CONTINUOUS
 62
             7
100
AcDbLine
 10
-335.23221082424561
 20
63.72970204775399
 11
-333.33769179720178
 21
63.72970204775399
  0
LINE
  5
158
100
AcDbEntity
  8
1
  6
CONTINUOUS
 62
             7
100
AcDbLine
 10
-333.33769179720178
 20
63.72970204775399
 11
-332.99823613469079
 21
63.2449091199617
  0
LINE
  5
157
100
AcDbEntity
  8
1
  6
CONTINUOUS
 62
             7
100
AcDbLine
 10
-332.99823613469079
 20
63.2449091199617
 11
-333.7134432068986
 21
62.529702047754
  0
LINE
  5
156
100
AcDbEntity
  8
1
  6
CONTINUOUS
 62
             7
100
AcDbLine
 10
-333.7134432068986
 20
62.529702047754
 11
-335.60796223394237
 21
62.529702047754
  0
LINE
  5
155
100
AcDbEntity
  8
1
  6
CONTINUOUS
 62
             7
100
AcDbLine
 10
-326.26779008898188
 20
48.129702047754
 11
-328.80635661869638
 21
48.129702047754
  0
LINE
  5
154
100
AcDbEntity
  8
1
  6
CONTINUOUS
 62
             7
100
AcDbLine
 10
-326.59414191131498
 20
49.329702047754
 11
-325.70488101337219
 21
48.26992217787714
  0
LINE
  5
153
100
AcDbEntity
  8
1
  6
CONTINUOUS
 62
             7
100
AcDbLine
 10
-328.41742566198121
 20
49.329702047754
 11
-326.59414191131498
 21
49.329702047754
  0
LINE
  5
152
100
AcDbEntity
  8
1
  6
CONTINUOUS
 62
             7
100
AcDbLine
 10
-329.54474268372991
 20
48.3837707505848
 11
-328.41742566198121
 21
49.329702047754
  0
LINE
  5
151
100
AcDbEntity
  8
1
  6
CONTINUOUS
 62
             7
100
AcDbLine
 10
-325.89450978908258
 20
51.44667982619448
 11
-325.10023406169552
 21
52.11315629609808
  0
LINE
  5
150
100
AcDbEntity
  8
1
  6
CONTINUOUS
 62
             7
100
AcDbLine
 10
-326.18845153006492
 20
49.77965337453459
 11
-325.89450978908258
 21
51.44667982619448
  0
LINE
  5
14F
100
AcDbEntity
  8
1
  6
CONTINUOUS
 62
             7
100
AcDbLine
 10
-325.26186747038258
 20
48.67539349256757
 11
-326.18845153006492
 21
49.77965337453459
  0
LINE
  5
14E
100
AcDbEntity
  8
1
  6
CONTINUOUS
 62
             7
100
AcDbLine
 10
-324.65255466436719
 20
51.57963276600168
 11
-325.08602078536728
 21
49.12132423455368
  0
LINE
  5
14D
100
AcDbEntity
  8
1
  6
CONTINUOUS
 62
             7
100
AcDbLine
 10
-325.10023406169552
 20
52.11315629609808
 11
-324.65255466436719
 21
51.57963276600168
  0
LINE
  5
14C
100
AcDbEntity
  8
1
  6
CONTINUOUS
 62
             7
100
AcDbLine
 10
-329.64335851631091
 20
51.49335298259902
 11
-328.91939486815198
 21
52.10083061275489
  0
LINE
  5
14B
100
AcDbEntity
  8
1
  6
CONTINUOUS
 62
             7
100
AcDbLine
 10
-329.98812592231099
 20
49.53807986095433
 11
-329.64335851631091
 21
51.49335298259902
  0
LINE
  5
14A
100
AcDbEntity
  8
1
  6
CONTINUOUS
 62
             7
100
AcDbLine
 10
-328.71180460607582
 20
49.86593315793726
 11
-329.91061650066342
 21
48.86001053933791
  0
LINE
  5
149
100
AcDbEntity
  8
1
  6
CONTINUOUS
 62
             7
100
AcDbLine
 10
-328.42220956615148
 20
51.50830824291074
 11
-328.71180460607582
 21
49.86593315793726
  0
LINE
  5
148
100
AcDbEntity
  8
1
  6
CONTINUOUS
 62
             7
100
AcDbLine
 10
-328.91939486815198
 20
52.10083061275489
 11
-328.42220956615148
 21
51.50830824291074
  0
LINE
  5
147
100
AcDbEntity
  8
1
  6
CONTINUOUS
 62
             7
100
AcDbLine
 10
-328.45976820228071
 20
52.48650317856681
 11
-327.69337421243557
 21
53.1295840927823
  0
LINE
  5
146
100
AcDbEntity
  8
1
  6
CONTINUOUS
 62
             7
100
AcDbLine
 10
-327.99245760280331
 20
51.92958409278228
 11
-328.45976820228071
 21
52.48650317856681
  0
LINE
  5
145
100
AcDbEntity
  8
1
  6
CONTINUOUS
 62
             7
100
AcDbLine
 10
-326.25244119061392
 20
51.92958409278228
 11
-327.99245760280331
 21
51.92958409278228
  0
LINE
  5
144
100
AcDbEntity
  8
1
  6
CONTINUOUS
 62
             7
100
AcDbLine
 10
-325.4859066275074
 20
52.57278296196947
 11
-326.25244119061392
 21
51.92958409278228
  0
LINE
  5
143
100
AcDbEntity
  8
1
  6
CONTINUOUS
 62
             7
100
AcDbLine
 10
-325.95311825101152
 20
53.12958409278227
 11
-325.4859066275074
 21
52.57278296196947
  0
LINE
  5
142
100
AcDbEntity
  8
1
  6
CONTINUOUS
 62
             7
100
AcDbLine
 10
-327.69337421243557
 20
53.1295840927823
 11
-325.95311825101152
 21
53.12958409278227
  0
LINE
  5
141
100
AcDbEntity
  8
1
  6
CONTINUOUS
 62
             7
100
AcDbLine
 10
-324.30231631347721
 20
53.56593315793725
 11
-325.02627996163602
 21
52.95845552778138
  0
LINE
  5
140
100
AcDbEntity
  8
1
  6
CONTINUOUS
 62
             7
100
AcDbLine
 10
-323.95754890747708
 20
55.52120627958196
 11
-324.30231631347721
 21
53.56593315793725
  0
LINE
  5
13F
100
AcDbEntity
  8
1
  6
CONTINUOUS
 62
             7
100
AcDbLine
 10
-325.23387022371242
 20
55.19335298259901
 11
-324.03505832912492
 21
56.19927560119837
  0
LINE
  5
13E
100
AcDbEntity
  8
1
  6
CONTINUOUS
 62
             7
100
AcDbLine
 10
-325.52346526363652
 20
53.55097789762553
 11
-325.23387022371242
 21
55.19335298259901
  0
LINE
  5
13D
100
AcDbEntity
  8
1
  6
CONTINUOUS
 62
             7
100
AcDbLine
 10
-325.02627996163602
 20
52.95845552778138
 11
-325.52346526363652
 21
53.55097789762553
  0
LINE
  5
13C
100
AcDbEntity
  8
1
  6
CONTINUOUS
 62
             7
100
AcDbLine
 10
-327.75722329972308
 20
55.2796327660017
 11
-328.05116504070548
 21
53.61260631434178
  0
LINE
  5
13B
100
AcDbEntity
  8
1
  6
CONTINUOUS
 62
             7
100
AcDbLine
 10
-328.68380735940548
 20
56.38389264796872
 11
-327.75722329972308
 21
55.2796327660017
  0
LINE
  5
13A
100
AcDbEntity
  8
1
  6
CONTINUOUS
 62
             7
100
AcDbLine
 10
-329.29312016542087
 20
53.47965337453459
 11
-328.85965404442078
 21
55.93796190598259
  0
LINE
  5
139
100
AcDbEntity
  8
1
  6
CONTINUOUS
 62
             7
100
AcDbLine
 10
-328.84544076809249
 20
52.94612984443819
 11
-329.29312016542087
 21
53.47965337453459
  0
LINE
  5
138
100
AcDbEntity
  8
1
  6
CONTINUOUS
 62
             7
100
AcDbLine
 10
-328.05116504070548
 20
53.61260631434178
 11
-328.84544076809249
 21
52.94612984443819
  0
LINE
  5
137
100
AcDbEntity
  8
1
  6
CONTINUOUS
 62
             7
100
AcDbLine
 10
-325.52824916780691
 20
55.72958409278229
 11
-327.35153291847308
 21
55.72958409278229
  0
LINE
  5
136
100
AcDbEntity
  8
1
  6
CONTINUOUS
 62
             7
100
AcDbLine
 10
-324.40093214605821
 20
56.67551538995147
 11
-325.52824916780691
 21
55.72958409278229
  0
LINE
  5
135
100
AcDbEntity
  8
1
  6
CONTINUOUS
 62
             7
100
AcDbLine
 10
-327.67788474080618
 20
56.92958409278228
 11
-325.13931821109168
 21
56.92958409278228
  0
LINE
  5
134
100
AcDbEntity
  8
1
  6
CONTINUOUS
 62
             7
100
AcDbLine
 10
-327.35153291847308
 20
55.72958409278229
 11
-328.24079381641587
 21
56.78936396265914
  0
LINE
  5
133
100
AcDbEntity
  8
1
  6
CONTINUOUS
 62
             7
100
AcDbLine
 10
-325.28073896166927
 20
67.029702047754
 11
-327.41591192003688
 21
67.029702047754
  0
LINE
  5
132
100
AcDbEntity
  8
1
  6
CONTINUOUS
 62
             7
100
AcDbLine
 10
-324.31017433073021
 20
68.00026667869329
 11
-325.28073896166927
 21
67.029702047754
  0
LINE
  5
131
100
AcDbEntity
  8
1
  6
CONTINUOUS
 62
             7
100
AcDbLine
 10
-327.55443505566632
 20
68.22970204775399
 11
-325.01586852595182
 21
68.22970204775399
  0
LINE
  5
130
100
AcDbEntity
  8
1
  6
CONTINUOUS
 62
             7
100
AcDbLine
 10
-327.41591192003688
 20
67.029702047754
 11
-328.14669226467453
 21
68.07336454031454
  0
LINE
  5
12F
100
AcDbEntity
  8
1
  6
CONTINUOUS
 62
             7
100
AcDbLine
 10
-325.06742710885379
 20
63.67571814579873
 11
-325.49867028231688
 21
64.29159722440122
  0
LINE
  5
12E
100
AcDbEntity
  8
1
  6
CONTINUOUS
 62
             7
100
AcDbLine
 10
-324.24346827264952
 20
64.499676982003
 11
-325.06742710885379
 21
63.67571814579873
  0
LINE
  5
12D
100
AcDbEntity
  8
1
  6
CONTINUOUS
 62
             7
100
AcDbLine
 10
-323.83409922233722
 20
66.82132423455369
 11
-324.24346827264952
 21
64.499676982003
  0
LINE
  5
12C
100
AcDbEntity
  8
1
  6
CONTINUOUS
 62
             7
100
AcDbLine
 10
-325.14081446675448
 20
66.32109840524504
 11
-323.9272737610375
 21
67.53463911096199
  0
LINE
  5
12B
100
AcDbEntity
  8
1
  6
CONTINUOUS
 62
             7
100
AcDbLine
 10
-325.49867028231688
 20
64.29159722440122
 11
-325.14081446675448
 21
66.32109840524504
  0
LINE
  5
12A
100
AcDbEntity
  8
1
  6
CONTINUOUS
 62
             7
100
AcDbLine
 10
-327.67391458544279
 20
66.35209996271502
 11
-328.58215811022689
 21
67.64920614227182
  0
LINE
  5
129
100
AcDbEntity
  8
1
  6
CONTINUOUS
 62
             7
100
AcDbLine
 10
-328.04117428095742
 20
64.26926672846614
 11
-327.67391458544279
 21
66.35209996271502
  0
LINE
  5
128
100
AcDbEntity
  8
1
  6
CONTINUOUS
 62
             7
100
AcDbLine
 10
-328.79687276290622
 20
63.51356824651728
 11
-328.04117428095742
 21
64.26926672846614
  0
LINE
  5
127
100
AcDbEntity
  8
1
  6
CONTINUOUS
 62
             7
100
AcDbLine
 10
-329.27302987447871
 20
64.19359107630581
 11
-328.79687276290622
 21
63.51356824651728
  0
LINE
  5
126
100
AcDbEntity
  8
1
  6
CONTINUOUS
 62
             7
100
AcDbLine
 10
-328.73620435928098
 20
67.23807986095432
 11
-329.27302987447871
 21
64.19359107630581
  0
LINE
  5
125
100
AcDbEntity
  8
1
  6
CONTINUOUS
 62
             7
100
AcDbLine
 10
-330.11155480880689
 20
59.43807986095432
 11
-329.70218575849452
 21
61.75972711350499
  0
LINE
  5
124
100
AcDbEntity
  8
1
  6
CONTINUOUS
 62
             7
100
AcDbLine
 10
-329.70218575849452
 20
61.75972711350499
 11
-328.87822692229031
 21
62.58368594970926
  0
LINE
  5
123
100
AcDbEntity
  8
1
  6
CONTINUOUS
 62
             7
100
AcDbLine
 10
-328.87822692229031
 20
62.58368594970926
 11
-328.44698374882711
 21
61.9678068711068
  0
LINE
  5
122
100
AcDbEntity
  8
1
  6
CONTINUOUS
 62
             7
100
AcDbLine
 10
-328.44698374882711
 20
61.9678068711068
 11
-328.80483956438962
 21
59.93830569026295
  0
LINE
  5
121
100
AcDbEntity
  8
1
  6
CONTINUOUS
 62
             7
100
AcDbLine
 10
-328.80483956438962
 20
59.93830569026295
 11
-330.01838027010672
 21
58.72476498454601
  0
LINE
  5
120
100
AcDbEntity
  8
1
  6
CONTINUOUS
 62
             7
100
AcDbLine
 10
-328.92978550519223
 20
58.029702047754
 11
-326.39121897547778
 21
58.029702047754
  0
LINE
  5
11F
100
AcDbEntity
  8
1
  6
CONTINUOUS
 62
             7
100
AcDbLine
 10
-325.79896176646952
 20
58.18603955519347
 11
-326.52974211110723
 21
59.229702047754
  0
LINE
  5
11E
100
AcDbEntity
  8
1
  6
CONTINUOUS
 62
             7
100
AcDbLine
 10
-326.52974211110723
 20
59.229702047754
 11
-328.66491506947472
 21
59.229702047754
  0
LINE
  5
11D
100
AcDbEntity
  8
1
  6
CONTINUOUS
 62
             7
100
AcDbLine
 10
-328.66491506947472
 20
59.229702047754
 11
-329.63547970041401
 21
58.25913741681472
  0
LINE
  5
11C
100
AcDbEntity
  8
1
  6
CONTINUOUS
 62
             7
100
AcDbLine
 10
-325.20944967186318
 20
59.02132423455369
 11
-324.67262415666528
 21
62.06581301920221
  0
LINE
  5
11B
100
AcDbEntity
  8
1
  6
CONTINUOUS
 62
             7
100
AcDbLine
 10
-324.67262415666528
 20
62.06581301920221
 11
-325.14878126823788
 21
62.74583584899071
  0
LINE
  5
11A
100
AcDbEntity
  8
1
  6
CONTINUOUS
 62
             7
100
AcDbLine
 10
-325.14878126823788
 20
62.74583584899071
 11
-325.90447975018691
 21
61.99013736704185
  0
LINE
  5
119
100
AcDbEntity
  8
1
  6
CONTINUOUS
 62
             7
100
AcDbLine
 10
-325.90447975018691
 20
61.99013736704185
 11
-326.27173944570131
 21
59.90730413279297
  0
LINE
  5
118
100
AcDbEntity
  8
1
  6
CONTINUOUS
 62
             7
100
AcDbLine
 10
-326.27173944570131
 20
59.90730413279297
 11
-325.36349592091722
 21
58.6101979532362
  0
LINE
  5
117
100
AcDbEntity
  8
1
  6
CONTINUOUS
 62
             7
100
AcDbLine
 10
-328.10796223394237
 20
62.529702047754
 11
-328.44741789645332
 21
63.01449497554629
  0
LINE
  5
116
100
AcDbEntity
  8
1
  6
CONTINUOUS
 62
             7
100
AcDbLine
 10
-328.44741789645332
 20
63.01449497554629
 11
-327.73221082424561
 21
63.72970204775399
  0
LINE
  5
115
100
AcDbEntity
  8
1
  6
CONTINUOUS
 62
             7
100
AcDbLine
 10
-327.73221082424561
 20
63.72970204775399
 11
-325.83769179720178
 21
63.72970204775399
  0
LINE
  5
114
100
AcDbEntity
  8
1
  6
CONTINUOUS
 62
             7
100
AcDbLine
 10
-325.83769179720178
 20
63.72970204775399
 11
-325.49823613469079
 21
63.2449091199617
  0
LINE
  5
113
100
AcDbEntity
  8
1
  6
CONTINUOUS
 62
             7
100
AcDbLine
 10
-325.49823613469079
 20
63.2449091199617
 11
-326.2134432068986
 21
62.529702047754
  0
LINE
  5
112
100
AcDbEntity
  8
1
  6
CONTINUOUS
 62
             7
100
AcDbLine
 10
-326.2134432068986
 20
62.529702047754
 11
-328.10796223394237
 21
62.529702047754
  0
LINE
  5
111
100
AcDbEntity
  8
1
  6
CONTINUOUS
 62
             7
100
AcDbLine
 10
-318.76779008898188
 20
48.129702047754
 11
-321.30635661869638
 21
48.129702047754
  0
LINE
  5
110
100
AcDbEntity
  8
1
  6
CONTINUOUS
 62
             7
100
AcDbLine
 10
-319.09414191131498
 20
49.329702047754
 11
-318.20488101337219
 21
48.26992217787714
  0
LINE
  5
10F
100
AcDbEntity
  8
1
  6
CONTINUOUS
 62
             7
100
AcDbLine
 10
-320.91742566198121
 20
49.329702047754
 11
-319.09414191131498
 21
49.329702047754
  0
LINE
  5
10E
100
AcDbEntity
  8
1
  6
CONTINUOUS
 62
             7
100
AcDbLine
 10
-322.04474268372991
 20
48.3837707505848
 11
-320.91742566198121
 21
49.329702047754
  0
LINE
  5
10D
100
AcDbEntity
  8
1
  6
CONTINUOUS
 62
             7
100
AcDbLine
 10
-318.39450978908258
 20
51.44667982619448
 11
-317.60023406169552
 21
52.11315629609808
  0
LINE
  5
10C
100
AcDbEntity
  8
1
  6
CONTINUOUS
 62
             7
100
AcDbLine
 10
-318.68845153006492
 20
49.77965337453459
 11
-318.39450978908258
 21
51.44667982619448
  0
LINE
  5
10B
100
AcDbEntity
  8
1
  6
CONTINUOUS
 62
             7
100
AcDbLine
 10
-317.76186747038258
 20
48.67539349256757
 11
-318.68845153006492
 21
49.77965337453459
  0
LINE
  5
10A
100
AcDbEntity
  8
1
  6
CONTINUOUS
 62
             7
100
AcDbLine
 10
-317.15255466436719
 20
51.57963276600168
 11
-317.58602078536728
 21
49.12132423455368
  0
LINE
  5
109
100
AcDbEntity
  8
1
  6
CONTINUOUS
 62
             7
100
AcDbLine
 10
-317.60023406169552
 20
52.11315629609808
 11
-317.15255466436719
 21
51.57963276600168
  0
LINE
  5
108
100
AcDbEntity
  8
1
  6
CONTINUOUS
 62
             7
100
AcDbLine
 10
-322.14335851631091
 20
51.49335298259902
 11
-321.41939486815198
 21
52.10083061275489
  0
LINE
  5
107
100
AcDbEntity
  8
1
  6
CONTINUOUS
 62
             7
100
AcDbLine
 10
-322.48812592231099
 20
49.53807986095433
 11
-322.14335851631091
 21
51.49335298259902
  0
LINE
  5
106
100
AcDbEntity
  8
1
  6
CONTINUOUS
 62
             7
100
AcDbLine
 10
-321.21180460607582
 20
49.86593315793726
 11
-322.41061650066342
 21
48.86001053933791
  0
LINE
  5
105
100
AcDbEntity
  8
1
  6
CONTINUOUS
 62
             7
100
AcDbLine
 10
-320.92220956615148
 20
51.50830824291074
 11
-321.21180460607582
 21
49.86593315793726
  0
LINE
  5
104
100
AcDbEntity
  8
1
  6
CONTINUOUS
 62
             7
100
AcDbLine
 10
-321.41939486815198
 20
52.10083061275489
 11
-320.92220956615148
 21
51.50830824291074
  0
LINE
  5
103
100
AcDbEntity
  8
1
  6
CONTINUOUS
 62
             7
100
AcDbLine
 10
-320.95976820228071
 20
52.48650317856681
 11
-320.19337421243557
 21
53.1295840927823
  0
LINE
  5
102
100
AcDbEntity
  8
1
  6
CONTINUOUS
 62
             7
100
AcDbLine
 10
-320.49245760280331
 20
51.92958409278228
 11
-320.95976820228071
 21
52.48650317856681
  0
LINE
  5
101
100
AcDbEntity
  8
1
  6
CONTINUOUS
 62
             7
100
AcDbLine
 10
-318.75244119061392
 20
51.92958409278228
 11
-320.49245760280331
 21
51.92958409278228
  0
LINE
  5
100
100
AcDbEntity
  8
1
  6
CONTINUOUS
 62
             7
100
AcDbLine
 10
-317.9859066275074
 20
52.57278296196947
 11
-318.75244119061392
 21
51.92958409278228
  0
LINE
  5
FF
100
AcDbEntity
  8
1
  6
CONTINUOUS
 62
             7
100
AcDbLine
 10
-318.45311825101152
 20
53.12958409278227
 11
-317.9859066275074
 21
52.57278296196947
  0
LINE
  5
FE
100
AcDbEntity
  8
1
  6
CONTINUOUS
 62
             7
100
AcDbLine
 10
-320.19337421243557
 20
53.1295840927823
 11
-318.45311825101152
 21
53.12958409278227
  0
LINE
  5
FD
100
AcDbEntity
  8
1
  6
CONTINUOUS
 62
             7
100
AcDbLine
 10
-316.80231631347721
 20
53.56593315793725
 11
-317.52627996163602
 21
52.95845552778138
  0
LINE
  5
FC
100
AcDbEntity
  8
1
  6
CONTINUOUS
 62
             7
100
AcDbLine
 10
-316.45754890747708
 20
55.52120627958196
 11
-316.80231631347721
 21
53.56593315793725
  0
LINE
  5
FB
100
AcDbEntity
  8
1
  6
CONTINUOUS
 62
             7
100
AcDbLine
 10
-317.73387022371242
 20
55.19335298259901
 11
-316.53505832912492
 21
56.19927560119837
  0
LINE
  5
FA
100
AcDbEntity
  8
1
  6
CONTINUOUS
 62
             7
100
AcDbLine
 10
-318.02346526363652
 20
53.55097789762553
 11
-317.73387022371242
 21
55.19335298259901
  0
LINE
  5
F9
100
AcDbEntity
  8
1
  6
CONTINUOUS
 62
             7
100
AcDbLine
 10
-317.52627996163602
 20
52.95845552778138
 11
-318.02346526363652
 21
53.55097789762553
  0
LINE
  5
F8
100
AcDbEntity
  8
1
  6
CONTINUOUS
 62
             7
100
AcDbLine
 10
-320.25722329972308
 20
55.2796327660017
 11
-320.55116504070548
 21
53.61260631434178
  0
LINE
  5
F7
100
AcDbEntity
  8
1
  6
CONTINUOUS
 62
             7
100
AcDbLine
 10
-321.18380735940548
 20
56.38389264796872
 11
-320.25722329972308
 21
55.2796327660017
  0
LINE
  5
F6
100
AcDbEntity
  8
1
  6
CONTINUOUS
 62
             7
100
AcDbLine
 10
-321.79312016542087
 20
53.47965337453459
 11
-321.35965404442078
 21
55.93796190598259
  0
LINE
  5
F5
100
AcDbEntity
  8
1
  6
CONTINUOUS
 62
             7
100
AcDbLine
 10
-321.34544076809249
 20
52.94612984443819
 11
-321.79312016542087
 21
53.47965337453459
  0
LINE
  5
F4
100
AcDbEntity
  8
1
  6
CONTINUOUS
 62
             7
100
AcDbLine
 10
-320.55116504070548
 20
53.61260631434178
 11
-321.34544076809249
 21
52.94612984443819
  0
LINE
  5
F3
100
AcDbEntity
  8
1
  6
CONTINUOUS
 62
             7
100
AcDbLine
 10
-318.02824916780691
 20
55.72958409278229
 11
-319.85153291847308
 21
55.72958409278229
  0
LINE
  5
F2
100
AcDbEntity
  8
1
  6
CONTINUOUS
 62
             7
100
AcDbLine
 10
-316.90093214605821
 20
56.67551538995147
 11
-318.02824916780691
 21
55.72958409278229
  0
LINE
  5
F1
100
AcDbEntity
  8
1
  6
CONTINUOUS
 62
             7
100
AcDbLine
 10
-320.17788474080618
 20
56.92958409278228
 11
-317.63931821109168
 21
56.92958409278228
  0
LINE
  5
F0
100
AcDbEntity
  8
1
  6
CONTINUOUS
 62
             7
100
AcDbLine
 10
-319.85153291847308
 20
55.72958409278229
 11
-320.74079381641587
 21
56.78936396265914
  0
LINE
  5
EF
100
AcDbEntity
  8
1
  6
CONTINUOUS
 62
             7
100
AcDbLine
 10
-317.78073896166927
 20
67.029702047754
 11
-319.91591192003688
 21
67.029702047754
  0
LINE
  5
EE
100
AcDbEntity
  8
1
  6
CONTINUOUS
 62
             7
100
AcDbLine
 10
-316.81017433072998
 20
68.00026667869329
 11
-317.78073896166927
 21
67.029702047754
  0
LINE
  5
ED
100
AcDbEntity
  8
1
  6
CONTINUOUS
 62
             7
100
AcDbLine
 10
-320.05443505566632
 20
68.22970204775399
 11
-317.51586852595182
 21
68.22970204775399
  0
LINE
  5
EC
100
AcDbEntity
  8
1
  6
CONTINUOUS
 62
             7
100
AcDbLine
 10
-319.91591192003688
 20
67.029702047754
 11
-320.64669226467453
 21
68.07336454031454
  0
LINE
  5
EB
100
AcDbEntity
  8
1
  6
CONTINUOUS
 62
             7
100
AcDbLine
 10
-317.56742710885379
 20
63.67571814579873
 11
-317.99867028231688
 21
64.29159722440122
  0
LINE
  5
EA
100
AcDbEntity
  8
1
  6
CONTINUOUS
 62
             7
100
AcDbLine
 10
-316.74346827264952
 20
64.499676982003
 11
-317.56742710885379
 21
63.67571814579873
  0
LINE
  5
E9
100
AcDbEntity
  8
1
  6
CONTINUOUS
 62
             7
100
AcDbLine
 10
-316.33409922233722
 20
66.82132423455369
 11
-316.74346827264952
 21
64.499676982003
  0
LINE
  5
E8
100
AcDbEntity
  8
1
  6
CONTINUOUS
 62
             7
100
AcDbLine
 10
-317.64081446675448
 20
66.32109840524504
 11
-316.4272737610375
 21
67.53463911096199
  0
LINE
  5
E7
100
AcDbEntity
  8
1
  6
CONTINUOUS
 62
             7
100
AcDbLine
 10
-317.99867028231688
 20
64.29159722440122
 11
-317.64081446675448
 21
66.32109840524504
  0
LINE
  5
E6
100
AcDbEntity
  8
1
  6
CONTINUOUS
 62
             7
100
AcDbLine
 10
-320.17391458544279
 20
66.35209996271502
 11
-321.08215811022689
 21
67.64920614227182
  0
LINE
  5
E5
100
AcDbEntity
  8
1
  6
CONTINUOUS
 62
             7
100
AcDbLine
 10
-320.54117428095742
 20
64.26926672846614
 11
-320.17391458544279
 21
66.35209996271502
  0
LINE
  5
E4
100
AcDbEntity
  8
1
  6
CONTINUOUS
 62
             7
100
AcDbLine
 10
-321.29687276290622
 20
63.51356824651728
 11
-320.54117428095742
 21
64.26926672846614
  0
LINE
  5
E3
100
AcDbEntity
  8
1
  6
CONTINUOUS
 62
             7
100
AcDbLine
 10
-321.77302987447871
 20
64.19359107630581
 11
-321.29687276290622
 21
63.51356824651728
  0
LINE
  5
E2
100
AcDbEntity
  8
1
  6
CONTINUOUS
 62
             7
100
AcDbLine
 10
-321.23620435928098
 20
67.23807986095432
 11
-321.77302987447871
 21
64.19359107630581
  0
LINE
  5
E1
100
AcDbEntity
  8
1
  6
CONTINUOUS
 62
             7
100
AcDbLine
 10
-322.61155480880689
 20
59.43807986095432
 11
-322.20218575849452
 21
61.75972711350499
  0
LINE
  5
E0
100
AcDbEntity
  8
1
  6
CONTINUOUS
 62
             7
100
AcDbLine
 10
-322.20218575849452
 20
61.75972711350499
 11
-321.37822692229031
 21
62.58368594970926
  0
LINE
  5
DF
100
AcDbEntity
  8
1
  6
CONTINUOUS
 62
             7
100
AcDbLine
 10
-321.37822692229031
 20
62.58368594970926
 11
-320.94698374882711
 21
61.9678068711068
  0
LINE
  5
DE
100
AcDbEntity
  8
1
  6
CONTINUOUS
 62
             7
100
AcDbLine
 10
-320.94698374882711
 20
61.9678068711068
 11
-321.30483956438962
 21
59.93830569026295
  0
LINE
  5
DD
100
AcDbEntity
  8
1
  6
CONTINUOUS
 62
             7
100
AcDbLine
 10
-321.30483956438962
 20
59.93830569026295
 11
-322.51838027010672
 21
58.72476498454601
  0
LINE
  5
DC
100
AcDbEntity
  8
1
  6
CONTINUOUS
 62
             7
100
AcDbLine
 10
-321.42978550519223
 20
58.029702047754
 11
-318.89121897547778
 21
58.029702047754
  0
LINE
  5
DB
100
AcDbEntity
  8
1
  6
CONTINUOUS
 62
             7
100
AcDbLine
 10
-318.29896176646952
 20
58.18603955519347
 11
-319.02974211110723
 21
59.229702047754
  0
LINE
  5
DA
100
AcDbEntity
  8
1
  6
CONTINUOUS
 62
             7
100
AcDbLine
 10
-319.02974211110723
 20
59.229702047754
 11
-321.16491506947472
 21
59.229702047754
  0
LINE
  5
D9
100
AcDbEntity
  8
1
  6
CONTINUOUS
 62
             7
100
AcDbLine
 10
-321.16491506947472
 20
59.229702047754
 11
-322.13547970041401
 21
58.25913741681472
  0
LINE
  5
D8
100
AcDbEntity
  8
1
  6
CONTINUOUS
 62
             7
100
AcDbLine
 10
-317.70944967186318
 20
59.02132423455369
 11
-317.17262415666528
 21
62.06581301920221
  0
LINE
  5
D7
100
AcDbEntity
  8
1
  6
CONTINUOUS
 62
             7
100
AcDbLine
 10
-317.17262415666528
 20
62.06581301920221
 11
-317.64878126823788
 21
62.74583584899071
  0
LINE
  5
D6
100
AcDbEntity
  8
1
  6
CONTINUOUS
 62
             7
100
AcDbLine
 10
-317.64878126823788
 20
62.74583584899071
 11
-318.40447975018691
 21
61.99013736704185
  0
LINE
  5
D5
100
AcDbEntity
  8
1
  6
CONTINUOUS
 62
             7
100
AcDbLine
 10
-318.40447975018691
 20
61.99013736704185
 11
-318.77173944570131
 21
59.90730413279297
  0
LINE
  5
D4
100
AcDbEntity
  8
1
  6
CONTINUOUS
 62
             7
100
AcDbLine
 10
-318.77173944570131
 20
59.90730413279297
 11
-317.86349592091722
 21
58.6101979532362
  0
LINE
  5
D3
100
AcDbEntity
  8
1
  6
CONTINUOUS
 62
             7
100
AcDbLine
 10
-320.60796223394237
 20
62.529702047754
 11
-320.94741789645332
 21
63.01449497554629
  0
LINE
  5
D2
100
AcDbEntity
  8
1
  6
CONTINUOUS
 62
             7
100
AcDbLine
 10
-320.94741789645332
 20
63.01449497554629
 11
-320.23221082424561
 21
63.72970204775399
  0
LINE
  5
D1
100
AcDbEntity
  8
1
  6
CONTINUOUS
 62
             7
100
AcDbLine
 10
-320.23221082424561
 20
63.72970204775399
 11
-318.33769179720178
 21
63.72970204775399
  0
LINE
  5
D0
100
AcDbEntity
  8
1
  6
CONTINUOUS
 62
             7
100
AcDbLine
 10
-318.33769179720178
 20
63.72970204775399
 11
-317.99823613469079
 21
63.2449091199617
  0
LINE
  5
CF
100
AcDbEntity
  8
1
  6
CONTINUOUS
 62
             7
100
AcDbLine
 10
-317.99823613469079
 20
63.2449091199617
 11
-318.7134432068986
 21
62.529702047754
  0
LINE
  5
CE
100
AcDbEntity
  8
1
  6
CONTINUOUS
 62
             7
100
AcDbLine
 10
-318.7134432068986
 20
62.529702047754
 11
-320.60796223394237
 21
62.529702047754
  0
LINE
  5
CD
100
AcDbEntity
  8
1
  6
CONTINUOUS
 62
             7
100
AcDbLine
 10
-344.97282701557202
 20
42.12970204775401
 11
-309.97282701557202
 21
42.12970204775401
  0
LINE
  5
CC
100
AcDbEntity
  8
1
  6
CONTINUOUS
 62
             7
100
AcDbLine
 10
-309.97282701557202
 20
35.12970204775401
 11
-344.97282701557202
 21
35.12970204775401
  0
LINE
  5
CB
100
AcDbEntity
  8
1
  6
CONTINUOUS
 62
             7
100
AcDbLine
 10
-328.17282701557212
 20
38.92970204775401
 11
-326.77282701557198
 21
38.92970204775401
  0
LINE
  5
CA
100
AcDbEntity
  8
1
  6
CONTINUOUS
 62
             7
100
AcDbLine
 10
-326.77282701557198
 20
38.32970204775401
 11
-328.17282701557212
 21
38.32970204775401
  0
LINE
  5
C9
100
AcDbEntity
  8
1
  6
CONTINUOUS
 62
             7
100
AcDbLine
 10
-326.77282701557198
 20
39.529702047754
 11
-328.17282701557212
 21
39.529702047754
  0
LINE
  5
C8
100
AcDbEntity
  8
1
  6
CONTINUOUS
 62
             7
100
AcDbLine
 10
-328.17282701557212
 20
40.12970204775401
 11
-326.77282701557198
 21
40.12970204775401
  0
LINE
  5
C7
100
AcDbEntity
  8
1
  6
CONTINUOUS
 62
             7
100
AcDbLine
 10
-326.77282701557198
 20
37.12970204775401
 11
-328.17282701557212
 21
37.12970204775401
  0
LINE
  5
C6
100
AcDbEntity
  8
1
  6
CONTINUOUS
 62
             7
100
AcDbLine
 10
-328.17282701557212
 20
37.72970204775402
 11
-326.77282701557198
 21
37.72970204775402
  0
LINE
  5
C5
100
AcDbEntity
  8
1
  6
CONTINUOUS
 62
             7
100
AcDbLine
 10
-337.67282701557212
 20
37.72970204775402
 11
-336.27282701557198
 21
37.72970204775402
  0
LINE
  5
C4
100
AcDbEntity
  8
1
  6
CONTINUOUS
 62
             7
100
AcDbLine
 10
-336.27282701557198
 20
37.12970204775401
 11
-337.67282701557212
 21
37.12970204775401
  0
LINE
  5
C3
100
AcDbEntity
  8
1
  6
CONTINUOUS
 62
             7
100
AcDbLine
 10
-337.67282701557212
 20
40.12970204775401
 11
-336.27282701557198
 21
40.12970204775401
  0
LINE
  5
C2
100
AcDbEntity
  8
1
  6
CONTINUOUS
 62
             7
100
AcDbLine
 10
-336.27282701557198
 20
39.529702047754
 11
-337.67282701557212
 21
39.529702047754
  0
LINE
  5
C1
100
AcDbEntity
  8
1
  6
CONTINUOUS
 62
             7
100
AcDbLine
 10
-336.27282701557198
 20
38.32970204775401
 11
-337.67282701557212
 21
38.32970204775401
  0
LINE
  5
C0
100
AcDbEntity
  8
1
  6
CONTINUOUS
 62
             7
100
AcDbLine
 10
-337.67282701557212
 20
38.92970204775401
 11
-336.27282701557198
 21
38.92970204775401
  0
LINE
  5
BF
100
AcDbEntity
  8
1
  6
CONTINUOUS
 62
             7
100
AcDbLine
 10
-318.67282701557212
 20
37.72970204775402
 11
-317.27282701557198
 21
37.72970204775402
  0
LINE
  5
BE
100
AcDbEntity
  8
1
  6
CONTINUOUS
 62
             7
100
AcDbLine
 10
-317.27282701557198
 20
37.12970204775401
 11
-318.67282701557212
 21
37.12970204775401
  0
LINE
  5
BD
100
AcDbEntity
  8
1
  6
CONTINUOUS
 62
             7
100
AcDbLine
 10
-318.67282701557212
 20
40.12970204775401
 11
-317.27282701557198
 21
40.12970204775401
  0
LINE
  5
BC
100
AcDbEntity
  8
1
  6
CONTINUOUS
 62
             7
100
AcDbLine
 10
-317.27282701557198
 20
39.529702047754
 11
-318.67282701557212
 21
39.529702047754
  0
LINE
  5
BB
100
AcDbEntity
  8
1
  6
CONTINUOUS
 62
             7
100
AcDbLine
 10
-317.27282701557198
 20
38.32970204775401
 11
-318.67282701557212
 21
38.32970204775401
  0
LINE
  5
BA
100
AcDbEntity
  8
1
  6
CONTINUOUS
 62
             7
100
AcDbLine
 10
-318.67282701557212
 20
38.92970204775401
 11
-317.27282701557198
 21
38.92970204775401
  0
LINE
  5
B9
100
AcDbEntity
  8
1
  6
CONTINUOUS
 62
             7
100
AcDbLine
 10
-328.97282701557202
 20
45.129702047754
 11
-324.97282701557202
 21
45.129702047754
  0
LINE
  5
B8
100
AcDbEntity
  8
1
  6
CONTINUOUS
 62
             7
100
AcDbLine
 10
-324.47282701557202
 20
45.629702047754
 11
-324.47282701557202
 21
46.629702047754
  0
LINE
  5
B7
100
AcDbEntity
  8
1
  6
CONTINUOUS
 62
             7
100
AcDbLine
 10
-324.97282701557202
 20
47.129702047754
 11
-328.97282701557202
 21
47.129702047754
  0
LINE
  5
B6
100
AcDbEntity
  8
1
  6
CONTINUOUS
 62
             7
100
AcDbLine
 10
-329.47282701557202
 20
46.629702047754
 11
-329.47282701557202
 21
45.629702047754
  0
LINE
  5
B5
100
AcDbEntity
  8
1
  6
CONTINUOUS
 62
             7
100
AcDbLine
 10
-272.20197259761011
 20
28.87970204775398
 11
-272.20197259761011
 21
25.87970204775398
  0
LINE
  5
B4
100
AcDbEntity
  8
1
  6
CONTINUOUS
 62
             7
100
AcDbLine
 10
-272.20197259761011
 20
25.87970204775398
 11
-180.8019725976101
 21
25.87970204775398
  0
LINE
  5
B3
100
AcDbEntity
  8
1
  6
CONTINUOUS
 62
             7
100
AcDbLine
 10
-180.8019725976101
 20
24.27970204775399
 11
-186.9019725976101
 21
24.27970204775399
  0
LINE
  5
B2
100
AcDbEntity
  8
1
  6
CONTINUOUS
 62
             7
100
AcDbLine
 10
-188.10197259761009
 20
24.27970204775399
 11
-204.20197259761011
 21
24.27970204775399
  0
LINE
  5
B1
100
AcDbEntity
  8
1
  6
CONTINUOUS
 62
             7
100
AcDbLine
 10
-204.20197259761011
 20
25.87970204775398
 11
-204.20197259761011
 21
23.87970204775398
  0
LINE
  5
B0
100
AcDbEntity
  8
1
  6
CONTINUOUS
 62
             7
100
AcDbLine
 10
-180.8019725976101
 20
23.87970204775398
 11
-186.9019725976101
 21
23.87970204775398
  0
LINE
  5
AF
100
AcDbEntity
  8
1
  6
CONTINUOUS
 62
             7
100
AcDbLine
 10
-188.10197259761009
 20
23.87970204775398
 11
-204.20197259761011
 21
23.87970204775398
  0
LINE
  5
AE
100
AcDbEntity
  8
1
  6
CONTINUOUS
 62
             7
100
AcDbLine
 10
-179.20197259761011
 20
22.62970204775398
 11
-179.20197259761011
 21
28.12970204775398
  0
LINE
  5
AD
100
AcDbEntity
  8
1
  6
CONTINUOUS
 62
             7
100
AcDbLine
 10
-179.20197259761011
 20
25.87970204775398
 11
-180.20197259761011
 21
24.87970204775398
  0
LINE
  5
AC
100
AcDbEntity
  8
1
  6
CONTINUOUS
 62
             7
100
AcDbLine
 10
-180.20197259761011
 20
22.62970204775398
 11
-178.4628524559856
 21
22.62970204775398
  0
LINE
  5
AB
100
AcDbEntity
  8
1
  6
CONTINUOUS
 62
             7
100
AcDbLine
 10
-178.4628524559856
 20
28.12970204775398
 11
-180.20197259761011
 21
28.12970204775398
  0
LINE
  5
AA
100
AcDbEntity
  8
1
  6
CONTINUOUS
 62
             7
100
AcDbLine
 10
-186.9019725976101
 20
25.87970204775398
 11
-186.9019725976101
 21
22.47970204775399
  0
LINE
  5
A9
100
AcDbEntity
  8
1
  6
CONTINUOUS
 62
             7
100
AcDbLine
 10
-188.10197259761009
 20
21.27970204775399
 11
-211.70197259761011
 21
21.27970204775399
  0
LINE
  5
A8
100
AcDbEntity
  8
1
  6
CONTINUOUS
 62
             7
100
AcDbLine
 10
-212.90197259761001
 20
22.47970204775399
 11
-212.90197259761001
 21
25.87970204775398
  0
LINE
  5
A7
100
AcDbEntity
  8
1
  6
CONTINUOUS
 62
             7
100
AcDbLine
 10
-188.10197259761009
 20
25.87970204775398
 11
-188.10197259761009
 21
22.47970204775399
  0
LINE
  5
A6
100
AcDbEntity
  8
1
  6
CONTINUOUS
 62
             7
100
AcDbLine
 10
-188.10197259761009
 20
22.47970204775399
 11
-211.70197259761011
 21
22.47970204775399
  0
LINE
  5
A5
100
AcDbEntity
  8
1
  6
CONTINUOUS
 62
             7
100
AcDbLine
 10
-211.70197259761011
 20
22.47970204775399
 11
-211.70197259761011
 21
25.87970204775398
  0
LINE
  5
A4
100
AcDbEntity
  8
1
  6
CONTINUOUS
 62
             7
100
AcDbLine
 10
-180.20197259761011
 20
28.27970204775399
 11
-180.20197259761011
 21
21.87970204775398
  0
LINE
  5
A3
100
AcDbEntity
  8
1
  6
CONTINUOUS
 62
             7
100
AcDbLine
 10
-180.20197259761011
 20
21.87970204775398
 11
-180.8019725976101
 21
21.87970204775398
  0
LINE
  5
A2
100
AcDbEntity
  8
1
  6
CONTINUOUS
 62
             7
100
AcDbLine
 10
-180.8019725976101
 20
21.87970204775398
 11
-180.8019725976101
 21
28.27970204775399
  0
LINE
  5
A1
100
AcDbEntity
  8
1
  6
CONTINUOUS
 62
             7
100
AcDbLine
 10
-186.9019725976101
 20
77.97970204775399
 11
-180.8019725976101
 21
77.97970204775399
  0
LINE
  5
A0
100
AcDbEntity
  8
1
  6
CONTINUOUS
 62
             7
100
AcDbLine
 10
-204.20197259761011
 20
77.97970204775399
 11
-188.10197259761009
 21
77.97970204775399
  0
LINE
  5
9F
100
AcDbEntity
  8
1
  6
CONTINUOUS
 62
             7
100
AcDbLine
 10
-204.20197259761011
 20
78.379702047754
 11
-204.20197259761011
 21
76.379702047754
  0
LINE
  5
9E
100
AcDbEntity
  8
1
  6
CONTINUOUS
 62
             7
100
AcDbLine
 10
-186.9019725976101
 20
78.379702047754
 11
-180.8019725976101
 21
78.379702047754
  0
LINE
  5
9D
100
AcDbEntity
  8
1
  6
CONTINUOUS
 62
             7
100
AcDbLine
 10
-204.20197259761011
 20
78.379702047754
 11
-188.10197259761009
 21
78.379702047754
  0
LINE
  5
9C
100
AcDbEntity
  8
1
  6
CONTINUOUS
 62
             7
100
AcDbLine
 10
-179.20197259761011
 20
74.129702047754
 11
-179.20197259761011
 21
79.629702047754
  0
LINE
  5
9B
100
AcDbEntity
  8
1
  6
CONTINUOUS
 62
             7
100
AcDbLine
 10
-180.20197259761011
 20
76.379702047754
 11
-179.20197259761011
 21
77.379702047754
  0
LINE
  5
9A
100
AcDbEntity
  8
1
  6
CONTINUOUS
 62
             7
100
AcDbLine
 10
-178.4628524559856
 20
79.629702047754
 11
-180.20197259761011
 21
79.629702047754
  0
LINE
  5
99
100
AcDbEntity
  8
1
  6
CONTINUOUS
 62
             7
100
AcDbLine
 10
-180.20197259761011
 20
74.129702047754
 11
-178.4628524559856
 21
74.129702047754
  0
LINE
  5
98
100
AcDbEntity
  8
1
  6
CONTINUOUS
 62
             7
100
AcDbLine
 10
-186.9019725976101
 20
79.77970204775399
 11
-186.9019725976101
 21
76.379702047754
  0
LINE
  5
97
100
AcDbEntity
  8
1
  6
CONTINUOUS
 62
             7
100
AcDbLine
 10
-211.70197259761011
 20
80.97970204775399
 11
-188.10197259761009
 21
80.97970204775399
  0
LINE
  5
96
100
AcDbEntity
  8
1
  6
CONTINUOUS
 62
             7
100
AcDbLine
 10
-212.90197259761001
 20
76.379702047754
 11
-212.90197259761001
 21
79.77970204775399
  0
LINE
  5
95
100
AcDbEntity
  8
1
  6
CONTINUOUS
 62
             7
100
AcDbLine
 10
-188.10197259761009
 20
79.77970204775399
 11
-188.10197259761009
 21
76.379702047754
  0
LINE
  5
94
100
AcDbEntity
  8
1
  6
CONTINUOUS
 62
             7
100
AcDbLine
 10
-211.70197259761011
 20
79.77970204775399
 11
-188.10197259761009
 21
79.77970204775399
  0
LINE
  5
93
100
AcDbEntity
  8
1
  6
CONTINUOUS
 62
             7
100
AcDbLine
 10
-211.70197259761011
 20
76.379702047754
 11
-211.70197259761011
 21
79.77970204775399
  0
LINE
  5
92
100
AcDbEntity
  8
1
  6
CONTINUOUS
 62
             7
100
AcDbLine
 10
-180.20197259761011
 20
80.379702047754
 11
-180.20197259761011
 21
73.97970204775399
  0
LINE
  5
91
100
AcDbEntity
  8
1
  6
CONTINUOUS
 62
             7
100
AcDbLine
 10
-180.8019725976101
 20
80.379702047754
 11
-180.20197259761011
 21
80.379702047754
  0
LINE
  5
90
100
AcDbEntity
  8
1
  6
CONTINUOUS
 62
             7
100
AcDbLine
 10
-180.8019725976101
 20
73.97970204775399
 11
-180.8019725976101
 21
80.379702047754
  0
LINE
  5
8F
100
AcDbEntity
  8
1
  6
CONTINUOUS
 62
             7
100
AcDbLine
 10
-272.20197259761022
 20
76.379702047754
 11
-272.20197259761011
 21
73.379702047754
  0
LINE
  5
8E
100
AcDbEntity
  8
1
  6
CONTINUOUS
 62
             7
100
AcDbLine
 10
-180.8019725976101
 20
76.379702047754
 11
-272.20197259761022
 21
76.379702047754
  0
LINE
  5
8D
100
AcDbEntity
  8
0
  6
CONTINUOUS
 62
             7
100
AcDbLine
 10
-181.4498302627708
 20
64.12970204775384
 11
-181.4498302627708
 21
66.64110195412091
  0
LINE
  5
8C
100
AcDbEntity
  8
0
  6
CONTINUOUS
 62
             7
100
AcDbLine
 10
-182.4498302627708
 20
65.77970204775384
 11
-182.4498302627708
 21
66.64110195412091
  0
LINE
  5
8B
100
AcDbEntity
  8
0
  6
CONTINUOUS
 62
             7
100
AcDbLine
 10
-182.4498302627708
 20
68.41830214138678
 11
-182.4498302627708
 21
69.27970204775384
  0
LINE
  5
8A
100
AcDbEntity
  8
0
  6
CONTINUOUS
 62
             7
100
AcDbLine
 10
-181.4498302627708
 20
64.12970204775384
 11
-181.84983026277081
 21
64.12970204775384
  0
LINE
  5
89
100
AcDbEntity
  8
0
  6
CONTINUOUS
 62
             7
100
AcDbLine
 10
-181.4498302627708
 20
70.92970204775385
 11
-181.84983026277081
 21
70.92970204775385
  0
LINE
  5
88
100
AcDbEntity
  8
0
  6
CONTINUOUS
 62
             7
100
AcDbLine
 10
-182.4498302627708
 20
65.77970204775384
 11
-182.84983026277081
 21
64.12970204775384
  0
LINE
  5
87
100
AcDbEntity
  8
0
  6
CONTINUOUS
 62
             7
100
AcDbLine
 10
-181.4498302627708
 20
65.77970204775384
 11
-181.84983026277081
 21
64.12970204775384
  0
LINE
  5
86
100
AcDbEntity
  8
0
  6
CONTINUOUS
 62
             7
100
AcDbLine
 10
-181.4498302627708
 20
70.92970204775385
 11
-181.4498302627708
 21
68.41830214138678
  0
LINE
  5
85
100
AcDbEntity
  8
0
  6
CONTINUOUS
 62
             7
100
AcDbLine
 10
-182.84983026277081
 20
66.92970204775385
 11
-182.5796055744531
 21
66.82836778963473
  0
LINE
  5
84
100
AcDbEntity
  8
0
  6
CONTINUOUS
 62
             7
100
AcDbLine
 10
-182.84983026277081
 20
68.12970204775384
 11
-182.5796055744531
 21
68.23103630587296
  0
LINE
  5
83
100
AcDbEntity
  8
0
  6
CONTINUOUS
 62
             7
100
AcDbLine
 10
-181.84983026277081
 20
66.92970204775385
 11
-181.5796055744531
 21
66.82836778963473
  0
LINE
  5
82
100
AcDbEntity
  8
0
  6
CONTINUOUS
 62
             7
100
AcDbLine
 10
-181.84983026277081
 20
68.12970204775384
 11
-181.84983026277081
 21
66.92970204775385
  0
LINE
  5
81
100
AcDbEntity
  8
0
  6
CONTINUOUS
 62
             7
100
AcDbLine
 10
-181.84983026277081
 20
68.12970204775384
 11
-181.5796055744531
 21
68.23103630587296
  0
LINE
  5
80
100
AcDbEntity
  8
0
  6
CONTINUOUS
 62
             7
100
AcDbLine
 10
-182.84983026277081
 20
70.92970204775385
 11
-182.4498302627708
 21
69.27970204775384
  0
LINE
  5
7F
100
AcDbEntity
  8
0
  6
CONTINUOUS
 62
             7
100
AcDbLine
 10
-181.84983026277081
 20
70.92970204775385
 11
-181.4498302627708
 21
69.27970204775384
  0
LINE
  5
7E
100
AcDbEntity
  8
0
  6
CONTINUOUS
 62
             7
100
AcDbLine
 10
-181.84983026277081
 20
64.12970204775384
 11
-182.84983026277081
 21
64.12970204775384
  0
LINE
  5
7D
100
AcDbEntity
  8
0
  6
CONTINUOUS
 62
             7
100
AcDbLine
 10
-181.84983026277081
 20
70.92970204775385
 11
-182.84983026277081
 21
70.92970204775385
  0
LINE
  5
7C
100
AcDbEntity
  8
0
  6
CONTINUOUS
 62
             7
100
AcDbLine
 10
-180.71071012114629
 20
64.77970204775384
 11
-181.4498302627708
 21
64.77970204775384
  0
LINE
  5
7B
100
AcDbEntity
  8
0
  6
CONTINUOUS
 62
             7
100
AcDbLine
 10
-181.4498302627708
 20
70.27970204775384
 11
-180.71071012114629
 21
70.27970204775384
  0
LINE
  5
7A
100
AcDbEntity
  8
0
  6
CONTINUOUS
 62
             7
100
AcDbLine
 10
-181.4498302627708
 20
68.41830214138678
 11
-181.4498302627708
 21
66.64110195412091
  0
LINE
  5
79
100
AcDbEntity
  8
0
  6
CONTINUOUS
 62
             7
100
AcDbLine
 10
-181.4498302627708
 20
60.21830214138687
 11
-181.4498302627708
 21
58.44110195412101
  0
LINE
  5
78
100
AcDbEntity
  8
0
  6
CONTINUOUS
 62
             7
100
AcDbLine
 10
-181.4498302627708
 20
62.07970204775394
 11
-180.71071012114629
 21
62.07970204775394
  0
LINE
  5
77
100
AcDbEntity
  8
0
  6
CONTINUOUS
 62
             7
100
AcDbLine
 10
-180.71071012114629
 20
56.57970204775394
 11
-181.4498302627708
 21
56.57970204775394
  0
LINE
  5
76
100
AcDbEntity
  8
0
  6
CONTINUOUS
 62
             7
100
AcDbLine
 10
-181.84983026277081
 20
62.72970204775394
 11
-182.84983026277081
 21
62.72970204775394
  0
LINE
  5
75
100
AcDbEntity
  8
0
  6
CONTINUOUS
 62
             7
100
AcDbLine
 10
-181.84983026277081
 20
55.92970204775394
 11
-182.84983026277081
 21
55.92970204775394
  0
LINE
  5
74
100
AcDbEntity
  8
0
  6
CONTINUOUS
 62
             7
100
AcDbLine
 10
-181.84983026277081
 20
62.72970204775394
 11
-181.4498302627708
 21
61.07970204775394
  0
LINE
  5
73
100
AcDbEntity
  8
0
  6
CONTINUOUS
 62
             7
100
AcDbLine
 10
-182.84983026277081
 20
62.72970204775394
 11
-182.4498302627708
 21
61.07970204775394
  0
LINE
  5
72
100
AcDbEntity
  8
0
  6
CONTINUOUS
 62
             7
100
AcDbLine
 10
-181.84983026277081
 20
59.92970204775394
 11
-181.5796055744531
 21
60.03103630587306
  0
LINE
  5
71
100
AcDbEntity
  8
0
  6
CONTINUOUS
 62
             7
100
AcDbLine
 10
-181.84983026277081
 20
59.92970204775394
 11
-181.84983026277081
 21
58.72970204775394
  0
LINE
  5
70
100
AcDbEntity
  8
0
  6
CONTINUOUS
 62
             7
100
AcDbLine
 10
-181.84983026277081
 20
58.72970204775394
 11
-181.5796055744531
 21
58.62836778963482
  0
LINE
  5
6F
100
AcDbEntity
  8
0
  6
CONTINUOUS
 62
             7
100
AcDbLine
 10
-182.84983026277081
 20
59.92970204775394
 11
-182.5796055744531
 21
60.03103630587306
  0
LINE
  5
6E
100
AcDbEntity
  8
0
  6
CONTINUOUS
 62
             7
100
AcDbLine
 10
-182.84983026277081
 20
58.72970204775394
 11
-182.5796055744531
 21
58.62836778963482
  0
LINE
  5
6D
100
AcDbEntity
  8
0
  6
CONTINUOUS
 62
             7
100
AcDbLine
 10
-181.4498302627708
 20
62.72970204775394
 11
-181.4498302627708
 21
60.21830214138687
  0
LINE
  5
6C
100
AcDbEntity
  8
0
  6
CONTINUOUS
 62
             7
100
AcDbLine
 10
-181.4498302627708
 20
57.57970204775394
 11
-181.84983026277081
 21
55.92970204775394
  0
LINE
  5
6B
100
AcDbEntity
  8
0
  6
CONTINUOUS
 62
             7
100
AcDbLine
 10
-182.4498302627708
 20
57.57970204775394
 11
-182.84983026277081
 21
55.92970204775394
  0
LINE
  5
6A
100
AcDbEntity
  8
0
  6
CONTINUOUS
 62
             7
100
AcDbLine
 10
-181.4498302627708
 20
62.72970204775394
 11
-181.84983026277081
 21
62.72970204775394
  0
LINE
  5
69
100
AcDbEntity
  8
0
  6
CONTINUOUS
 62
             7
100
AcDbLine
 10
-181.4498302627708
 20
55.92970204775394
 11
-181.84983026277081
 21
55.92970204775394
  0
LINE
  5
68
100
AcDbEntity
  8
0
  6
CONTINUOUS
 62
             7
100
AcDbLine
 10
-182.4498302627708
 20
60.21830214138687
 11
-182.4498302627708
 21
61.07970204775394
  0
LINE
  5
67
100
AcDbEntity
  8
0
  6
CONTINUOUS
 62
             7
100
AcDbLine
 10
-182.4498302627708
 20
57.57970204775394
 11
-182.4498302627708
 21
58.44110195412101
  0
LINE
  5
66
100
AcDbEntity
  8
0
  6
CONTINUOUS
 62
             7
100
AcDbLine
 10
-181.4498302627708
 20
55.92970204775394
 11
-181.4498302627708
 21
58.44110195412101
  0
LINE
  5
65
100
AcDbEntity
  8
0
  6
CONTINUOUS
 62
             7
100
AcDbLine
 10
-181.4498302627708
 20
52.01830214138678
 11
-181.4498302627708
 21
50.24110195412091
  0
LINE
  5
64
100
AcDbEntity
  8
0
  6
CONTINUOUS
 62
             7
100
AcDbLine
 10
-181.4498302627708
 20
53.87970204775383
 11
-180.71071012114629
 21
53.87970204775383
  0
LINE
  5
63
100
AcDbEntity
  8
0
  6
CONTINUOUS
 62
             7
100
AcDbLine
 10
-180.71071012114629
 20
48.37970204775383
 11
-181.4498302627708
 21
48.37970204775383
  0
LINE
  5
62
100
AcDbEntity
  8
0
  6
CONTINUOUS
 62
             7
100
AcDbLine
 10
-181.84983026277081
 20
54.52970204775384
 11
-182.84983026277081
 21
54.52970204775384
  0
LINE
  5
61
100
AcDbEntity
  8
0
  6
CONTINUOUS
 62
             7
100
AcDbLine
 10
-181.84983026277081
 20
47.72970204775383
 11
-182.84983026277081
 21
47.72970204775383
  0
LINE
  5
60
100
AcDbEntity
  8
0
  6
CONTINUOUS
 62
             7
100
AcDbLine
 10
-181.84983026277081
 20
54.52970204775384
 11
-181.4498302627708
 21
52.87970204775383
  0
LINE
  5
5F
100
AcDbEntity
  8
0
  6
CONTINUOUS
 62
             7
100
AcDbLine
 10
-182.84983026277081
 20
54.52970204775384
 11
-182.4498302627708
 21
52.87970204775383
  0
LINE
  5
5E
100
AcDbEntity
  8
0
  6
CONTINUOUS
 62
             7
100
AcDbLine
 10
-181.84983026277081
 20
51.72970204775383
 11
-181.5796055744531
 21
51.83103630587296
  0
LINE
  5
5D
100
AcDbEntity
  8
0
  6
CONTINUOUS
 62
             7
100
AcDbLine
 10
-181.84983026277081
 20
51.72970204775383
 11
-181.84983026277081
 21
50.52970204775384
  0
LINE
  5
5C
100
AcDbEntity
  8
0
  6
CONTINUOUS
 62
             7
100
AcDbLine
 10
-181.84983026277081
 20
50.52970204775384
 11
-181.5796055744531
 21
50.42836778963473
  0
LINE
  5
5B
100
AcDbEntity
  8
0
  6
CONTINUOUS
 62
             7
100
AcDbLine
 10
-182.84983026277081
 20
51.72970204775381
 11
-182.5796055744531
 21
51.83103630587296
  0
LINE
  5
5A
100
AcDbEntity
  8
0
  6
CONTINUOUS
 62
             7
100
AcDbLine
 10
-182.84983026277081
 20
50.52970204775384
 11
-182.5796055744531
 21
50.42836778963473
  0
LINE
  5
59
100
AcDbEntity
  8
0
  6
CONTINUOUS
 62
             7
100
AcDbLine
 10
-181.4498302627708
 20
54.52970204775384
 11
-181.4498302627708
 21
52.01830214138678
  0
LINE
  5
58
100
AcDbEntity
  8
0
  6
CONTINUOUS
 62
             7
100
AcDbLine
 10
-181.4498302627708
 20
49.37970204775383
 11
-181.84983026277081
 21
47.72970204775383
  0
LINE
  5
57
100
AcDbEntity
  8
0
  6
CONTINUOUS
 62
             7
100
AcDbLine
 10
-182.4498302627708
 20
49.37970204775383
 11
-182.84983026277081
 21
47.72970204775383
  0
LINE
  5
56
100
AcDbEntity
  8
0
  6
CONTINUOUS
 62
             7
100
AcDbLine
 10
-181.4498302627708
 20
54.52970204775384
 11
-181.84983026277081
 21
54.52970204775384
  0
LINE
  5
55
100
AcDbEntity
  8
0
  6
CONTINUOUS
 62
             7
100
AcDbLine
 10
-181.4498302627708
 20
47.72970204775383
 11
-181.84983026277081
 21
47.72970204775383
  0
LINE
  5
54
100
AcDbEntity
  8
0
  6
CONTINUOUS
 62
             7
100
AcDbLine
 10
-182.4498302627708
 20
52.01830214138678
 11
-182.4498302627708
 21
52.87970204775383
  0
LINE
  5
53
100
AcDbEntity
  8
0
  6
CONTINUOUS
 62
             7
100
AcDbLine
 10
-182.4498302627708
 20
49.37970204775383
 11
-182.4498302627708
 21
50.24110195412091
  0
LINE
  5
52
100
AcDbEntity
  8
0
  6
CONTINUOUS
 62
             7
100
AcDbLine
 10
-181.4498302627708
 20
47.72970204775383
 11
-181.4498302627708
 21
50.24110195412091
  0
LINE
  5
51
100
AcDbEntity
  8
0
  6
CONTINUOUS
 62
             7
100
AcDbLine
 10
-181.4498302627708
 20
43.81830214138709
 11
-181.4498302627708
 21
42.04110195412123
  0
LINE
  5
50
100
AcDbEntity
  8
0
  6
CONTINUOUS
 62
             7
100
AcDbLine
 10
-181.4498302627708
 20
45.67970204775416
 11
-180.71071012114629
 21
45.67970204775416
  0
LINE
  5
4F
100
AcDbEntity
  8
0
  6
CONTINUOUS
 62
             7
100
AcDbLine
 10
-180.71071012114629
 20
40.17970204775416
 11
-181.4498302627708
 21
40.17970204775416
  0
LINE
  5
4E
100
AcDbEntity
  8
0
  6
CONTINUOUS
 62
             7
100
AcDbLine
 10
-181.84983026277081
 20
46.32970204775417
 11
-182.84983026277081
 21
46.32970204775417
  0
LINE
  5
4D
100
AcDbEntity
  8
0
  6
CONTINUOUS
 62
             7
100
AcDbLine
 10
-181.84983026277081
 20
39.52970204775416
 11
-182.84983026277081
 21
39.52970204775416
  0
LINE
  5
4C
100
AcDbEntity
  8
0
  6
CONTINUOUS
 62
             7
100
AcDbLine
 10
-181.84983026277081
 20
46.32970204775417
 11
-181.4498302627708
 21
44.67970204775416
  0
LINE
  5
4B
100
AcDbEntity
  8
0
  6
CONTINUOUS
 62
             7
100
AcDbLine
 10
-182.84983026277081
 20
46.32970204775417
 11
-182.4498302627708
 21
44.67970204775416
  0
LINE
  5
4A
100
AcDbEntity
  8
0
  6
CONTINUOUS
 62
             7
100
AcDbLine
 10
-181.84983026277081
 20
43.52970204775416
 11
-181.5796055744531
 21
43.63103630587328
  0
LINE
  5
49
100
AcDbEntity
  8
0
  6
CONTINUOUS
 62
             7
100
AcDbLine
 10
-181.84983026277081
 20
43.52970204775416
 11
-181.84983026277081
 21
42.32970204775417
  0
LINE
  5
48
100
AcDbEntity
  8
0
  6
CONTINUOUS
 62
             7
100
AcDbLine
 10
-181.84983026277081
 20
42.32970204775417
 11
-181.5796055744531
 21
42.22836778963504
  0
LINE
  5
47
100
AcDbEntity
  8
0
  6
CONTINUOUS
 62
             7
100
AcDbLine
 10
-182.84983026277081
 20
43.52970204775415
 11
-182.5796055744531
 21
43.63103630587328
  0
LINE
  5
46
100
AcDbEntity
  8
0
  6
CONTINUOUS
 62
             7
100
AcDbLine
 10
-182.84983026277081
 20
42.32970204775417
 11
-182.5796055744531
 21
42.22836778963504
  0
LINE
  5
45
100
AcDbEntity
  8
0
  6
CONTINUOUS
 62
             7
100
AcDbLine
 10
-181.4498302627708
 20
46.32970204775417
 11
-181.4498302627708
 21
43.81830214138709
  0
LINE
  5
44
100
AcDbEntity
  8
0
  6
CONTINUOUS
 62
             7
100
AcDbLine
 10
-181.4498302627708
 20
41.17970204775416
 11
-181.84983026277081
 21
39.52970204775416
  0
LINE
  5
43
100
AcDbEntity
  8
0
  6
CONTINUOUS
 62
             7
100
AcDbLine
 10
-182.4498302627708
 20
41.17970204775416
 11
-182.84983026277081
 21
39.52970204775416
  0
LINE
  5
42
100
AcDbEntity
  8
0
  6
CONTINUOUS
 62
             7
100
AcDbLine
 10
-181.4498302627708
 20
46.32970204775417
 11
-181.84983026277081
 21
46.32970204775417
  0
LINE
  5
41
100
AcDbEntity
  8
0
  6
CONTINUOUS
 62
             7
100
AcDbLine
 10
-181.4498302627708
 20
39.52970204775416
 11
-181.84983026277081
 21
39.52970204775416
  0
LINE
  5
40
100
AcDbEntity
  8
0
  6
CONTINUOUS
 62
             7
100
AcDbLine
 10
-182.4498302627708
 20
43.81830214138709
 11
-182.4498302627708
 21
44.67970204775416
  0
LINE
  5
3F
100
AcDbEntity
  8
0
  6
CONTINUOUS
 62
             7
100
AcDbLine
 10
-182.4498302627708
 20
41.17970204775416
 11
-182.4498302627708
 21
42.04110195412123
  0
LINE
  5
3E
100
AcDbEntity
  8
0
  6
CONTINUOUS
 62
             7
100
AcDbLine
 10
-181.4498302627708
 20
39.52970204775416
 11
-181.4498302627708
 21
42.04110195412123
  0
LINE
  5
3D
100
AcDbEntity
  8
0
  6
CONTINUOUS
 62
             7
100
AcDbLine
 10
-181.4498302627708
 20
31.32970204775419
 11
-181.4498302627708
 21
33.84110195412126
  0
LINE
  5
3C
100
AcDbEntity
  8
0
  6
CONTINUOUS
 62
             7
100
AcDbLine
 10
-182.4498302627708
 20
32.97970204775419
 11
-182.4498302627708
 21
33.84110195412126
  0
LINE
  5
3B
100
AcDbEntity
  8
0
  6
CONTINUOUS
 62
             7
100
AcDbLine
 10
-182.4498302627708
 20
35.61830214138712
 11
-182.4498302627708
 21
36.47970204775419
  0
LINE
  5
3A
100
AcDbEntity
  8
0
  6
CONTINUOUS
 62
             7
100
AcDbLine
 10
-181.4498302627708
 20
31.32970204775419
 11
-181.84983026277081
 21
31.32970204775419
  0
LINE
  5
39
100
AcDbEntity
  8
0
  6
CONTINUOUS
 62
             7
100
AcDbLine
 10
-181.4498302627708
 20
38.12970204775419
 11
-181.84983026277081
 21
38.12970204775419
  0
LINE
  5
38
100
AcDbEntity
  8
0
  6
CONTINUOUS
 62
             7
100
AcDbLine
 10
-182.4498302627708
 20
32.97970204775419
 11
-182.84983026277081
 21
31.32970204775419
  0
LINE
  5
37
100
AcDbEntity
  8
0
  6
CONTINUOUS
 62
             7
100
AcDbLine
 10
-181.4498302627708
 20
32.97970204775419
 11
-181.84983026277081
 21
31.32970204775419
  0
LINE
  5
36
100
AcDbEntity
  8
0
  6
CONTINUOUS
 62
             7
100
AcDbLine
 10
-181.4498302627708
 20
38.12970204775419
 11
-181.4498302627708
 21
35.61830214138712
  0
LINE
  5
35
100
AcDbEntity
  8
0
  6
CONTINUOUS
 62
             7
100
AcDbLine
 10
-182.84983026277081
 20
34.12970204775419
 11
-182.5796055744531
 21
34.02836778963507
  0
LINE
  5
34
100
AcDbEntity
  8
0
  6
CONTINUOUS
 62
             7
100
AcDbLine
 10
-182.84983026277081
 20
35.32970204775418
 11
-182.5796055744531
 21
35.43103630587331
  0
LINE
  5
33
100
AcDbEntity
  8
0
  6
CONTINUOUS
 62
             7
100
AcDbLine
 10
-181.84983026277081
 20
34.12970204775419
 11
-181.5796055744531
 21
34.02836778963507
  0
LINE
  5
32
100
AcDbEntity
  8
0
  6
CONTINUOUS
 62
             7
100
AcDbLine
 10
-181.84983026277081
 20
35.32970204775419
 11
-181.84983026277081
 21
34.12970204775419
  0
LINE
  5
31
100
AcDbEntity
  8
0
  6
CONTINUOUS
 62
             7
100
AcDbLine
 10
-181.84983026277081
 20
35.32970204775419
 11
-181.5796055744531
 21
35.43103630587331
  0
LINE
  5
30
100
AcDbEntity
  8
0
  6
CONTINUOUS
 62
             7
100
AcDbLine
 10
-182.84983026277081
 20
38.12970204775419
 11
-182.4498302627708
 21
36.47970204775419
  0
LINE
  5
2F
100
AcDbEntity
  8
0
  6
CONTINUOUS
 62
             7
100
AcDbLine
 10
-181.84983026277081
 20
38.12970204775419
 11
-181.4498302627708
 21
36.47970204775419
  0
LINE
  5
2E
100
AcDbEntity
  8
0
  6
CONTINUOUS
 62
             7
100
AcDbLine
 10
-181.84983026277081
 20
31.32970204775419
 11
-182.84983026277081
 21
31.32970204775419
  0
LINE
  5
2D
100
AcDbEntity
  8
0
  6
CONTINUOUS
 62
             7
100
AcDbLine
 10
-181.84983026277081
 20
38.12970204775419
 11
-182.84983026277081
 21
38.12970204775419
  0
LINE
  5
2C
100
AcDbEntity
  8
0
  6
CONTINUOUS
 62
             7
100
AcDbLine
 10
-180.71071012114629
 20
31.97970204775419
 11
-181.4498302627708
 21
31.97970204775419
  0
LINE
  5
2B
100
AcDbEntity
  8
0
  6
CONTINUOUS
 62
             7
100
AcDbLine
 10
-181.4498302627708
 20
37.47970204775419
 11
-180.71071012114629
 21
37.47970204775419
  0
LINE
  5
2A
100
AcDbEntity
  8
0
  6
CONTINUOUS
 62
             7
100
AcDbLine
 10
-181.4498302627708
 20
35.61830214138712
 11
-181.4498302627708
 21
33.84110195412126
  0
LINE
  5
29
100
AcDbEntity
  8
1
  6
CONTINUOUS
 62
             7
100
AcDbLine
 10
-180.20197259761019
 20
28.879702047754
 11
-273.20197259761011
 21
28.87970204775401
  0
LINE
  5
28
100
AcDbEntity
  8
1
  6
CONTINUOUS
 62
             7
100
AcDbLine
 10
-273.20197259761011
 20
73.379702047754
 11
-180.20197259761019
 21
73.379702047754
  0
ENDSEC
  0
SECTION
  2
OBJECTS
  0
DICTIONARY
  5
19
100
AcDbDictionary
  3
ACAD_GROUP
350
1A
  3
ACAD_MLINESTYLE
350
1B
  0
DICTIONARY
  5
1A
102
{ACAD_REACTORS
330
19
102
}
100
AcDbDictionary
  0
DICTIONARY
  5
1B
102
{ACAD_REACTORS
330
19
102
}
100
AcDbDictionary
  3
STANDARD
350
1C
  0
MLINESTYLE
  5
1C
102
{ACAD_REACTORS
330
1B
102
}
100
AcDbMlineStyle
  2
STANDARD
 70
             0
  3

 62
             0
 51
90.0
 52
90.0
 71
             2
 49
0.5
 62
           256
  6
BYLAYER
 49
-0.5
 62
           256
  6
BYLAYER
  0
ENDSEC
  0
EOF
