  0
SECTION
  2
HEADER
  9
$ACADVER
  1
AC1014
  9
$ACADMAINTVER
 70
             0
  9
$DWGCODEPAGE
  3
ANSI_1252
  9
$INSBASE
 10
0.0
 20
0.0
 30
0.0
  9
$EXTMIN
 10
1.00000000000000E+20
 20
1.00000000000000E+20
 30
1.00000000000000E+20
  9
$EXTMAX
 10
-1.00000000000000E+20
 20
-1.00000000000000E+20
 30
-1.00000000000000E+20
  9
$LIMMIN
 10
0.0
 20
0.0
  9
$LIMMAX
 10
0.0
 20
0.0
  9
$ORTHOMODE
 70
             0
  9
$REGENMODE
 70
             1
  9
$FILLMODE
 70
             1
  9
$QTEXTMODE
 70
             0
  9
$MIRRTEXT
 70
             1
  9
$DRAGMODE
 70
             2
  9
$LTSCALE
 40
1.0
  9
$OSMODE
 70
             0
  9
$ATTMODE
 70
             1
  9
$TEXTSIZE
 40
0.2
  9
$TRACEWID
 40
0.05
  9
$TEXTSTYLE
  7
STANDARD
  9
$CLAYER
  8
0
  9
$CELTYPE
  6
CONTINUOUS
  9
$CECOLOR
 62
           256
  9
$CELTSCALE
 40
1.0
  9
$DELOBJ
 70
             1
  9
$DISPSILH
 70
             0
  9
$DIMSCALE
 40
1.0
  9
$DIMASZ
 40
0.18
  9
$DIMEXO
 40
0.0625
  9
$DIMDLI
 40
0.38
  9
$DIMRND
 40
0.0
  9
$DIMDLE
 40
0.0
  9
$DIMEXE
 40
0.18
  9
$DIMTP
 40
0.0
  9
$DIMTM
 40
0.0
  9
$DIMTXT
 40
0.18
  9
$DIMCEN
 40
0.09
  9
$DIMTSZ
 40
0.0
  9
$DIMTOL
 70
             0
  9
$DIMLIM
 70
             0
  9
$DIMTIH
 70
             1
  9
$DIMTOH
 70
             1
  9
$DIMSE1
 70
             0
  9
$DIMSE2
 70
             0
  9
$DIMTAD
 70
             0
  9
$DIMZIN
 70
             0
  9
$DIMBLK
  1

  9
$DIMASO
 70
             1
  9
$DIMSHO
 70
             1
  9
$DIMPOST
  1

  9
$DIMAPOST
  1

  9
$DIMALT
 70
             0
  9
$DIMALTD
 70
             2
  9
$DIMALTF
 40
25.4
  9
$DIMLFAC
 40
1.0
  9
$DIMTOFL
 70
             0
  9
$DIMTVP
 40
0.0
  9
$DIMTIX
 70
             0
  9
$DIMSOXD
 70
             0
  9
$DIMSAH
 70
             0
  9
$DIMBLK1
  1

  9
$DIMBLK2
  1

  9
$DIMSTYLE
  2
STANDARD
  9
$DIMCLRD
 70
             0
  9
$DIMCLRE
 70
             0
  9
$DIMCLRT
 70
             0
  9
$DIMTFAC
 40
1.0
  9
$DIMGAP
 40
0.09
  9
$DIMJUST
 70
             0
  9
$DIMSD1
 70
             0
  9
$DIMSD2
 70
             0
  9
$DIMTOLJ
 70
             1
  9
$DIMTZIN
 70
             0
  9
$DIMALTZ
 70
             0
  9
$DIMALTTZ
 70
             0
  9
$DIMFIT
 70
             3
  9
$DIMUPT
 70
             0
  9
$DIMUNIT
 70
             2
  9
$DIMDEC
 70
             4
  9
$DIMTDEC
 70
             4
  9
$DIMALTU
 70
             2
  9
$DIMALTTD
 70
             2
  9
$DIMTXSTY
  7
STANDARD
  9
$DIMAUNIT
 70
             0
  9
$LUNITS
 70
             2
  9
$LUPREC
 70
             4
  9
$SKETCHINC
 40
0.1
  9
$FILLETRAD
 40
0.0
  9
$AUNITS
 70
             0
  9
$AUPREC
 70
             0
  9
$MENU
  1
acad
  9
$ELEVATION
 40
0.0
  9
$PELEVATION
 40
0.0
  9
$THICKNESS
 40
0.0
  9
$LIMCHECK
 70
             0
  9
$BLIPMODE
 70
             1
  9
$CHAMFERA
 40
0.0
  9
$CHAMFERB
 40
0.0
  9
$CHAMFERC
 40
0.0
  9
$CHAMFERD
 40
0.0
  9
$SKPOLY
 70
             0
  9
$TDCREATE
 40
0.000000000
  9
$TDUPDATE
 40
0.000000000
  9
$TDINDWG
 40
0.0000000000
  9
$TDUSRTIMER
 40
0.0000000000
  9
$USRTIMER
 70
             1
  9
$ANGBASE
 50
0.0
  9
$ANGDIR
 70
             0
  9
$PDMODE
 70
             0
  9
$PDSIZE
 40
0.0
  9
$PLINEWID
 40
0.0
  9
$COORDS
 70
             0
  9
$SPLFRAME
 70
             0
  9
$SPLINETYPE
 70
             6
  9
$SPLINESEGS
 70
             8
  9
$ATTDIA
 70
             0
  9
$ATTREQ
 70
             1
  9
$HANDLING
 70
             1
  9
$HANDSEED
  5
2A5
  9
$SURFTAB1
 70
             6
  9
$SURFTAB2
 70
             6
  9
$SURFTYPE
 70
             6
  9
$SURFU
 70
             6
  9
$SURFV
 70
             6
  9
$UCSNAME
  2

  9
$UCSORG
 10
0.0
 20
0.0
 30
0.0
  9
$UCSXDIR
 10
1.0
 20
0.0
 30
0.0
  9
$UCSYDIR
 10
0.0
 20
1.0
 30
0.0
  9
$PUCSNAME
  2

  9
$PUCSORG
 10
0.0
 20
0.0
 30
0.0
  9
$PUCSXDIR
 10
1.0
 20
0.0
 30
0.0
  9
$PUCSYDIR
 10
0.0
 20
1.0
 30
0.0
  9
$USERI1
 70
             0
  9
$USERI2
 70
             0
  9
$USERI3
 70
             0
  9
$USERI4
 70
             0
  9
$USERI5
 70
             0
  9
$USERR1
 40
11.6
  9
$USERR2
 40
0.0
  9
$USERR3
 40
0.0
  9
$USERR4
 40
0.0
  9
$USERR5
 40
0.0
  9
$WORLDVIEW
 70
             1
  9
$SHADEDGE
 70
             3
  9
$SHADEDIF
 70
            70
  9
$TILEMODE
 70
             1
  9
$MAXACTVP
 70
            16
  9
$PINSBASE
 10
0.0
 20
0.0
 30
0.0
  9
$PLIMCHECK
 70
             0
  9
$PEXTMIN
 10
1.00000000000000E+20
 20
1.00000000000000E+20
 30
1.00000000000000E+20
  9
$PEXTMAX
 10
-1.00000000000000E+20
 20
-1.00000000000000E+20
 30
-1.00000000000000E+20
  9
$PLIMMIN
 10
0.0
 20
0.0
  9
$PLIMMAX
 10
12.0
 20
9.0
  9
$UNITMODE
 70
             0
  9
$VISRETAIN
 70
             0
  9
$PLINEGEN
 70
             1
  9
$PSLTSCALE
 70
             0
  9
$TREEDEPTH
 70
          3020
  9
$PICKSTYLE
 70
             1
  9
$CMLSTYLE
  2
STANDARD
  9
$CMLJUST
 70
             0
  9
$CMLSCALE
 40
1.0
  9
$PROXYGRAPHICS
 70
             0
  9
$MEASUREMENT
 70
             1
  0
ENDSEC
  0
SECTION
  2
CLASSES
  0
CLASS
  1
LWPOLYLINE
  2
AcDbPolyline
  3
"AutoCAD"
 90
        0
280
             0
281
             1
  0
CLASS
  1
IMAGE
  2
AcDbRasterImage
  3
ISM
 90
      127
280
             0
281
             1
  0
CLASS
  1
OLE2FRAME
  2
AcDbOle2Frame
  3
""
 90
        0
280
             0
281
             1
  0
CLASS
  1
HATCH
  2
AcDbHatch
  3
"ACAD_SEDONA"
 90
        0
280
             0
281
             1
  0
CLASS
  1
DICTIONARYVAR
  2
AcDbDictionaryVar
  3
"AutoCAD"
 90
        0
280
             0
281
             0
  0
CLASS
  1
RASTERVARIABLES
  2
AcDbRasterVariables
  3
ISM
 90
        0
280
             0
281
             0
  0
CLASS
  1
IMAGEDEF
  2
AcDbRasterImageDef
  3
ISM
 90
        0
280
             0
281
             0
  0
CLASS
  1
IMAGEDEF_REACTOR
  2
AcDbRasterImageDefReactor
  3
ISM
 90
        1
280
             0
281
             0
  0
CLASS
  1
IDBUFFER
  2
AcDbIdBuffer
  3
"Acad"
 90
        0
280
             0
281
             0
  0
CLASS
  1
SPATIAL_FILTER
  2
AcDbSpatialFilter
  3
"Acad"
 90
        0
280
             0
281
             0
  0
CLASS
  1
XRECORD
  2
AcDbXrecord
  3
"<Built In>"
 90
        0
280
             0
281
             0
  0
CLASS
  1
SORTENTSTABLE
  2
AcDbSortentsTable
  3
"AutoCAD"
 90
        0
280
             0
281
             0
  0
CLASS
  1
LAYER_INDEX
  2
AcDbLayerIndex
  3
"Acad"
 90
        0
280
             0
281
             0
  0
CLASS
  1
SPATIAL_INDEX
  2
AcDbSpatialIndex
  3
"Acad"
 90
        0
280
             0
281
             0
  0
CLASS
  1
OBJECT_PTR
  2
CAseDLPNTableRecord
  3
"ASE-LPNTableRecord"
 90
        1
280
             0
281
             0
  0
CLASS
  1
LAYOUT
  2
AcDbLayout
  3
"AutoCAD 2000"
 90
        1
280
             0
281
             0
  0
CLASS
  1
PLOTSETTINGS
  2
AcDbPlotSettings
  3
"AutoCAD 2000"
 90
        1
280
             0
281
             0
  0
CLASS
  1
ACDBDICTIONARYWDFLT
  2
AcDbDictionaryWithDefault
  3
"AutoCAD 2000"
 90
        1
280
             0
281
             0
  0
CLASS
  1
ACDBPLACEHOLDER
  2
AcDbPlaceHolder
  3
"AutoCAD 2000"
 90
        1
280
             0
281
             0
  0
ENDSEC
  0
SECTION
  2
TABLES
  0
TABLE
  2
VPORT
  5
7
100
AcDbSymbolTable
 70
             1
  0
VPORT
  5
15
100
AcDbSymbolTableRecord
100
AcDbViewportTableRecord
  2
*ACTIVE
 70
             0
 10
0.0
 20
0.0
 11
1.0
 21
1.0
 12
6786.6499997499996
 22
5707.5083407999991
 13
0.0
 23
0.0
 14
1.0
 24
1.0
 15
0.0
 25
0.0
 16
0.0
 26
0.0
 36
1.0
 17
0.0
 27
0.0
 37
0.0
 40
251.62500000000003
 41
1.60267857142857
 42
50.0
 43
0.0
 44
0.0
 50
0.0
 51
0.0
 71
             0
 72
           100
 73
             1
 74
             1
 75
             0
 76
             0
 77
             0
 78
             0
  0
ENDTAB
  0
TABLE
  2
LTYPE
  5
4
100
AcDbSymbolTable
 70
            11
  0
LTYPE
  5
11
100
AcDbSymbolTableRecord
100
AcDbLinetypeTableRecord
  2
BYBLOCK
 70
            64
  3

 72
            65
 73
             0
 40
0.0
  0
LTYPE
  5
12
100
AcDbSymbolTableRecord
100
AcDbLinetypeTableRecord
  2
BYLAYER
 70
            64
  3

 72
            65
 73
             0
 40
0.0
  0
LTYPE
  5
13
100
AcDbSymbolTableRecord
100
AcDbLinetypeTableRecord
  2
CONTINUOUS
 70
            64
  3
Solid line
 72
            65
 73
             0
 40
0.0
  0
LTYPE
  5
1D
100
AcDbSymbolTableRecord
100
AcDbLinetypeTableRecord
  2
DASHED
 70
            64
  3
Dashed
 72
            65
 73
             2
 40
15.0
 49
12.0
 74
             0
 49
-3.0
 74
             0
  0
LTYPE
  5
1E
100
AcDbSymbolTableRecord
100
AcDbLinetypeTableRecord
  2
DOTTED
 70
            64
  3
Dotted
 72
            65
 73
             2
 40
3.5
 49
0.5
 74
             0
 49
-3.0
 74
             0
  0
LTYPE
  5
1F
100
AcDbSymbolTableRecord
100
AcDbLinetypeTableRecord
  2
DOT_CENTER
 70
            64
  3
Dot_Center
 72
            65
 73
             4
 40
2.0
 49
1.25
 74
             0
 49
-0.25
 74
             0
 49
0.25
 74
             0
 49
-0.25
 74
             0
  0
LTYPE
  5
20
100
AcDbSymbolTableRecord
100
AcDbLinetypeTableRecord
  2
LONG_DASHED
 70
            64
  3
Long_Dashed
 72
            65
 73
             2
 40
2.0
 49
1.5
 74
             0
 49
-0.5
 74
             0
  0
LTYPE
  5
21
100
AcDbSymbolTableRecord
100
AcDbLinetypeTableRecord
  2
DASH_CENTER
 70
            64
  3
Dash_Center
 72
            65
 73
             4
 40
36.0
 49
24.0
 74
             0
 49
-3.0
 74
             0
 49
6.0
 74
             0
 49
-3.0
 74
             0
  0
LTYPE
  5
22
100
AcDbSymbolTableRecord
100
AcDbLinetypeTableRecord
  2
PHANTOM
 70
            64
  3
Phantom
 72
            65
 73
             6
 40
2.5
 49
1.25
 74
             0
 49
-0.25
 74
             0
 49
0.25
 74
             0
 49
-0.25
 74
             0
 49
0.25
 74
             0
 49
-0.25
 74
             0
  0
LTYPE
  5
23
100
AcDbSymbolTableRecord
100
AcDbLinetypeTableRecord
  2
CENTER_DASH_DASH
 70
            64
  3
Center_Dash_Dash
 72
            65
 73
             6
 40
22.0
 49
12.0
 74
             0
 49
-3.0
 74
             0
 49
0.5
 74
             0
 49
-3.0
 74
             0
 49
0.5
 74
             0
 49
-3.0
 74
             0
  0
LTYPE
  5
24
100
AcDbSymbolTableRecord
100
AcDbLinetypeTableRecord
  2
EXLTYPE3
 70
            64
  3
EXLTYPE3
 72
            65
 73
             4
 40
13.0
 49
10.0
 74
             0
 49
-1.0
 74
             0
 49
1.0
 74
             0
 49
-1.0
 74
             0
  0
ENDTAB
  0
TABLE
  2
LAYER
  5
2
100
AcDbSymbolTable
 70
             2
  0
LAYER
  5
14
100
AcDbSymbolTableRecord
100
AcDbLayerTableRecord
  2
0
 70
             0
 62
             7
  6
CONTINUOUS
  0
LAYER
  5
25
100
AcDbSymbolTableRecord
100
AcDbLayerTableRecord
  2
___E
 70
             0
 62
             7
  6
CONTINUOUS
  0
ENDTAB
  0
TABLE
  2
STYLE
  5
3
100
AcDbSymbolTable
 70
             1
  0
STYLE
  5
17
100
AcDbSymbolTableRecord
100
AcDbTextStyleTableRecord
  2
STANDARD
 70
             0
 40
0.0
 41
1.0
 50
0.0
 71
             0
 42
0.0
  3
txt
  4

  0
ENDTAB
  0
TABLE
  2
VIEW
  5
5
100
AcDbSymbolTable
 70
             0
  0
ENDTAB
  0
TABLE
  2
UCS
  5
6
100
AcDbSymbolTable
 70
             0
  0
ENDTAB
  0
TABLE
  2
APPID
  5
8
100
AcDbSymbolTable
 70
             1
  0
APPID
  5
16
100
AcDbSymbolTableRecord
100
AcDbRegAppTableRecord
  2
ACAD
 70
             0
  0
ENDTAB
  0
TABLE
  2
DIMSTYLE
  5
9
100
AcDbSymbolTable
 70
             1
  0
DIMSTYLE
105
18
100
AcDbSymbolTableRecord
100
AcDbDimStyleTableRecord
  2
STANDARD
 70
             0
  3

  4

  5

  6

  7

 40
1.0
 41
0.18
 42
0.0625
 43
0.38
 44
0.18
 45
0.0
 46
0.0
 47
0.0
 48
0.0
 71
             0
 72
             0
 73
             1
 74
             1
 75
             0
 76
             0
 77
             0
 78
             0
140
0.18
141
0.09
142
0.0
143
25.4
144
1.0
145
0.0
146
1.0
147
0.09
170
             0
171
             2
172
             0
173
             0
174
             0
175
             0
176
             0
177
             0
178
             0
270
             2
271
             4
272
             4
273
             2
274
             2
275
             0
280
             0
281
             0
282
             0
283
             1
284
             0
285
             0
286
             0
287
             0
288
             0
340
17
  0
ENDTAB
  0
TABLE
  2
BLOCK_RECORD
  5
1
100
AcDbSymbolTable
 70
             0
  0
BLOCK_RECORD
  5
A
100
AcDbSymbolTableRecord
100
AcDbBlockTableRecord
  2
*MODEL_SPACE
  0
BLOCK_RECORD
  5
B
100
AcDbSymbolTableRecord
100
AcDbBlockTableRecord
  2
*PAPER_SPACE
  0
ENDTAB
  0
ENDSEC
  0
SECTION
  2
BLOCKS
  0
BLOCK
  5
D
100
AcDbEntity
  8
0
100
AcDbBlockBegin
  2
*MODEL_SPACE
 70
             0
 10
0.0
 20
0.0
 30
0.0
  3
*MODEL_SPACE
  1

  0
ENDBLK
  5
E
100
AcDbEntity
  8
0
100
AcDbBlockEnd
  0
BLOCK
  5
F
100
AcDbEntity
 67
             1
  8
0
100
AcDbBlockBegin
  2
*PAPER_SPACE
 70
             0
 10
0.0
 20
0.0
 30
0.0
  3
*PAPER_SPACE
  1

  0
ENDBLK
  5
10
100
AcDbEntity
 67
             1
  8
0
100
AcDbBlockEnd
  0
ENDSEC
  0
SECTION
  2
ENTITIES
  0
LWPOLYLINE
  5
2A3
100
AcDbEntity
  8
___E
  6
CONTINUOUS
 62
             7
100
AcDbPolyline
 90
        6
 70
             0
 10
6657.1499999999996
 20
5762.1333412999993
 10
6658.1500004999998
 20
5762.1333412999993
 10
6658.1500004999998
 20
5762.1333412999993
 10
6658.1500004999998
 20
5774.1333412999993
 10
6658.1500004999998
 20
5774.1333412999993
 10
6658.1500004999998
 20
5774.1333412999993
  0
LWPOLYLINE
  5
2A1
100
AcDbEntity
  8
___E
  6
CONTINUOUS
 62
             7
100
AcDbPolyline
 90
       36
 70
             1
 10
6653.3999999999996
 20
5719.3833412999993
 10
6651.8999999999996
 20
5719.3833412999993
 10
6651.8999999999996
 20
5719.3833412999993
 10
6651.8999999999996
 20
5709.3833407999991
 10
6651.8999999999996
 20
5709.3833407999991
 10
6653.3999999999996
 20
5709.3833407999991
 10
6653.3999999999996
 20
5709.3833407999991
 10
6653.3999999999996
 20
5708.5833412999991
 10
6653.3999999999996
 20
5708.5833412999991
 10
6663.4000004999998
 20
5708.5833412999991
 10
6663.4000004999998
 20
5708.5833412999991
 10
6663.4000004999998
 20
5709.3833407999991
 10
6663.4000004999998
 20
5709.3833407999991
 10
6664.9000004999998
 20
5709.3833407999991
 10
6664.9000004999998
 20
5709.3833407999991
 10
6664.9000004999998
 20
5719.3833412999993
 10
6664.9000004999998
 20
5719.3833412999993
 10
6663.4000004999998
 20
5719.3833412999993
 10
6663.4000004999998
 20
5719.3833412999993
 10
6663.4000004999998
 20
5718.5833417999993
 10
6663.4000004999998
 20
5718.5833417999993
 10
6653.3999999999996
 20
5718.5833417999993
 10
6653.3999999999996
 20
5718.5833417999993
 10
6653.3999999999996
 20
5719.3833412999993
 10
6653.3999999999996
 20
5719.3833412999993
 10
6653.3999999999996
 20
5719.3833412999993
 10
6653.3999999999996
 20
5719.3833412999993
 10
6653.3999999999996
 20
5719.3833412999993
 10
6653.3999999999996
 20
5719.3833412999993
 10
6653.3999999999996
 20
5719.3833412999993
 10
6653.3999999999996
 20
5719.3833412999993
 10
6653.3999999999996
 20
5719.3833412999993
 10
6653.3999999999996
 20
5719.3833412999993
 10
6653.3999999999996
 20
5719.3833412999993
 10
6653.3999999999996
 20
5719.3833412999993
 10
6653.3999999999996
 20
5719.3833412999993
  0
LWPOLYLINE
  5
29F
100
AcDbEntity
  8
___E
  6
CONTINUOUS
 62
             7
100
AcDbPolyline
 90
       36
 70
             1
 10
6653.3999999999996
 20
5709.3833407999991
 10
6651.8999999999996
 20
5709.3833407999991
 10
6651.8999999999996
 20
5709.3833407999991
 10
6651.8999999999996
 20
5699.3833418000004
 10
6651.8999999999996
 20
5699.3833418000004
 10
6653.3999999999996
 20
5699.3833418000004
 10
6653.3999999999996
 20
5699.3833418000004
 10
6653.3999999999996
 20
5698.583340799999
 10
6653.3999999999996
 20
5698.583340799999
 10
6663.4000004999998
 20
5698.583340799999
 10
6663.4000004999998
 20
5698.583340799999
 10
6663.4000004999998
 20
5699.3833418000004
 10
6663.4000004999998
 20
5699.3833418000004
 10
6664.9000004999998
 20
5699.3833418000004
 10
6664.9000004999998
 20
5699.3833418000004
 10
6664.9000004999998
 20
5709.3833407999991
 10
6664.9000004999998
 20
5709.3833407999991
 10
6663.4000004999998
 20
5709.3833407999991
 10
6663.4000004999998
 20
5709.3833407999991
 10
6663.4000004999998
 20
5708.5833412999991
 10
6663.4000004999998
 20
5708.5833412999991
 10
6653.3999999999996
 20
5708.5833412999991
 10
6653.3999999999996
 20
5708.5833412999991
 10
6653.3999999999996
 20
5709.3833407999991
 10
6653.3999999999996
 20
5709.3833407999991
 10
6653.3999999999996
 20
5709.3833407999991
 10
6653.3999999999996
 20
5709.3833407999991
 10
6653.3999999999996
 20
5709.3833407999991
 10
6653.3999999999996
 20
5709.3833407999991
 10
6653.3999999999996
 20
5709.3833407999991
 10
6653.3999999999996
 20
5709.3833407999991
 10
6653.3999999999996
 20
5709.3833407999991
 10
6653.3999999999996
 20
5709.3833407999991
 10
6653.3999999999996
 20
5709.3833407999991
 10
6653.3999999999996
 20
5709.3833407999991
 10
6653.3999999999996
 20
5709.3833407999991
  0
LWPOLYLINE
  5
29D
100
AcDbEntity
  8
___E
  6
CONTINUOUS
 62
             7
100
AcDbPolyline
 90
       36
 70
             1
 10
6658.9000004999998
 20
5715.3833407999991
 10
6657.8999999999996
 20
5715.3833407999991
 10
6657.8999999999996
 20
5715.3833407999991
 10
6657.8999999999996
 20
5713.3833412999993
 10
6657.8999999999996
 20
5713.3833412999993
 10
6655.9000004999998
 20
5713.3833412999993
 10
6655.9000004999998
 20
5713.3833412999993
 10
6655.9000004999998
 20
5712.3833407999991
 10
6655.9000004999998
 20
5712.3833407999991
 10
6657.8999999999996
 20
5712.3833407999991
 10
6657.8999999999996
 20
5712.3833407999991
 10
6657.8999999999996
 20
5710.3833412999993
 10
6657.8999999999996
 20
5710.3833412999993
 10
6658.9000004999998
 20
5710.3833412999993
 10
6658.9000004999998
 20
5710.3833412999993
 10
6658.9000004999998
 20
5712.3833407999991
 10
6658.9000004999998
 20
5712.3833407999991
 10
6660.8999999999996
 20
5712.3833407999991
 10
6660.8999999999996
 20
5712.3833407999991
 10
6660.8999999999996
 20
5713.3833412999993
 10
6660.8999999999996
 20
5713.3833412999993
 10
6658.9000004999998
 20
5713.3833412999993
 10
6658.9000004999998
 20
5713.3833412999993
 10
6658.9000004999998
 20
5715.3833407999991
 10
6658.9000004999998
 20
5715.3833407999991
 10
6658.9000004999998
 20
5715.3833407999991
 10
6658.9000004999998
 20
5715.3833407999991
 10
6658.9000004999998
 20
5715.3833407999991
 10
6658.9000004999998
 20
5715.3833407999991
 10
6658.9000004999998
 20
5715.3833407999991
 10
6658.9000004999998
 20
5715.3833407999991
 10
6658.9000004999998
 20
5715.3833407999991
 10
6658.9000004999998
 20
5715.3833407999991
 10
6658.9000004999998
 20
5715.3833407999991
 10
6658.9000004999998
 20
5715.3833407999991
 10
6658.9000004999998
 20
5715.3833407999991
  0
LWPOLYLINE
  5
29B
100
AcDbEntity
  8
___E
  6
CONTINUOUS
 62
             7
100
AcDbPolyline
 90
       15
 70
             0
 10
6651.8999999999996
 20
5716.3833412999993
 10
6653.3999999999996
 20
5716.3833412999993
 10
6653.3999999999996
 20
5716.3833412999993
 10
6653.3999999999996
 20
5717.1833407999993
 10
6653.3999999999996
 20
5717.1833407999993
 10
6663.4000004999998
 20
5717.1833407999993
 10
6663.4000004999998
 20
5717.1833407999993
 10
6663.4000004999998
 20
5716.3833412999993
 10
6663.4000004999998
 20
5716.3833412999993
 10
6664.9000004999998
 20
5716.3833412999993
 10
6664.9000004999998
 20
5716.3833412999993
 10
6664.9000004999998
 20
5716.3833412999993
 10
6664.9000004999998
 20
5716.3833412999993
 10
6664.9000004999998
 20
5716.3833412999993
 10
6664.9000004999998
 20
5716.3833412999993
  0
LWPOLYLINE
  5
299
100
AcDbEntity
  8
___E
  6
CONTINUOUS
 62
             7
100
AcDbPolyline
 90
       36
 70
             1
 10
6658.9000004999998
 20
5705.3833418000004
 10
6657.8999999999996
 20
5705.3833418000004
 10
6657.8999999999996
 20
5705.3833418000004
 10
6657.8999999999996
 20
5703.3833407999991
 10
6657.8999999999996
 20
5703.3833407999991
 10
6655.9000004999998
 20
5703.3833407999991
 10
6655.9000004999998
 20
5703.3833407999991
 10
6655.9000004999998
 20
5702.3833418000004
 10
6655.9000004999998
 20
5702.3833418000004
 10
6657.8999999999996
 20
5702.3833418000004
 10
6657.8999999999996
 20
5702.3833418000004
 10
6657.8999999999996
 20
5700.3833407999991
 10
6657.8999999999996
 20
5700.3833407999991
 10
6658.9000004999998
 20
5700.3833407999991
 10
6658.9000004999998
 20
5700.3833407999991
 10
6658.9000004999998
 20
5702.3833418000004
 10
6658.9000004999998
 20
5702.3833418000004
 10
6660.8999999999996
 20
5702.3833418000004
 10
6660.8999999999996
 20
5702.3833418000004
 10
6660.8999999999996
 20
5703.3833407999991
 10
6660.8999999999996
 20
5703.3833407999991
 10
6658.9000004999998
 20
5703.3833407999991
 10
6658.9000004999998
 20
5703.3833407999991
 10
6658.9000004999998
 20
5705.3833418000004
 10
6658.9000004999998
 20
5705.3833418000004
 10
6658.9000004999998
 20
5705.3833418000004
 10
6658.9000004999998
 20
5705.3833418000004
 10
6658.9000004999998
 20
5705.3833418000004
 10
6658.9000004999998
 20
5705.3833418000004
 10
6658.9000004999998
 20
5705.3833418000004
 10
6658.9000004999998
 20
5705.3833418000004
 10
6658.9000004999998
 20
5705.3833418000004
 10
6658.9000004999998
 20
5705.3833418000004
 10
6658.9000004999998
 20
5705.3833418000004
 10
6658.9000004999998
 20
5705.3833418000004
 10
6658.9000004999998
 20
5705.3833418000004
  0
LWPOLYLINE
  5
297
100
AcDbEntity
  8
___E
  6
CONTINUOUS
 62
             7
100
AcDbPolyline
 90
       36
 70
             1
 10
6658.9000004999998
 20
5695.3833412999993
 10
6657.8999999999996
 20
5695.3833412999993
 10
6657.8999999999996
 20
5695.3833412999993
 10
6657.8999999999996
 20
5693.3833418000004
 10
6657.8999999999996
 20
5693.3833418000004
 10
6655.9000004999998
 20
5693.3833418000004
 10
6655.9000004999998
 20
5693.3833418000004
 10
6655.9000004999998
 20
5692.3833412999993
 10
6655.9000004999998
 20
5692.3833412999993
 10
6657.8999999999996
 20
5692.3833412999993
 10
6657.8999999999996
 20
5692.3833412999993
 10
6657.8999999999996
 20
5690.3833418000004
 10
6657.8999999999996
 20
5690.3833418000004
 10
6658.9000004999998
 20
5690.3833418000004
 10
6658.9000004999998
 20
5690.3833418000004
 10
6658.9000004999998
 20
5692.3833412999993
 10
6658.9000004999998
 20
5692.3833412999993
 10
6660.8999999999996
 20
5692.3833412999993
 10
6660.8999999999996
 20
5692.3833412999993
 10
6660.8999999999996
 20
5693.3833418000004
 10
6660.8999999999996
 20
5693.3833418000004
 10
6658.9000004999998
 20
5693.3833418000004
 10
6658.9000004999998
 20
5693.3833418000004
 10
6658.9000004999998
 20
5695.3833412999993
 10
6658.9000004999998
 20
5695.3833412999993
 10
6658.9000004999998
 20
5695.3833412999993
 10
6658.9000004999998
 20
5695.3833412999993
 10
6658.9000004999998
 20
5695.3833412999993
 10
6658.9000004999998
 20
5695.3833412999993
 10
6658.9000004999998
 20
5695.3833412999993
 10
6658.9000004999998
 20
5695.3833412999993
 10
6658.9000004999998
 20
5695.3833412999993
 10
6658.9000004999998
 20
5695.3833412999993
 10
6658.9000004999998
 20
5695.3833412999993
 10
6658.9000004999998
 20
5695.3833412999993
 10
6658.9000004999998
 20
5695.3833412999993
  0
LWPOLYLINE
  5
295
100
AcDbEntity
  8
___E
  6
CONTINUOUS
 62
             7
100
AcDbPolyline
 90
       15
 70
             0
 10
6651.8999999999996
 20
5696.3833418000004
 10
6653.3999999999996
 20
5696.3833418000004
 10
6653.3999999999996
 20
5696.3833418000004
 10
6653.3999999999996
 20
5697.1833413000004
 10
6653.3999999999996
 20
5697.1833413000004
 10
6663.4000004999998
 20
5697.1833413000004
 10
6663.4000004999998
 20
5697.1833413000004
 10
6663.4000004999998
 20
5696.3833418000004
 10
6663.4000004999998
 20
5696.3833418000004
 10
6664.9000004999998
 20
5696.3833418000004
 10
6664.9000004999998
 20
5696.3833418000004
 10
6664.9000004999998
 20
5696.3833418000004
 10
6664.9000004999998
 20
5696.3833418000004
 10
6664.9000004999998
 20
5696.3833418000004
 10
6664.9000004999998
 20
5696.3833418000004
  0
LWPOLYLINE
  5
293
100
AcDbEntity
  8
___E
  6
CONTINUOUS
 62
             7
100
AcDbPolyline
 90
       36
 70
             1
 10
6653.3999999999996
 20
5699.3833418000004
 10
6651.8999999999996
 20
5699.3833418000004
 10
6651.8999999999996
 20
5699.3833418000004
 10
6651.8999999999996
 20
5689.3833412999993
 10
6651.8999999999996
 20
5689.3833412999993
 10
6653.3999999999996
 20
5689.3833412999993
 10
6653.3999999999996
 20
5689.3833412999993
 10
6653.3999999999996
 20
5688.5833417999993
 10
6653.3999999999996
 20
5688.5833417999993
 10
6663.4000004999998
 20
5688.5833417999993
 10
6663.4000004999998
 20
5688.5833417999993
 10
6663.4000004999998
 20
5689.3833412999993
 10
6663.4000004999998
 20
5689.3833412999993
 10
6664.9000004999998
 20
5689.3833412999993
 10
6664.9000004999998
 20
5689.3833412999993
 10
6664.9000004999998
 20
5699.3833418000004
 10
6664.9000004999998
 20
5699.3833418000004
 10
6663.4000004999998
 20
5699.3833418000004
 10
6663.4000004999998
 20
5699.3833418000004
 10
6663.4000004999998
 20
5698.583340799999
 10
6663.4000004999998
 20
5698.583340799999
 10
6653.3999999999996
 20
5698.583340799999
 10
6653.3999999999996
 20
5698.583340799999
 10
6653.3999999999996
 20
5699.3833418000004
 10
6653.3999999999996
 20
5699.3833418000004
 10
6653.3999999999996
 20
5699.3833418000004
 10
6653.3999999999996
 20
5699.3833418000004
 10
6653.3999999999996
 20
5699.3833418000004
 10
6653.3999999999996
 20
5699.3833418000004
 10
6653.3999999999996
 20
5699.3833418000004
 10
6653.3999999999996
 20
5699.3833418000004
 10
6653.3999999999996
 20
5699.3833418000004
 10
6653.3999999999996
 20
5699.3833418000004
 10
6653.3999999999996
 20
5699.3833418000004
 10
6653.3999999999996
 20
5699.3833418000004
 10
6653.3999999999996
 20
5699.3833418000004
  0
LWPOLYLINE
  5
291
100
AcDbEntity
  8
___E
  6
CONTINUOUS
 62
             7
100
AcDbPolyline
 90
       15
 70
             0
 10
6651.8999999999996
 20
5706.3833407999991
 10
6653.3999999999996
 20
5706.3833407999991
 10
6653.3999999999996
 20
5706.3833407999991
 10
6653.3999999999996
 20
5707.1833417999997
 10
6653.3999999999996
 20
5707.1833417999997
 10
6663.4000004999998
 20
5707.1833417999997
 10
6663.4000004999998
 20
5707.1833417999997
 10
6663.4000004999998
 20
5706.3833407999991
 10
6663.4000004999998
 20
5706.3833407999991
 10
6664.9000004999998
 20
5706.3833407999991
 10
6664.9000004999998
 20
5706.3833407999991
 10
6664.9000004999998
 20
5706.3833407999991
 10
6664.9000004999998
 20
5706.3833407999991
 10
6664.9000004999998
 20
5706.3833407999991
 10
6664.9000004999998
 20
5706.3833407999991
  0
LWPOLYLINE
  5
28F
100
AcDbEntity
  8
___E
  6
CONTINUOUS
 62
             7
100
AcDbPolyline
 90
       36
 70
             1
 10
6658.9000004999998
 20
5735.3833418000004
 10
6657.8999999999996
 20
5735.3833418000004
 10
6657.8999999999996
 20
5735.3833418000004
 10
6657.8999999999996
 20
5733.3833407999991
 10
6657.8999999999996
 20
5733.3833407999991
 10
6655.9000004999998
 20
5733.3833407999991
 10
6655.9000004999998
 20
5733.3833407999991
 10
6655.9000004999998
 20
5732.3833418000004
 10
6655.9000004999998
 20
5732.3833418000004
 10
6657.8999999999996
 20
5732.3833418000004
 10
6657.8999999999996
 20
5732.3833418000004
 10
6657.8999999999996
 20
5730.3833407999991
 10
6657.8999999999996
 20
5730.3833407999991
 10
6658.9000004999998
 20
5730.3833407999991
 10
6658.9000004999998
 20
5730.3833407999991
 10
6658.9000004999998
 20
5732.3833418000004
 10
6658.9000004999998
 20
5732.3833418000004
 10
6660.8999999999996
 20
5732.3833418000004
 10
6660.8999999999996
 20
5732.3833418000004
 10
6660.8999999999996
 20
5733.3833407999991
 10
6660.8999999999996
 20
5733.3833407999991
 10
6658.9000004999998
 20
5733.3833407999991
 10
6658.9000004999998
 20
5733.3833407999991
 10
6658.9000004999998
 20
5735.3833418000004
 10
6658.9000004999998
 20
5735.3833418000004
 10
6658.9000004999998
 20
5735.3833418000004
 10
6658.9000004999998
 20
5735.3833418000004
 10
6658.9000004999998
 20
5735.3833418000004
 10
6658.9000004999998
 20
5735.3833418000004
 10
6658.9000004999998
 20
5735.3833418000004
 10
6658.9000004999998
 20
5735.3833418000004
 10
6658.9000004999998
 20
5735.3833418000004
 10
6658.9000004999998
 20
5735.3833418000004
 10
6658.9000004999998
 20
5735.3833418000004
 10
6658.9000004999998
 20
5735.3833418000004
 10
6658.9000004999998
 20
5735.3833418000004
  0
LWPOLYLINE
  5
28D
100
AcDbEntity
  8
___E
  6
CONTINUOUS
 62
             7
100
AcDbPolyline
 90
       36
 70
             1
 10
6658.9000004999998
 20
5725.3833412999993
 10
6657.8999999999996
 20
5725.3833412999993
 10
6657.8999999999996
 20
5725.3833412999993
 10
6657.8999999999996
 20
5723.3833418000004
 10
6657.8999999999996
 20
5723.3833418000004
 10
6655.9000004999998
 20
5723.3833418000004
 10
6655.9000004999998
 20
5723.3833418000004
 10
6655.9000004999998
 20
5722.3833412999993
 10
6655.9000004999998
 20
5722.3833412999993
 10
6657.8999999999996
 20
5722.3833412999993
 10
6657.8999999999996
 20
5722.3833412999993
 10
6657.8999999999996
 20
5720.3833418000004
 10
6657.8999999999996
 20
5720.3833418000004
 10
6658.9000004999998
 20
5720.3833418000004
 10
6658.9000004999998
 20
5720.3833418000004
 10
6658.9000004999998
 20
5722.3833412999993
 10
6658.9000004999998
 20
5722.3833412999993
 10
6660.8999999999996
 20
5722.3833412999993
 10
6660.8999999999996
 20
5722.3833412999993
 10
6660.8999999999996
 20
5723.3833418000004
 10
6660.8999999999996
 20
5723.3833418000004
 10
6658.9000004999998
 20
5723.3833418000004
 10
6658.9000004999998
 20
5723.3833418000004
 10
6658.9000004999998
 20
5725.3833412999993
 10
6658.9000004999998
 20
5725.3833412999993
 10
6658.9000004999998
 20
5725.3833412999993
 10
6658.9000004999998
 20
5725.3833412999993
 10
6658.9000004999998
 20
5725.3833412999993
 10
6658.9000004999998
 20
5725.3833412999993
 10
6658.9000004999998
 20
5725.3833412999993
 10
6658.9000004999998
 20
5725.3833412999993
 10
6658.9000004999998
 20
5725.3833412999993
 10
6658.9000004999998
 20
5725.3833412999993
 10
6658.9000004999998
 20
5725.3833412999993
 10
6658.9000004999998
 20
5725.3833412999993
 10
6658.9000004999998
 20
5725.3833412999993
  0
LWPOLYLINE
  5
28B
100
AcDbEntity
  8
___E
  6
CONTINUOUS
 62
             7
100
AcDbPolyline
 90
       15
 70
             0
 10
6651.8999999999996
 20
5726.3833418000004
 10
6653.3999999999996
 20
5726.3833418000004
 10
6653.3999999999996
 20
5726.3833418000004
 10
6653.3999999999996
 20
5727.1833413000004
 10
6653.3999999999996
 20
5727.1833413000004
 10
6663.4000004999998
 20
5727.1833413000004
 10
6663.4000004999998
 20
5727.1833413000004
 10
6663.4000004999998
 20
5726.3833418000004
 10
6663.4000004999998
 20
5726.3833418000004
 10
6664.9000004999998
 20
5726.3833418000004
 10
6664.9000004999998
 20
5726.3833418000004
 10
6664.9000004999998
 20
5726.3833418000004
 10
6664.9000004999998
 20
5726.3833418000004
 10
6664.9000004999998
 20
5726.3833418000004
 10
6664.9000004999998
 20
5726.3833418000004
  0
LWPOLYLINE
  5
289
100
AcDbEntity
  8
___E
  6
CONTINUOUS
 62
             7
100
AcDbPolyline
 90
       36
 70
             1
 10
6653.3999999999996
 20
5729.3833418000004
 10
6651.8999999999996
 20
5729.3833418000004
 10
6651.8999999999996
 20
5729.3833418000004
 10
6651.8999999999996
 20
5719.3833412999993
 10
6651.8999999999996
 20
5719.3833412999993
 10
6653.3999999999996
 20
5719.3833412999993
 10
6653.3999999999996
 20
5719.3833412999993
 10
6653.3999999999996
 20
5718.5833417999993
 10
6653.3999999999996
 20
5718.5833417999993
 10
6663.4000004999998
 20
5718.5833417999993
 10
6663.4000004999998
 20
5718.5833417999993
 10
6663.4000004999998
 20
5719.3833412999993
 10
6663.4000004999998
 20
5719.3833412999993
 10
6664.9000004999998
 20
5719.3833412999993
 10
6664.9000004999998
 20
5719.3833412999993
 10
6664.9000004999998
 20
5729.3833418000004
 10
6664.9000004999998
 20
5729.3833418000004
 10
6663.4000004999998
 20
5729.3833418000004
 10
6663.4000004999998
 20
5729.3833418000004
 10
6663.4000004999998
 20
5728.5833407999999
 10
6663.4000004999998
 20
5728.5833407999999
 10
6653.3999999999996
 20
5728.5833407999999
 10
6653.3999999999996
 20
5728.5833407999999
 10
6653.3999999999996
 20
5729.3833418000004
 10
6653.3999999999996
 20
5729.3833418000004
 10
6653.3999999999996
 20
5729.3833418000004
 10
6653.3999999999996
 20
5729.3833418000004
 10
6653.3999999999996
 20
5729.3833418000004
 10
6653.3999999999996
 20
5729.3833418000004
 10
6653.3999999999996
 20
5729.3833418000004
 10
6653.3999999999996
 20
5729.3833418000004
 10
6653.3999999999996
 20
5729.3833418000004
 10
6653.3999999999996
 20
5729.3833418000004
 10
6653.3999999999996
 20
5729.3833418000004
 10
6653.3999999999996
 20
5729.3833418000004
 10
6653.3999999999996
 20
5729.3833418000004
  0
LWPOLYLINE
  5
287
100
AcDbEntity
  8
___E
  6
CONTINUOUS
 62
             7
100
AcDbPolyline
 90
       15
 70
             0
 10
6651.8999999999996
 20
5736.3833407999991
 10
6653.3999999999996
 20
5736.3833407999991
 10
6653.3999999999996
 20
5736.3833407999991
 10
6653.3999999999996
 20
5737.1833417999997
 10
6653.3999999999996
 20
5737.1833417999997
 10
6663.4000004999998
 20
5737.1833417999997
 10
6663.4000004999998
 20
5737.1833417999997
 10
6663.4000004999998
 20
5736.3833407999991
 10
6663.4000004999998
 20
5736.3833407999991
 10
6664.9000004999998
 20
5736.3833407999991
 10
6664.9000004999998
 20
5736.3833407999991
 10
6664.9000004999998
 20
5736.3833407999991
 10
6664.9000004999998
 20
5736.3833407999991
 10
6664.9000004999998
 20
5736.3833407999991
 10
6664.9000004999998
 20
5736.3833407999991
  0
LWPOLYLINE
  5
285
100
AcDbEntity
  8
___E
  6
CONTINUOUS
 62
             7
100
AcDbPolyline
 90
       36
 70
             1
 10
6653.3999999999996
 20
5739.3833407999991
 10
6651.8999999999996
 20
5739.3833407999991
 10
6651.8999999999996
 20
5739.3833407999991
 10
6651.8999999999996
 20
5729.3833418000004
 10
6651.8999999999996
 20
5729.3833418000004
 10
6653.3999999999996
 20
5729.3833418000004
 10
6653.3999999999996
 20
5729.3833418000004
 10
6653.3999999999996
 20
5728.5833407999999
 10
6653.3999999999996
 20
5728.5833407999999
 10
6663.4000004999998
 20
5728.5833407999999
 10
6663.4000004999998
 20
5728.5833407999999
 10
6663.4000004999998
 20
5729.3833418000004
 10
6663.4000004999998
 20
5729.3833418000004
 10
6664.9000004999998
 20
5729.3833418000004
 10
6664.9000004999998
 20
5729.3833418000004
 10
6664.9000004999998
 20
5739.3833407999991
 10
6664.9000004999998
 20
5739.3833407999991
 10
6663.4000004999998
 20
5739.3833407999991
 10
6663.4000004999998
 20
5739.3833407999991
 10
6663.4000004999998
 20
5738.5833412999991
 10
6663.4000004999998
 20
5738.5833412999991
 10
6653.3999999999996
 20
5738.5833412999991
 10
6653.3999999999996
 20
5738.5833412999991
 10
6653.3999999999996
 20
5739.3833407999991
 10
6653.3999999999996
 20
5739.3833407999991
 10
6653.3999999999996
 20
5739.3833407999991
 10
6653.3999999999996
 20
5739.3833407999991
 10
6653.3999999999996
 20
5739.3833407999991
 10
6653.3999999999996
 20
5739.3833407999991
 10
6653.3999999999996
 20
5739.3833407999991
 10
6653.3999999999996
 20
5739.3833407999991
 10
6653.3999999999996
 20
5739.3833407999991
 10
6653.3999999999996
 20
5739.3833407999991
 10
6653.3999999999996
 20
5739.3833407999991
 10
6653.3999999999996
 20
5739.3833407999991
 10
6653.3999999999996
 20
5739.3833407999991
  0
LWPOLYLINE
  5
283
100
AcDbEntity
  8
___E
  6
CONTINUOUS
 62
             7
100
AcDbPolyline
 90
       36
 70
             1
 10
6658.9000004999998
 20
5685.3833407999991
 10
6657.8999999999996
 20
5685.3833407999991
 10
6657.8999999999996
 20
5685.3833407999991
 10
6657.8999999999996
 20
5683.3833412999993
 10
6657.8999999999996
 20
5683.3833412999993
 10
6655.9000004999998
 20
5683.3833412999993
 10
6655.9000004999998
 20
5683.3833412999993
 10
6655.9000004999998
 20
5682.3833407999991
 10
6655.9000004999998
 20
5682.3833407999991
 10
6657.8999999999996
 20
5682.3833407999991
 10
6657.8999999999996
 20
5682.3833407999991
 10
6657.8999999999996
 20
5680.3833412999993
 10
6657.8999999999996
 20
5680.3833412999993
 10
6658.9000004999998
 20
5680.3833412999993
 10
6658.9000004999998
 20
5680.3833412999993
 10
6658.9000004999998
 20
5682.3833407999991
 10
6658.9000004999998
 20
5682.3833407999991
 10
6660.8999999999996
 20
5682.3833407999991
 10
6660.8999999999996
 20
5682.3833407999991
 10
6660.8999999999996
 20
5683.3833412999993
 10
6660.8999999999996
 20
5683.3833412999993
 10
6658.9000004999998
 20
5683.3833412999993
 10
6658.9000004999998
 20
5683.3833412999993
 10
6658.9000004999998
 20
5685.3833407999991
 10
6658.9000004999998
 20
5685.3833407999991
 10
6658.9000004999998
 20
5685.3833407999991
 10
6658.9000004999998
 20
5685.3833407999991
 10
6658.9000004999998
 20
5685.3833407999991
 10
6658.9000004999998
 20
5685.3833407999991
 10
6658.9000004999998
 20
5685.3833407999991
 10
6658.9000004999998
 20
5685.3833407999991
 10
6658.9000004999998
 20
5685.3833407999991
 10
6658.9000004999998
 20
5685.3833407999991
 10
6658.9000004999998
 20
5685.3833407999991
 10
6658.9000004999998
 20
5685.3833407999991
 10
6658.9000004999998
 20
5685.3833407999991
  0
LWPOLYLINE
  5
281
100
AcDbEntity
  8
___E
  6
CONTINUOUS
 62
             7
100
AcDbPolyline
 90
       36
 70
             1
 10
6658.9000004999998
 20
5675.3833418000004
 10
6657.8999999999996
 20
5675.3833418000004
 10
6657.8999999999996
 20
5675.3833418000004
 10
6657.8999999999996
 20
5673.3833407999991
 10
6657.8999999999996
 20
5673.3833407999991
 10
6655.9000004999998
 20
5673.3833407999991
 10
6655.9000004999998
 20
5673.3833407999991
 10
6655.9000004999998
 20
5672.3833418000004
 10
6655.9000004999998
 20
5672.3833418000004
 10
6657.8999999999996
 20
5672.3833418000004
 10
6657.8999999999996
 20
5672.3833418000004
 10
6657.8999999999996
 20
5670.3833407999991
 10
6657.8999999999996
 20
5670.3833407999991
 10
6658.9000004999998
 20
5670.3833407999991
 10
6658.9000004999998
 20
5670.3833407999991
 10
6658.9000004999998
 20
5672.3833418000004
 10
6658.9000004999998
 20
5672.3833418000004
 10
6660.8999999999996
 20
5672.3833418000004
 10
6660.8999999999996
 20
5672.3833418000004
 10
6660.8999999999996
 20
5673.3833407999991
 10
6660.8999999999996
 20
5673.3833407999991
 10
6658.9000004999998
 20
5673.3833407999991
 10
6658.9000004999998
 20
5673.3833407999991
 10
6658.9000004999998
 20
5675.3833418000004
 10
6658.9000004999998
 20
5675.3833418000004
 10
6658.9000004999998
 20
5675.3833418000004
 10
6658.9000004999998
 20
5675.3833418000004
 10
6658.9000004999998
 20
5675.3833418000004
 10
6658.9000004999998
 20
5675.3833418000004
 10
6658.9000004999998
 20
5675.3833418000004
 10
6658.9000004999998
 20
5675.3833418000004
 10
6658.9000004999998
 20
5675.3833418000004
 10
6658.9000004999998
 20
5675.3833418000004
 10
6658.9000004999998
 20
5675.3833418000004
 10
6658.9000004999998
 20
5675.3833418000004
 10
6658.9000004999998
 20
5675.3833418000004
  0
LWPOLYLINE
  5
27F
100
AcDbEntity
  8
___E
  6
CONTINUOUS
 62
             7
100
AcDbPolyline
 90
       21
 70
             0
 10
6651.8999999999996
 20
5669.3833418000004
 10
6651.8999999999996
 20
5666.3833418000004
 10
6651.8999999999996
 20
5666.3833418000004
 10
6653.3999999999996
 20
5666.3833418000004
 10
6653.3999999999996
 20
5666.3833418000004
 10
6653.3999999999996
 20
5667.1833413000004
 10
6653.3999999999996
 20
5667.1833413000004
 10
6663.4000004999998
 20
5667.1833413000004
 10
6663.4000004999998
 20
5667.1833413000004
 10
6663.4000004999998
 20
5666.3833418000004
 10
6663.4000004999998
 20
5666.3833418000004
 10
6664.9000004999998
 20
5666.3833418000004
 10
6664.9000004999998
 20
5666.3833418000004
 10
6664.9000004999998
 20
5669.3833418000004
 10
6664.9000004999998
 20
5669.3833418000004
 10
6664.9000004999998
 20
5669.3833418000004
 10
6664.9000004999998
 20
5669.3833418000004
 10
6664.9000004999998
 20
5669.3833418000004
 10
6664.9000004999998
 20
5669.3833418000004
 10
6664.9000004999998
 20
5669.3833418000004
 10
6664.9000004999998
 20
5669.3833418000004
  0
LWPOLYLINE
  5
27D
100
AcDbEntity
  8
___E
  6
CONTINUOUS
 62
             7
100
AcDbPolyline
 90
       15
 70
             0
 10
6651.8999999999996
 20
5676.3833407999991
 10
6653.3999999999996
 20
5676.3833407999991
 10
6653.3999999999996
 20
5676.3833407999991
 10
6653.3999999999996
 20
5677.1833417999997
 10
6653.3999999999996
 20
5677.1833417999997
 10
6663.4000004999998
 20
5677.1833417999997
 10
6663.4000004999998
 20
5677.1833417999997
 10
6663.4000004999998
 20
5676.3833407999991
 10
6663.4000004999998
 20
5676.3833407999991
 10
6664.9000004999998
 20
5676.3833407999991
 10
6664.9000004999998
 20
5676.3833407999991
 10
6664.9000004999998
 20
5676.3833407999991
 10
6664.9000004999998
 20
5676.3833407999991
 10
6664.9000004999998
 20
5676.3833407999991
 10
6664.9000004999998
 20
5676.3833407999991
  0
LWPOLYLINE
  5
27B
100
AcDbEntity
  8
___E
  6
CONTINUOUS
 62
             7
100
AcDbPolyline
 90
       15
 70
             0
 10
6651.8999999999996
 20
5686.3833412999993
 10
6653.3999999999996
 20
5686.3833412999993
 10
6653.3999999999996
 20
5686.3833412999993
 10
6653.3999999999996
 20
5687.1833407999993
 10
6653.3999999999996
 20
5687.1833407999993
 10
6663.4000004999998
 20
5687.1833407999993
 10
6663.4000004999998
 20
5687.1833407999993
 10
6663.4000004999998
 20
5686.3833412999993
 10
6663.4000004999998
 20
5686.3833412999993
 10
6664.9000004999998
 20
5686.3833412999993
 10
6664.9000004999998
 20
5686.3833412999993
 10
6664.9000004999998
 20
5686.3833412999993
 10
6664.9000004999998
 20
5686.3833412999993
 10
6664.9000004999998
 20
5686.3833412999993
 10
6664.9000004999998
 20
5686.3833412999993
  0
LWPOLYLINE
  5
279
100
AcDbEntity
  8
___E
  6
CONTINUOUS
 62
             7
100
AcDbPolyline
 90
       36
 70
             1
 10
6653.3999999999996
 20
5689.3833412999993
 10
6651.8999999999996
 20
5689.3833412999993
 10
6651.8999999999996
 20
5689.3833412999993
 10
6651.8999999999996
 20
5679.3833407999991
 10
6651.8999999999996
 20
5679.3833407999991
 10
6653.3999999999996
 20
5679.3833407999991
 10
6653.3999999999996
 20
5679.3833407999991
 10
6653.3999999999996
 20
5678.5833412999991
 10
6653.3999999999996
 20
5678.5833412999991
 10
6663.4000004999998
 20
5678.5833412999991
 10
6663.4000004999998
 20
5678.5833412999991
 10
6663.4000004999998
 20
5679.3833407999991
 10
6663.4000004999998
 20
5679.3833407999991
 10
6664.9000004999998
 20
5679.3833407999991
 10
6664.9000004999998
 20
5679.3833407999991
 10
6664.9000004999998
 20
5689.3833412999993
 10
6664.9000004999998
 20
5689.3833412999993
 10
6663.4000004999998
 20
5689.3833412999993
 10
6663.4000004999998
 20
5689.3833412999993
 10
6663.4000004999998
 20
5688.5833417999993
 10
6663.4000004999998
 20
5688.5833417999993
 10
6653.3999999999996
 20
5688.5833417999993
 10
6653.3999999999996
 20
5688.5833417999993
 10
6653.3999999999996
 20
5689.3833412999993
 10
6653.3999999999996
 20
5689.3833412999993
 10
6653.3999999999996
 20
5689.3833412999993
 10
6653.3999999999996
 20
5689.3833412999993
 10
6653.3999999999996
 20
5689.3833412999993
 10
6653.3999999999996
 20
5689.3833412999993
 10
6653.3999999999996
 20
5689.3833412999993
 10
6653.3999999999996
 20
5689.3833412999993
 10
6653.3999999999996
 20
5689.3833412999993
 10
6653.3999999999996
 20
5689.3833412999993
 10
6653.3999999999996
 20
5689.3833412999993
 10
6653.3999999999996
 20
5689.3833412999993
 10
6653.3999999999996
 20
5689.3833412999993
  0
LWPOLYLINE
  5
277
100
AcDbEntity
  8
___E
  6
CONTINUOUS
 62
             7
100
AcDbPolyline
 90
       12
 70
             1
 10
6651.6499995000004
 20
5666.1333412999993
 10
6665.1499995000004
 20
5666.1333412999993
 10
6665.1499995000004
 20
5666.1333412999993
 10
6665.1499995000004
 20
5739.6333412999993
 10
6665.1499995000004
 20
5739.6333412999993
 10
6651.6499995000004
 20
5739.6333412999993
 10
6651.6499995000004
 20
5739.6333412999993
 10
6651.6499995000004
 20
5666.1333412999993
 10
6651.6499995000004
 20
5666.1333412999993
 10
6651.6499995000004
 20
5666.1333412999993
 10
6651.6499995000004
 20
5666.1333412999993
 10
6651.6499995000004
 20
5666.1333412999993
  0
LWPOLYLINE
  5
275
100
AcDbEntity
  8
___E
  6
CONTINUOUS
 62
             7
100
AcDbPolyline
 90
       12
 70
             1
 10
6630.4000004999998
 20
5633.1333412999993
 10
6721.3999995000004
 20
5633.1333412999993
 10
6721.3999995000004
 20
5633.1333412999993
 10
6721.3999995000004
 20
5807.1333412999993
 10
6721.3999995000004
 20
5807.1333412999993
 10
6630.4000004999998
 20
5807.1333412999993
 10
6630.4000004999998
 20
5807.1333412999993
 10
6630.4000004999998
 20
5633.1333412999993
 10
6630.4000004999998
 20
5633.1333412999993
 10
6630.4000004999998
 20
5633.1333412999993
 10
6630.4000004999998
 20
5633.1333412999993
 10
6630.4000004999998
 20
5633.1333412999993
  0
LWPOLYLINE
  5
273
100
AcDbEntity
  8
___E
  6
CONTINUOUS
 62
             7
100
AcDbPolyline
 90
       18
 70
             1
 10
6700.9000004999998
 20
5627.1333412999993
 10
6693.1057709999995
 20
5622.6333412999993
 10
6693.1057709999995
 20
5622.6333412999993
 10
6693.1057709999995
 20
5613.6333412999993
 10
6693.1057709999995
 20
5613.6333412999993
 10
6700.9000004999998
 20
5609.1333412999993
 10
6700.9000004999998
 20
5609.1333412999993
 10
6708.6942284999996
 20
5613.6333412999993
 10
6708.6942284999996
 20
5613.6333412999993
 10
6708.6942284999996
 20
5622.6333412999993
 10
6708.6942284999996
 20
5622.6333412999993
 10
6700.9000004999998
 20
5627.1333412999993
 10
6700.9000004999998
 20
5627.1333412999993
 10
6700.9000004999998
 20
5627.1333412999993
 10
6700.9000004999998
 20
5627.1333412999993
 10
6700.9000004999998
 20
5627.1333412999993
 10
6700.9000004999998
 20
5627.1333412999993
 10
6700.9000004999998
 20
5627.1333412999993
  0
LWPOLYLINE
  5
271
100
AcDbEntity
  8
___E
  6
CONTINUOUS
 62
             7
100
AcDbPolyline
 90
       18
 70
             1
 10
6650.8999995000004
 20
5627.1333412999993
 10
6643.1057714999997
 20
5622.6333412999993
 10
6643.1057714999997
 20
5622.6333412999993
 10
6643.1057714999997
 20
5613.6333412999993
 10
6643.1057714999997
 20
5613.6333412999993
 10
6650.8999995000004
 20
5609.1333412999993
 10
6650.8999995000004
 20
5609.1333412999993
 10
6658.6942289999997
 20
5613.6333412999993
 10
6658.6942289999997
 20
5613.6333412999993
 10
6658.6942289999997
 20
5622.6333412999993
 10
6658.6942289999997
 20
5622.6333412999993
 10
6650.8999995000004
 20
5627.1333412999993
 10
6650.8999995000004
 20
5627.1333412999993
 10
6650.8999995000004
 20
5627.1333412999993
 10
6650.8999995000004
 20
5627.1333412999993
 10
6650.8999995000004
 20
5627.1333412999993
 10
6650.8999995000004
 20
5627.1333412999993
 10
6650.8999995000004
 20
5627.1333412999993
  0
LWPOLYLINE
  5
26F
100
AcDbEntity
  8
___E
  6
CONTINUOUS
 62
             7
100
AcDbPolyline
 90
        9
 70
             0
 10
6838.3999999999996
 20
5627.1333412999993
 10
6836.7999994999991
 20
5627.1333412999993
 10
6836.7999994999991
 20
5627.1333412999993
 10
6836.7999994999991
 20
5609.1333412999993
 10
6836.7999994999991
 20
5609.1333412999993
 10
6838.3999999999996
 20
5609.1333412999993
 10
6838.3999999999996
 20
5609.1333412999993
 10
6838.3999999999996
 20
5609.1333412999993
 10
6838.3999999999996
 20
5609.1333412999993
  0
CIRCLE
  5
26D
100
AcDbEntity
  8
___E
  6
CONTINUOUS
 62
             7
100
AcDbCircle
 10
6830.8999999999996
 20
5803.1333407999991
 40
3.0
  0
CIRCLE
  5
26C
100
AcDbEntity
  8
___E
  6
CONTINUOUS
 62
             7
100
AcDbCircle
 10
6697.3999995000004
 20
5668.1333407999991
 40
3.0
  0
CIRCLE
  5
26B
100
AcDbEntity
  8
___E
  6
CONTINUOUS
 62
             7
100
AcDbCircle
 10
6671.8999995000004
 20
5668.1333407999991
 40
3.0
  0
CIRCLE
  5
26A
100
AcDbEntity
  8
___E
  6
CONTINUOUS
 62
             7
100
AcDbCircle
 10
6696.8999999999996
 20
5744.1333412999993
 40
1.99999950000074
  0
CIRCLE
  5
269
100
AcDbEntity
  8
___E
  6
CONTINUOUS
 62
             7
100
AcDbCircle
 10
6696.8999999999996
 20
5753.1333412999993
 40
1.99999950000074
  0
CIRCLE
  5
268
100
AcDbEntity
  8
___E
  6
CONTINUOUS
 62
             7
100
AcDbCircle
 10
6696.8999999999996
 20
5762.1333412999993
 40
1.99999950000074
  0
CIRCLE
  5
267
100
AcDbEntity
  8
___E
  6
CONTINUOUS
 62
             7
100
AcDbCircle
 10
6696.8999999999996
 20
5744.1333412999993
 40
2.74999950000074
  0
CIRCLE
  5
266
100
AcDbEntity
  8
___E
  6
CONTINUOUS
 62
             7
100
AcDbCircle
 10
6696.8999999999996
 20
5753.1333412999993
 40
2.74999950000074
  0
CIRCLE
  5
265
100
AcDbEntity
  8
___E
  6
CONTINUOUS
 62
             7
100
AcDbCircle
 10
6696.8999999999996
 20
5762.1333412999993
 40
2.74999950000074
  0
CIRCLE
  5
264
100
AcDbEntity
  8
___E
  6
CONTINUOUS
 62
             7
100
AcDbCircle
 10
6697.3999995000004
 20
5771.1333412999993
 40
1.75000049999926
  0
CIRCLE
  5
263
100
AcDbEntity
  8
___E
  6
CONTINUOUS
 62
             7
100
AcDbCircle
 10
6658.3999995000004
 20
5712.8833418000004
 40
4.00000049999926
  0
CIRCLE
  5
262
100
AcDbEntity
  8
___E
  6
CONTINUOUS
 62
             7
100
AcDbCircle
 10
6658.3999995000004
 20
5702.8833412999993
 40
4.00000049999926
  0
CIRCLE
  5
261
100
AcDbEntity
  8
___E
  6
CONTINUOUS
 62
             7
100
AcDbCircle
 10
6658.3999995000004
 20
5692.8833407999991
 40
4.00000049999926
  0
CIRCLE
  5
260
100
AcDbEntity
  8
___E
  6
CONTINUOUS
 62
             7
100
AcDbCircle
 10
6658.3999995000004
 20
5732.8833412999993
 40
4.00000049999926
  0
CIRCLE
  5
25F
100
AcDbEntity
  8
___E
  6
CONTINUOUS
 62
             7
100
AcDbCircle
 10
6658.3999995000004
 20
5722.8833407999991
 40
4.00000049999926
  0
CIRCLE
  5
25E
100
AcDbEntity
  8
___E
  6
CONTINUOUS
 62
             7
100
AcDbCircle
 10
6658.3999995000004
 20
5682.8833418000004
 40
4.00000049999926
  0
CIRCLE
  5
25D
100
AcDbEntity
  8
___E
  6
CONTINUOUS
 62
             7
100
AcDbCircle
 10
6658.3999995000004
 20
5672.8833412999993
 40
4.00000049999926
  0
CIRCLE
  5
25C
100
AcDbEntity
  8
___E
  6
CONTINUOUS
 62
             7
100
AcDbCircle
 10
6675.8999999999996
 20
5776.1333407999991
 40
3.0
  0
CIRCLE
  5
25B
100
AcDbEntity
  8
___E
  6
CONTINUOUS
 62
             7
100
AcDbCircle
 10
6700.9000004999998
 20
5618.1333412999993
 40
9.0
  0
CIRCLE
  5
25A
100
AcDbEntity
  8
___E
  6
CONTINUOUS
 62
             7
100
AcDbCircle
 10
6650.8999995000004
 20
5618.1333412999993
 40
9.0
  0
CIRCLE
  5
259
100
AcDbEntity
  8
___E
  6
CONTINUOUS
 62
             7
100
AcDbCircle
 10
6874.8999995000004
 20
5797.1333407999991
 40
4.00000050000108
  0
CIRCLE
  5
258
100
AcDbEntity
  8
___E
  6
CONTINUOUS
 62
             7
100
AcDbCircle
 10
6874.8999995000004
 20
5643.1333418000004
 40
4.00000050000108
  0
ARC
  5
257
100
AcDbEntity
  8
___E
  6
CONTINUOUS
 62
             7
100
AcDbCircle
 10
6661.3075575000003
 20
5753.6080387999991
 40
0.55000049999926
100
AcDbArc
 50
30.76272000012282
 51
149.23727999992565
  0
ARC
  5
256
100
AcDbEntity
  8
___E
  6
CONTINUOUS
 62
             7
100
AcDbCircle
 10
6667.2151155000001
 20
5743.6833413000004
 40
0.55000050000126
100
AcDbArc
 50
-90.0
 51
30.76272000004141
  0
ARC
  5
255
100
AcDbEntity
  8
___E
  6
CONTINUOUS
 62
             7
100
AcDbCircle
 10
6655.3999995000004
 20
5743.6833413000004
 40
0.55000049999958
100
AcDbArc
 50
149.23728000000705
 51
-90.0
  0
ARC
  5
254
100
AcDbEntity
  8
___E
  6
CONTINUOUS
 62
             7
100
AcDbCircle
 10
6660.5139764999994
 20
5748.7010767999991
 40
0.16499999999948
100
AcDbArc
 50
153.09390699978965
 51
-69.35121799991933
  0
ARC
  5
253
100
AcDbEntity
  8
___E
  6
CONTINUOUS
 62
             7
100
AcDbCircle
 10
6661.4984759999998
 20
5748.349253299999
 40
0.16499999999994
100
AcDbArc
 50
-12.60158899991367
 51
113.98738400033396
  0
ARC
  5
252
100
AcDbEntity
  8
___E
  6
CONTINUOUS
 62
             7
100
AcDbCircle
 10
6783.9000004999989
 20
5668.1333407999991
 40
1.00000049999885
100
AcDbArc
 50
165.52248799999575
 51
180.0
  0
ARC
  5
251
100
AcDbEntity
  8
___E
  6
CONTINUOUS
 62
             7
100
AcDbCircle
 10
6783.9000004999989
 20
5774.1333412999993
 40
1.00000049999926
100
AcDbArc
 50
180.0
 51
-90.0
  0
ARC
  5
250
100
AcDbEntity
  8
___E
  6
CONTINUOUS
 62
             7
100
AcDbCircle
 10
6783.9000004999989
 20
5778.1333418000004
 40
1.00000049999926
100
AcDbArc
 50
90.0
 51
180.0
  0
ARC
  5
24F
100
AcDbEntity
  8
___E
  6
CONTINUOUS
 62
             7
100
AcDbCircle
 10
6787.1000000000004
 20
5712.8833418000004
 40
12.49999950000125
100
AcDbArc
 50
163.73979500000877
 51
-163.73979500000078
  0
ARC
  5
24E
100
AcDbEntity
  8
___E
  6
CONTINUOUS
 62
             7
100
AcDbCircle
 10
6787.1000000000004
 20
5722.8833407999991
 40
12.4999995000015
100
AcDbArc
 50
163.73979500000479
 51
-163.73979500000479
  0
ARC
  5
24D
100
AcDbEntity
  8
___E
  6
CONTINUOUS
 62
             7
100
AcDbCircle
 10
6787.1000000000004
 20
5732.8833412999993
 40
12.4999995000015
100
AcDbArc
 50
163.73979500000479
 51
-163.73979500000479
  0
ARC
  5
24C
100
AcDbEntity
  8
___E
  6
CONTINUOUS
 62
             7
100
AcDbCircle
 10
6787.1000000000004
 20
5672.8833412999993
 40
12.4999995000015
100
AcDbArc
 50
163.73979500000479
 51
-163.73979500000479
  0
ARC
  5
24B
100
AcDbEntity
  8
___E
  6
CONTINUOUS
 62
             7
100
AcDbCircle
 10
6787.1000000000004
 20
5682.8833418000004
 40
12.49999950000125
100
AcDbArc
 50
163.73979500000877
 51
-163.73979500000078
  0
ARC
  5
24A
100
AcDbEntity
  8
___E
  6
CONTINUOUS
 62
             7
100
AcDbCircle
 10
6787.1000000000004
 20
5692.8833407999991
 40
12.4999995000015
100
AcDbArc
 50
163.73979500000479
 51
-163.73979500000479
  0
ARC
  5
249
100
AcDbEntity
  8
___E
  6
CONTINUOUS
 62
             7
100
AcDbCircle
 10
6787.1000000000004
 20
5702.8833412999993
 40
12.4999995000015
100
AcDbArc
 50
163.73979500000479
 51
-163.73979500000479
  0
ARC
  5
248
100
AcDbEntity
  8
___E
  6
CONTINUOUS
 62
             7
100
AcDbCircle
 10
6663.4499999999998
 20
5636.6833417999997
 40
1.00000050000017
100
AcDbArc
 50
180.0
 51
-90.0
  0
ARC
  5
247
100
AcDbEntity
  8
___E
  6
CONTINUOUS
 62
             7
100
AcDbCircle
 10
6663.4499999999998
 20
5649.6833407999993
 40
1.00000050000108
100
AcDbArc
 50
90.0
 51
180.0
  0
ARC
  5
246
100
AcDbEntity
  8
___E
  6
CONTINUOUS
 62
             7
100
AcDbCircle
 10
6716.4499994999996
 20
5636.6833417999997
 40
1.00000049999926
100
AcDbArc
 50
-90.0
 51
0.0
  0
ARC
  5
245
100
AcDbEntity
  8
___E
  6
CONTINUOUS
 62
             7
100
AcDbCircle
 10
6716.4499994999996
 20
5649.6833407999993
 40
1.00000050000017
100
AcDbArc
 50
0.0
 51
90.0
  0
ARC
  5
244
100
AcDbEntity
  8
___E
  6
CONTINUOUS
 62
             7
100
AcDbCircle
 10
6705.8999999999996
 20
5600.1333412999993
 40
3.0
100
AcDbArc
 50
0.0
 51
180.0
  0
ARC
  5
243
100
AcDbEntity
  8
___E
  6
CONTINUOUS
 62
             7
100
AcDbCircle
 10
6645.8999999999996
 20
5600.1333412999993
 40
3.0
100
AcDbArc
 50
0.0
 51
180.0
  0
ARC
  5
242
100
AcDbEntity
  8
___E
  6
CONTINUOUS
 62
             7
100
AcDbCircle
 10
6645.8999999999996
 20
5814.1333418000004
 40
3.0
100
AcDbArc
 50
180.0
 51
0.0
  0
ARC
  5
241
100
AcDbEntity
  8
___E
  6
CONTINUOUS
 62
             7
100
AcDbCircle
 10
6705.8999999999996
 20
5814.1333418000004
 40
3.0
100
AcDbArc
 50
180.0
 51
0.0
  0
ARC
  5
240
100
AcDbEntity
  8
___E
  6
CONTINUOUS
 62
             7
100
AcDbCircle
 10
6629.3999999999996
 20
5800.1333407999991
 40
1.00000050000017
100
AcDbArc
 50
90.0
 51
180.0
  0
ARC
  5
23F
100
AcDbEntity
  8
___E
  6
CONTINUOUS
 62
             7
100
AcDbCircle
 10
6629.3999999999996
 20
5794.1333407999991
 40
1.00000049999926
100
AcDbArc
 50
180.0
 51
-90.0
  0
ARC
  5
23E
100
AcDbEntity
  8
___E
  6
CONTINUOUS
 62
             7
100
AcDbCircle
 10
6629.3999999999996
 20
5646.1333418000004
 40
1.00000049999926
100
AcDbArc
 50
90.0
 51
180.0
  0
ARC
  5
23D
100
AcDbEntity
  8
___E
  6
CONTINUOUS
 62
             7
100
AcDbCircle
 10
6629.3999999999996
 20
5640.1333418000004
 40
1.00000049999926
100
AcDbArc
 50
180.0
 51
-90.0
  0
ARC
  5
23C
100
AcDbEntity
  8
___E
  6
CONTINUOUS
 62
             7
100
AcDbCircle
 10
6722.3999999999996
 20
5640.1333418000004
 40
1.00000050000108
100
AcDbArc
 50
-90.0
 51
0.0
  0
ARC
  5
23B
100
AcDbEntity
  8
___E
  6
CONTINUOUS
 62
             7
100
AcDbCircle
 10
6722.3999999999996
 20
5646.1333418000004
 40
1.00000050000017
100
AcDbArc
 50
0.0
 51
90.0
  0
ARC
  5
23A
100
AcDbEntity
  8
___E
  6
CONTINUOUS
 62
             7
100
AcDbCircle
 10
6722.3999999999996
 20
5794.1333407999991
 40
1.00000050000017
100
AcDbArc
 50
-90.0
 51
0.0
  0
ARC
  5
239
100
AcDbEntity
  8
___E
  6
CONTINUOUS
 62
             7
100
AcDbCircle
 10
6722.3999999999996
 20
5800.1333407999991
 40
1.00000050000017
100
AcDbArc
 50
0.0
 51
90.0
  0
ARC
  5
238
100
AcDbEntity
  8
___E
  6
CONTINUOUS
 62
             7
100
AcDbCircle
 10
6830.2055824999989
 20
5612.361753799999
 40
1.90692750000074
100
AcDbArc
 50
111.71626399998291
 51
-114.98941799997846
  0
ARC
  5
237
100
AcDbEntity
  8
___E
  6
CONTINUOUS
 62
             7
100
AcDbCircle
 10
6830.2409089999992
 20
5623.8833407999991
 40
1.94155349999998
100
AcDbArc
 50
115.66519099999903
 51
-115.66519099999903
  0
ARC
  5
236
100
AcDbEntity
  8
___E
  6
CONTINUOUS
 62
             7
100
AcDbCircle
 10
6836.5452379999997
 20
5618.2220317999991
 40
8.14572150000027
100
AcDbArc
 50
151.30366499999062
 51
-149.87134500000232
  0
LINE
  5
156
100
AcDbEntity
  8
___E
  6
CONTINUOUS
 62
             7
100
AcDbLine
 10
6660.8349465000001
 20
5753.8893547999996
 11
6654.9273885000002
 21
5743.9646572999991
  0
LINE
  5
155
100
AcDbEntity
  8
___E
  6
CONTINUOUS
 62
             7
100
AcDbLine
 10
6655.3999995000004
 20
5743.1333407999991
 11
6667.2151155000001
 21
5743.1333407999991
  0
LINE
  5
154
100
AcDbEntity
  8
___E
  6
CONTINUOUS
 62
             7
100
AcDbLine
 10
6667.6877265000003
 20
5743.9646572999991
 11
6661.7801685000004
 21
5753.8893547999996
  0
LINE
  5
153
100
AcDbEntity
  8
___E
  6
CONTINUOUS
 62
             7
100
AcDbLine
 10
6660.7575585000004
 20
5751.988341799999
 11
6659.3825580000002
 21
5747.5883407999991
  0
LINE
  5
152
100
AcDbEntity
  8
___E
  6
CONTINUOUS
 62
             7
100
AcDbLine
 10
6660.8125575000004
 20
5744.2333417999998
 11
6660.4825575000004
 21
5745.3333412999991
  0
LINE
  5
151
100
AcDbEntity
  8
___E
  6
CONTINUOUS
 62
             7
100
AcDbLine
 10
6660.4825575000004
 20
5745.3333412999991
 11
6660.8806080000004
 21
5744.8291447999991
  0
LINE
  5
150
100
AcDbEntity
  8
___E
  6
CONTINUOUS
 62
             7
100
AcDbLine
 10
6660.8125575000004
 20
5744.2333417999998
 11
6661.8575579999997
 21
5745.0583417999997
  0
LINE
  5
14F
100
AcDbEntity
  8
___E
  6
CONTINUOUS
 62
             7
100
AcDbLine
 10
6661.8575579999997
 20
5745.0583417999997
 11
6661.2538409999997
 21
5744.8542143000004
  0
LINE
  5
14E
100
AcDbEntity
  8
___E
  6
CONTINUOUS
 62
             7
100
AcDbLine
 10
6661.2538409999997
 20
5744.8542143000004
 11
6662.4075585000001
 21
5749.2383407999996
  0
LINE
  5
14D
100
AcDbEntity
  8
___E
  6
CONTINUOUS
 62
             7
100
AcDbLine
 10
6661.8575579999997
 20
5751.7133407999991
 11
6660.3668369999996
 21
5748.7757453000004
  0
LINE
  5
14C
100
AcDbEntity
  8
___E
  6
CONTINUOUS
 62
             7
100
AcDbLine
 10
6660.5721615000002
 20
5748.5466772999998
 11
6662.4075585000001
 21
5749.2383407999996
  0
LINE
  5
14B
100
AcDbEntity
  8
___E
  6
CONTINUOUS
 62
             7
100
AcDbLine
 10
6660.8806080000004
 20
5744.8291447999991
 11
6661.6595010000001
 21
5748.3132547999994
  0
LINE
  5
14A
100
AcDbEntity
  8
___E
  6
CONTINUOUS
 62
             7
100
AcDbLine
 10
6661.4313974999995
 20
5748.5000032999997
 11
6659.3825580000002
 21
5747.5883407999991
  0
LINE
  5
149
100
AcDbEntity
  8
___E
  6
CONTINUOUS
 62
             7
100
AcDbLine
 10
6660.7575585000004
 20
5751.988341799999
 11
6661.1673074999999
 21
5751.5345917999994
  0
LINE
  5
148
100
AcDbEntity
  8
___E
  6
CONTINUOUS
 62
             7
100
AcDbLine
 10
6661.1673074999999
 20
5751.5345917999994
 11
6661.8575579999997
 21
5751.7133407999991
  0
LINE
  5
147
100
AcDbEntity
  8
___E
  6
CONTINUOUS
 62
             7
100
AcDbLine
 10
6655.1500004999998
 20
5766.1333418000004
 11
6658.1500004999998
 21
5774.1333412999993
  0
LINE
  5
146
100
AcDbEntity
  8
___E
  6
CONTINUOUS
 62
             7
100
AcDbLine
 10
6655.1500004999998
 20
5766.1333418000004
 11
6657.1499999999996
 21
5766.1333418000004
  0
LINE
  5
145
100
AcDbEntity
  8
___E
  6
CONTINUOUS
 62
             7
100
AcDbLine
 10
6657.1499999999996
 20
5766.1333418000004
 11
6657.1499999999996
 21
5762.1333412999993
  0
LINE
  5
144
100
AcDbEntity
  8
___E
  6
CONTINUOUS
 62
             7
100
AcDbLine
 10
6829.25
 20
5801.4833408000004
 11
6832.6500004999989
 21
5804.8833412999993
  0
LINE
  5
143
100
AcDbEntity
  8
___E
  6
CONTINUOUS
 62
             7
100
AcDbLine
 10
6832.5499999999993
 20
5801.4833408000004
 11
6829.2000004999991
 21
5804.8333417999993
  0
LINE
  5
142
100
AcDbEntity
  8
___E
  6
CONTINUOUS
 62
             7
100
AcDbLine
 10
6785.8999999999996
 20
5798.1333412999993
 11
6867.9000004999989
 21
5798.1333412999993
  0
LINE
  5
141
100
AcDbEntity
  8
___E
  6
CONTINUOUS
 62
             7
100
AcDbLine
 10
6785.8999999999996
 20
5808.1333418000004
 11
6785.8999999999996
 21
5798.1333412999993
  0
LINE
  5
140
100
AcDbEntity
  8
___E
  6
CONTINUOUS
 62
             7
100
AcDbLine
 10
6695.6500004999998
 20
5669.8833412999993
 11
6699.0499995
 21
5666.4833408000004
  0
LINE
  5
13F
100
AcDbEntity
  8
___E
  6
CONTINUOUS
 62
             7
100
AcDbLine
 10
6699.1000004999996
 20
5669.8333417999993
 11
6695.7499994999998
 21
5666.4833408000004
  0
LINE
  5
13E
100
AcDbEntity
  8
___E
  6
CONTINUOUS
 62
             7
100
AcDbLine
 10
6670.1500004999998
 20
5669.8833412999993
 11
6673.5499995
 21
5666.4833408000004
  0
LINE
  5
13D
100
AcDbEntity
  8
___E
  6
CONTINUOUS
 62
             7
100
AcDbLine
 10
6673.6000004999996
 20
5669.8333417999993
 11
6670.2499994999998
 21
5666.4833408000004
  0
LINE
  5
13C
100
AcDbEntity
  8
___E
  6
CONTINUOUS
 62
             7
100
AcDbLine
 10
6697.9000004999998
 20
5743.1333407999991
 11
6695.8999995000004
 21
5745.1333418000004
  0
LINE
  5
13B
100
AcDbEntity
  8
___E
  6
CONTINUOUS
 62
             7
100
AcDbLine
 10
6695.8999995000004
 20
5743.1333407999991
 11
6697.9000004999998
 21
5745.1333418000004
  0
LINE
  5
13A
100
AcDbEntity
  8
___E
  6
CONTINUOUS
 62
             7
100
AcDbLine
 10
6697.9000004999998
 20
5752.1333407999991
 11
6695.8999995000004
 21
5754.1333418000004
  0
LINE
  5
139
100
AcDbEntity
  8
___E
  6
CONTINUOUS
 62
             7
100
AcDbLine
 10
6695.8999995000004
 20
5752.1333407999991
 11
6697.9000004999998
 21
5754.1333418000004
  0
LINE
  5
138
100
AcDbEntity
  8
___E
  6
CONTINUOUS
 62
             7
100
AcDbLine
 10
6697.9000004999998
 20
5761.1333407999991
 11
6695.8999995000004
 21
5763.1333418000004
  0
LINE
  5
137
100
AcDbEntity
  8
___E
  6
CONTINUOUS
 62
             7
100
AcDbLine
 10
6695.8999995000004
 20
5761.1333407999991
 11
6697.9000004999998
 21
5763.1333418000004
  0
LINE
  5
136
100
AcDbEntity
  8
___E
  6
CONTINUOUS
 62
             7
100
AcDbLine
 10
6653.3999999999996
 20
5716.3833412999993
 11
6653.3999999999996
 21
5709.3833407999991
  0
LINE
  5
135
100
AcDbEntity
  8
___E
  6
CONTINUOUS
 62
             7
100
AcDbLine
 10
6663.4000004999998
 20
5716.3833412999993
 11
6663.4000004999998
 21
5709.3833407999991
  0
LINE
  5
134
100
AcDbEntity
  8
___E
  6
CONTINUOUS
 62
             7
100
AcDbLine
 10
6653.3999999999996
 20
5696.3833418000004
 11
6653.3999999999996
 21
5689.3833412999993
  0
LINE
  5
133
100
AcDbEntity
  8
___E
  6
CONTINUOUS
 62
             7
100
AcDbLine
 10
6663.4000004999998
 20
5696.3833418000004
 11
6663.4000004999998
 21
5689.3833412999993
  0
LINE
  5
132
100
AcDbEntity
  8
___E
  6
CONTINUOUS
 62
             7
100
AcDbLine
 10
6653.3999999999996
 20
5706.3833407999991
 11
6653.3999999999996
 21
5699.3833418000004
  0
LINE
  5
131
100
AcDbEntity
  8
___E
  6
CONTINUOUS
 62
             7
100
AcDbLine
 10
6663.4000004999998
 20
5706.3833407999991
 11
6663.4000004999998
 21
5699.3833418000004
  0
LINE
  5
130
100
AcDbEntity
  8
___E
  6
CONTINUOUS
 62
             7
100
AcDbLine
 10
6653.3999999999996
 20
5739.3833407999991
 11
6663.4000004999998
 21
5739.3833407999991
  0
LINE
  5
12F
100
AcDbEntity
  8
___E
  6
CONTINUOUS
 62
             7
100
AcDbLine
 10
6653.3999999999996
 20
5726.3833418000004
 11
6653.3999999999996
 21
5719.3833412999993
  0
LINE
  5
12E
100
AcDbEntity
  8
___E
  6
CONTINUOUS
 62
             7
100
AcDbLine
 10
6663.4000004999998
 20
5726.3833418000004
 11
6663.4000004999998
 21
5719.3833412999993
  0
LINE
  5
12D
100
AcDbEntity
  8
___E
  6
CONTINUOUS
 62
             7
100
AcDbLine
 10
6653.3999999999996
 20
5736.3833407999991
 11
6653.3999999999996
 21
5729.3833418000004
  0
LINE
  5
12C
100
AcDbEntity
  8
___E
  6
CONTINUOUS
 62
             7
100
AcDbLine
 10
6663.4000004999998
 20
5736.3833407999991
 11
6663.4000004999998
 21
5729.3833418000004
  0
LINE
  5
12B
100
AcDbEntity
  8
___E
  6
CONTINUOUS
 62
             7
100
AcDbLine
 10
6653.3999999999996
 20
5666.3833418000004
 11
6663.4000004999998
 21
5666.3833418000004
  0
LINE
  5
12A
100
AcDbEntity
  8
___E
  6
CONTINUOUS
 62
             7
100
AcDbLine
 10
6653.3999999999996
 20
5678.5833412999991
 11
6653.3999999999996
 21
5679.3833407999991
  0
LINE
  5
129
100
AcDbEntity
  8
___E
  6
CONTINUOUS
 62
             7
100
AcDbLine
 10
6663.4000004999998
 20
5678.5833412999991
 11
6653.3999999999996
 21
5678.5833412999991
  0
LINE
  5
128
100
AcDbEntity
  8
___E
  6
CONTINUOUS
 62
             7
100
AcDbLine
 10
6663.4000004999998
 20
5679.3833407999991
 11
6663.4000004999998
 21
5678.5833412999991
  0
LINE
  5
127
100
AcDbEntity
  8
___E
  6
CONTINUOUS
 62
             7
100
AcDbLine
 10
6664.9000004999998
 20
5679.3833407999991
 11
6663.4000004999998
 21
5679.3833407999991
  0
LINE
  5
126
100
AcDbEntity
  8
___E
  6
CONTINUOUS
 62
             7
100
AcDbLine
 10
6664.9000004999998
 20
5669.3833418000004
 11
6664.9000004999998
 21
5679.3833407999991
  0
LINE
  5
125
100
AcDbEntity
  8
___E
  6
CONTINUOUS
 62
             7
100
AcDbLine
 10
6663.4000004999998
 20
5669.3833418000004
 11
6664.9000004999998
 21
5669.3833418000004
  0
LINE
  5
124
100
AcDbEntity
  8
___E
  6
CONTINUOUS
 62
             7
100
AcDbLine
 10
6663.4000004999998
 20
5668.583340799999
 11
6663.4000004999998
 21
5669.3833418000004
  0
LINE
  5
123
100
AcDbEntity
  8
___E
  6
CONTINUOUS
 62
             7
100
AcDbLine
 10
6653.3999999999996
 20
5668.583340799999
 11
6663.4000004999998
 21
5668.583340799999
  0
LINE
  5
122
100
AcDbEntity
  8
___E
  6
CONTINUOUS
 62
             7
100
AcDbLine
 10
6653.3999999999996
 20
5669.3833418000004
 11
6653.3999999999996
 21
5668.583340799999
  0
LINE
  5
121
100
AcDbEntity
  8
___E
  6
CONTINUOUS
 62
             7
100
AcDbLine
 10
6651.8999999999996
 20
5669.3833418000004
 11
6653.3999999999996
 21
5669.3833418000004
  0
LINE
  5
120
100
AcDbEntity
  8
___E
  6
CONTINUOUS
 62
             7
100
AcDbLine
 10
6651.8999999999996
 20
5679.3833407999991
 11
6651.8999999999996
 21
5669.3833418000004
  0
LINE
  5
11F
100
AcDbEntity
  8
___E
  6
CONTINUOUS
 62
             7
100
AcDbLine
 10
6653.3999999999996
 20
5679.3833407999991
 11
6651.8999999999996
 21
5679.3833407999991
  0
LINE
  5
11E
100
AcDbEntity
  8
___E
  6
CONTINUOUS
 62
             7
100
AcDbLine
 10
6653.3999999999996
 20
5676.3833407999991
 11
6653.3999999999996
 21
5669.3833418000004
  0
LINE
  5
11D
100
AcDbEntity
  8
___E
  6
CONTINUOUS
 62
             7
100
AcDbLine
 10
6663.4000004999998
 20
5676.3833407999991
 11
6663.4000004999998
 21
5669.3833418000004
  0
LINE
  5
11C
100
AcDbEntity
  8
___E
  6
CONTINUOUS
 62
             7
100
AcDbLine
 10
6653.3999999999996
 20
5686.3833412999993
 11
6653.3999999999996
 21
5679.3833407999991
  0
LINE
  5
11B
100
AcDbEntity
  8
___E
  6
CONTINUOUS
 62
             7
100
AcDbLine
 10
6663.4000004999998
 20
5686.3833412999993
 11
6663.4000004999998
 21
5679.3833407999991
  0
LINE
  5
11A
100
AcDbEntity
  8
___E
  6
CONTINUOUS
 62
             7
100
AcDbLine
 10
6720.1499999999996
 20
5595.1333418000004
 11
6718.5499995
 21
5595.1333418000004
  0
LINE
  5
119
100
AcDbEntity
  8
___E
  6
CONTINUOUS
 62
             7
100
AcDbLine
 10
6633.2500005000002
 20
5595.1333418000004
 11
6631.6499999999996
 21
5595.1333418000004
  0
LINE
  5
118
100
AcDbEntity
  8
___E
  6
CONTINUOUS
 62
             7
100
AcDbLine
 10
6631.6499999999996
 20
5819.1333412999993
 11
6633.2500005000002
 21
5819.1333412999993
  0
LINE
  5
117
100
AcDbEntity
  8
___E
  6
CONTINUOUS
 62
             7
100
AcDbLine
 10
6718.5499995
 20
5819.1333412999993
 11
6720.1499999999996
 21
5819.1333412999993
  0
LINE
  5
116
100
AcDbEntity
  8
___E
  6
CONTINUOUS
 62
             7
100
AcDbLine
 10
6879.9000004999989
 20
5634.5475548000004
 11
6879.9000004999989
 21
5805.7191277999991
  0
LINE
  5
115
100
AcDbEntity
  8
___E
  6
CONTINUOUS
 62
             7
100
AcDbLine
 10
6784.8999995000004
 20
5773.1333407999991
 11
6783.9000004999989
 21
5773.1333407999991
  0
LINE
  5
114
100
AcDbEntity
  8
___E
  6
CONTINUOUS
 62
             7
100
AcDbLine
 10
6782.8999999999996
 20
5774.1333412999993
 11
6782.8999999999996
 21
5778.1333418000004
  0
LINE
  5
113
100
AcDbEntity
  8
___E
  6
CONTINUOUS
 62
             7
100
AcDbLine
 10
6783.9000004999989
 20
5779.1333407999991
 11
6784.8999995000004
 21
5779.1333407999991
  0
LINE
  5
112
100
AcDbEntity
  8
___E
  6
CONTINUOUS
 62
             7
100
AcDbLine
 10
6784.8999995000004
 20
5727.3833407999991
 11
6772.8999995000004
 21
5727.3833407999991
  0
LINE
  5
111
100
AcDbEntity
  8
___E
  6
CONTINUOUS
 62
             7
100
AcDbLine
 10
6772.8999995000004
 20
5728.3833412999993
 11
6784.8999995000004
 21
5728.3833412999993
  0
LINE
  5
110
100
AcDbEntity
  8
___E
  6
CONTINUOUS
 62
             7
100
AcDbLine
 10
6784.8999995000004
 20
5717.3833418000004
 11
6772.8999995000004
 21
5717.3833418000004
  0
LINE
  5
10F
100
AcDbEntity
  8
___E
  6
CONTINUOUS
 62
             7
100
AcDbLine
 10
6772.8999995000004
 20
5718.3833407999991
 11
6784.8999995000004
 21
5718.3833407999991
  0
LINE
  5
10E
100
AcDbEntity
  8
___E
  6
CONTINUOUS
 62
             7
100
AcDbLine
 10
6784.8999995000004
 20
5737.3833412999993
 11
6772.8999995000004
 21
5737.3833412999993
  0
LINE
  5
10D
100
AcDbEntity
  8
___E
  6
CONTINUOUS
 62
             7
100
AcDbLine
 10
6772.8999995000004
 20
5738.3833418000004
 11
6784.8999995000004
 21
5738.3833418000004
  0
LINE
  5
10C
100
AcDbEntity
  8
___E
  6
CONTINUOUS
 62
             7
100
AcDbLine
 10
6770.8999999999996
 20
5739.3833407999991
 11
6784.8999995000004
 21
5739.3833407999991
  0
LINE
  5
10B
100
AcDbEntity
  8
___E
  6
CONTINUOUS
 62
             7
100
AcDbLine
 10
6784.8999995000004
 20
5667.3833407999991
 11
6772.8999995000004
 21
5667.3833407999991
  0
LINE
  5
10A
100
AcDbEntity
  8
___E
  6
CONTINUOUS
 62
             7
100
AcDbLine
 10
6772.8999995000004
 20
5668.3833412999993
 11
6784.8999995000004
 21
5668.3833412999993
  0
LINE
  5
109
100
AcDbEntity
  8
___E
  6
CONTINUOUS
 62
             7
100
AcDbLine
 10
6770.8999999999996
 20
5666.3833418000004
 11
6784.8999995000004
 21
5666.3833418000004
  0
LINE
  5
108
100
AcDbEntity
  8
___E
  6
CONTINUOUS
 62
             7
100
AcDbLine
 10
6770.8999999999996
 20
5666.3833418000004
 11
6784.8999995000004
 21
5666.3833418000004
  0
LINE
  5
107
100
AcDbEntity
  8
___E
  6
CONTINUOUS
 62
             7
100
AcDbLine
 10
6784.8999995000004
 20
5697.3833407999991
 11
6772.8999995000004
 21
5697.3833407999991
  0
LINE
  5
106
100
AcDbEntity
  8
___E
  6
CONTINUOUS
 62
             7
100
AcDbLine
 10
6772.8999995000004
 20
5698.3833412999993
 11
6784.8999995000004
 21
5698.3833412999993
  0
LINE
  5
105
100
AcDbEntity
  8
___E
  6
CONTINUOUS
 62
             7
100
AcDbLine
 10
6784.8999995000004
 20
5687.3833418000004
 11
6772.8999995000004
 21
5687.3833418000004
  0
LINE
  5
104
100
AcDbEntity
  8
___E
  6
CONTINUOUS
 62
             7
100
AcDbLine
 10
6772.8999995000004
 20
5688.3833407999991
 11
6784.8999995000004
 21
5688.3833407999991
  0
LINE
  5
103
100
AcDbEntity
  8
___E
  6
CONTINUOUS
 62
             7
100
AcDbLine
 10
6784.8999995000004
 20
5677.3833412999993
 11
6772.8999995000004
 21
5677.3833412999993
  0
LINE
  5
102
100
AcDbEntity
  8
___E
  6
CONTINUOUS
 62
             7
100
AcDbLine
 10
6772.8999995000004
 20
5678.3833418000004
 11
6784.8999995000004
 21
5678.3833418000004
  0
LINE
  5
101
100
AcDbEntity
  8
___E
  6
CONTINUOUS
 62
             7
100
AcDbLine
 10
6784.8999995000004
 20
5707.3833412999993
 11
6772.8999995000004
 21
5707.3833412999993
  0
LINE
  5
100
100
AcDbEntity
  8
___E
  6
CONTINUOUS
 62
             7
100
AcDbLine
 10
6772.8999995000004
 20
5708.3833418000004
 11
6784.8999995000004
 21
5708.3833418000004
  0
LINE
  5
FF
100
AcDbEntity
  8
___E
  6
CONTINUOUS
 62
             7
100
AcDbLine
 10
6770.8999999999996
 20
5709.3833407999991
 11
6784.8999995000004
 21
5709.3833407999991
  0
LINE
  5
FE
100
AcDbEntity
  8
___E
  6
EXLTYPE3
 62
             7
100
AcDbLine
 10
6771.9000004999989
 20
5739.3833407999991
 11
6771.9000004999989
 21
5666.3833418000004
  0
LINE
  5
FD
100
AcDbEntity
  8
___E
  6
EXLTYPE3
 62
             7
100
AcDbLine
 10
6770.8999999999996
 20
5666.3833418000004
 11
6770.8999999999996
 21
5739.3833407999991
  0
LINE
  5
FC
100
AcDbEntity
  8
___E
  6
EXLTYPE3
 62
             7
100
AcDbLine
 10
6769.8999995000004
 20
5666.3833418000004
 11
6769.8999995000004
 21
5739.3833407999991
  0
LINE
  5
FB
100
AcDbEntity
  8
___E
  6
EXLTYPE3
 62
             7
100
AcDbLine
 10
6769.8999995000004
 20
5739.3833407999991
 11
6771.9000004999989
 21
5739.3833407999991
  0
LINE
  5
FA
100
AcDbEntity
  8
___E
  6
CONTINUOUS
 62
             7
100
AcDbLine
 10
6770.8999999999996
 20
5709.3833407999991
 11
6783.9000004999989
 21
5709.3833407999991
  0
LINE
  5
F9
100
AcDbEntity
  8
___E
  6
CONTINUOUS
 62
             7
100
AcDbLine
 10
6770.8999999999996
 20
5719.3833412999993
 11
6783.9000004999989
 21
5719.3833412999993
  0
LINE
  5
F8
100
AcDbEntity
  8
___E
  6
CONTINUOUS
 62
             7
100
AcDbLine
 10
6770.8999999999996
 20
5729.3833418000004
 11
6783.9000004999989
 21
5729.3833418000004
  0
LINE
  5
F7
100
AcDbEntity
  8
___E
  6
CONTINUOUS
 62
             7
100
AcDbLine
 10
6772.8999995000004
 20
5727.3833407999991
 11
6772.8999995000004
 21
5728.3833412999993
  0
LINE
  5
F6
100
AcDbEntity
  8
___E
  6
CONTINUOUS
 62
             7
100
AcDbLine
 10
6772.8999995000004
 20
5717.3833418000004
 11
6772.8999995000004
 21
5718.3833407999991
  0
LINE
  5
F5
100
AcDbEntity
  8
___E
  6
CONTINUOUS
 62
             7
100
AcDbLine
 10
6770.8999999999996
 20
5709.3833407999991
 11
6783.9000004999989
 21
5709.3833407999991
  0
LINE
  5
F4
100
AcDbEntity
  8
___E
  6
CONTINUOUS
 62
             7
100
AcDbLine
 10
6783.9000004999989
 20
5709.3833407999991
 11
6783.9000004999989
 21
5716.3833412999993
  0
LINE
  5
F3
100
AcDbEntity
  8
___E
  6
CONTINUOUS
 62
             7
100
AcDbLine
 10
6783.9000004999989
 20
5716.3833412999993
 11
6770.8999999999996
 21
5716.3833412999993
  0
LINE
  5
F2
100
AcDbEntity
  8
___E
  6
CONTINUOUS
 62
             7
100
AcDbLine
 10
6770.8999999999996
 20
5716.3833412999993
 11
6770.8999999999996
 21
5719.3833412999993
  0
LINE
  5
F1
100
AcDbEntity
  8
___E
  6
CONTINUOUS
 62
             7
100
AcDbLine
 10
6770.8999999999996
 20
5719.3833412999993
 11
6783.9000004999989
 21
5719.3833412999993
  0
LINE
  5
F0
100
AcDbEntity
  8
___E
  6
CONTINUOUS
 62
             7
100
AcDbLine
 10
6783.9000004999989
 20
5719.3833412999993
 11
6783.9000004999989
 21
5726.3833418000004
  0
LINE
  5
EF
100
AcDbEntity
  8
___E
  6
CONTINUOUS
 62
             7
100
AcDbLine
 10
6783.9000004999989
 20
5726.3833418000004
 11
6770.8999999999996
 21
5726.3833418000004
  0
LINE
  5
EE
100
AcDbEntity
  8
___E
  6
CONTINUOUS
 62
             7
100
AcDbLine
 10
6770.8999999999996
 20
5726.3833418000004
 11
6770.8999999999996
 21
5729.3833418000004
  0
LINE
  5
ED
100
AcDbEntity
  8
___E
  6
CONTINUOUS
 62
             7
100
AcDbLine
 10
6772.8999995000004
 20
5737.3833412999993
 11
6772.8999995000004
 21
5738.3833418000004
  0
LINE
  5
EC
100
AcDbEntity
  8
___E
  6
CONTINUOUS
 62
             7
100
AcDbLine
 10
6770.8999999999996
 20
5729.3833418000004
 11
6783.9000004999989
 21
5729.3833418000004
  0
LINE
  5
EB
100
AcDbEntity
  8
___E
  6
CONTINUOUS
 62
             7
100
AcDbLine
 10
6783.9000004999989
 20
5729.3833418000004
 11
6783.9000004999989
 21
5736.3833407999991
  0
LINE
  5
EA
100
AcDbEntity
  8
___E
  6
CONTINUOUS
 62
             7
100
AcDbLine
 10
6783.9000004999989
 20
5736.3833407999991
 11
6770.8999999999996
 21
5736.3833407999991
  0
LINE
  5
E9
100
AcDbEntity
  8
___E
  6
CONTINUOUS
 62
             7
100
AcDbLine
 10
6770.8999999999996
 20
5736.3833407999991
 11
6770.8999999999996
 21
5739.3833407999991
  0
LINE
  5
E8
100
AcDbEntity
  8
___E
  6
CONTINUOUS
 62
             7
100
AcDbLine
 10
6775.1000000000004
 20
5709.3833407999991
 11
6775.1000000000004
 21
5716.3833412999993
  0
LINE
  5
E7
100
AcDbEntity
  8
___E
  6
CONTINUOUS
 62
             7
100
AcDbLine
 10
6777.0999994999993
 20
5709.3833407999991
 11
6777.0999994999993
 21
5716.3833412999993
  0
LINE
  5
E6
100
AcDbEntity
  8
___E
  6
CONTINUOUS
 62
             7
100
AcDbLine
 10
6777.0999994999993
 20
5709.3833407999991
 11
6777.0999994999993
 21
5716.3833412999993
  0
LINE
  5
E5
100
AcDbEntity
  8
___E
  6
CONTINUOUS
 62
             7
100
AcDbLine
 10
6778.1000000000004
 20
5709.3833407999991
 11
6778.1000000000004
 21
5716.3833412999993
  0
LINE
  5
E4
100
AcDbEntity
  8
___E
  6
CONTINUOUS
 62
             7
100
AcDbLine
 10
6778.8999995000004
 20
5709.3833407999991
 11
6778.8999995000004
 21
5716.3833412999993
  0
LINE
  5
E3
100
AcDbEntity
  8
___E
  6
CONTINUOUS
 62
             7
100
AcDbLine
 10
6775.1000000000004
 20
5719.3833412999993
 11
6775.1000000000004
 21
5726.3833418000004
  0
LINE
  5
E2
100
AcDbEntity
  8
___E
  6
CONTINUOUS
 62
             7
100
AcDbLine
 10
6777.0999994999993
 20
5719.3833412999993
 11
6777.0999994999993
 21
5726.3833418000004
  0
LINE
  5
E1
100
AcDbEntity
  8
___E
  6
CONTINUOUS
 62
             7
100
AcDbLine
 10
6777.0999994999993
 20
5719.3833412999993
 11
6777.0999994999993
 21
5726.3833418000004
  0
LINE
  5
E0
100
AcDbEntity
  8
___E
  6
CONTINUOUS
 62
             7
100
AcDbLine
 10
6778.1000000000004
 20
5719.3833412999993
 11
6778.1000000000004
 21
5726.3833418000004
  0
LINE
  5
DF
100
AcDbEntity
  8
___E
  6
CONTINUOUS
 62
             7
100
AcDbLine
 10
6778.8999995000004
 20
5719.3833412999993
 11
6778.8999995000004
 21
5726.3833418000004
  0
LINE
  5
DE
100
AcDbEntity
  8
___E
  6
CONTINUOUS
 62
             7
100
AcDbLine
 10
6775.1000000000004
 20
5729.3833418000004
 11
6775.1000000000004
 21
5736.3833407999991
  0
LINE
  5
DD
100
AcDbEntity
  8
___E
  6
CONTINUOUS
 62
             7
100
AcDbLine
 10
6777.0999994999993
 20
5729.3833418000004
 11
6777.0999994999993
 21
5736.3833407999991
  0
LINE
  5
DC
100
AcDbEntity
  8
___E
  6
CONTINUOUS
 62
             7
100
AcDbLine
 10
6777.0999994999993
 20
5729.3833418000004
 11
6777.0999994999993
 21
5736.3833407999991
  0
LINE
  5
DB
100
AcDbEntity
  8
___E
  6
CONTINUOUS
 62
             7
100
AcDbLine
 10
6778.1000000000004
 20
5729.3833418000004
 11
6778.1000000000004
 21
5736.3833407999991
  0
LINE
  5
DA
100
AcDbEntity
  8
___E
  6
CONTINUOUS
 62
             7
100
AcDbLine
 10
6778.8999995000004
 20
5729.3833418000004
 11
6778.8999995000004
 21
5736.3833407999991
  0
LINE
  5
D9
100
AcDbEntity
  8
___E
  6
CONTINUOUS
 62
             7
100
AcDbLine
 10
6772.8999995000004
 20
5667.3833407999991
 11
6772.8999995000004
 21
5668.3833412999993
  0
LINE
  5
D8
100
AcDbEntity
  8
___E
  6
EXLTYPE3
 62
             7
100
AcDbLine
 10
6770.8999999999996
 20
5666.3833418000004
 11
6769.8999995000004
 21
5666.3833418000004
  0
LINE
  5
D7
100
AcDbEntity
  8
___E
  6
CONTINUOUS
 62
             7
100
AcDbLine
 10
6770.8999999999996
 20
5666.3833418000004
 11
6770.8999999999996
 21
5669.3833418000004
  0
LINE
  5
D6
100
AcDbEntity
  8
___E
  6
CONTINUOUS
 62
             7
100
AcDbLine
 10
6770.8999999999996
 20
5679.3833407999991
 11
6783.9000004999989
 21
5679.3833407999991
  0
LINE
  5
D5
100
AcDbEntity
  8
___E
  6
CONTINUOUS
 62
             7
100
AcDbLine
 10
6770.8999999999996
 20
5689.3833412999993
 11
6783.9000004999989
 21
5689.3833412999993
  0
LINE
  5
D4
100
AcDbEntity
  8
___E
  6
CONTINUOUS
 62
             7
100
AcDbLine
 10
6770.8999999999996
 20
5699.3833418000004
 11
6783.9000004999989
 21
5699.3833418000004
  0
LINE
  5
D3
100
AcDbEntity
  8
___E
  6
CONTINUOUS
 62
             7
100
AcDbLine
 10
6772.8999995000004
 20
5697.3833407999991
 11
6772.8999995000004
 21
5698.3833412999993
  0
LINE
  5
D2
100
AcDbEntity
  8
___E
  6
CONTINUOUS
 62
             7
100
AcDbLine
 10
6772.8999995000004
 20
5687.3833418000004
 11
6772.8999995000004
 21
5688.3833407999991
  0
LINE
  5
D1
100
AcDbEntity
  8
___E
  6
CONTINUOUS
 62
             7
100
AcDbLine
 10
6772.8999995000004
 20
5677.3833412999993
 11
6772.8999995000004
 21
5678.3833418000004
  0
LINE
  5
D0
100
AcDbEntity
  8
___E
  6
CONTINUOUS
 62
             7
100
AcDbLine
 10
6770.8999999999996
 20
5669.3833418000004
 11
6783.9000004999989
 21
5669.3833418000004
  0
LINE
  5
CF
100
AcDbEntity
  8
___E
  6
CONTINUOUS
 62
             7
100
AcDbLine
 10
6783.9000004999989
 20
5669.3833418000004
 11
6783.9000004999989
 21
5676.3833407999991
  0
LINE
  5
CE
100
AcDbEntity
  8
___E
  6
CONTINUOUS
 62
             7
100
AcDbLine
 10
6783.9000004999989
 20
5676.3833407999991
 11
6770.8999999999996
 21
5676.3833407999991
  0
LINE
  5
CD
100
AcDbEntity
  8
___E
  6
CONTINUOUS
 62
             7
100
AcDbLine
 10
6770.8999999999996
 20
5676.3833407999991
 11
6770.8999999999996
 21
5679.3833407999991
  0
LINE
  5
CC
100
AcDbEntity
  8
___E
  6
CONTINUOUS
 62
             7
100
AcDbLine
 10
6770.8999999999996
 20
5679.3833407999991
 11
6783.9000004999989
 21
5679.3833407999991
  0
LINE
  5
CB
100
AcDbEntity
  8
___E
  6
CONTINUOUS
 62
             7
100
AcDbLine
 10
6783.9000004999989
 20
5679.3833407999991
 11
6783.9000004999989
 21
5686.3833412999993
  0
LINE
  5
CA
100
AcDbEntity
  8
___E
  6
CONTINUOUS
 62
             7
100
AcDbLine
 10
6783.9000004999989
 20
5686.3833412999993
 11
6770.8999999999996
 21
5686.3833412999993
  0
LINE
  5
C9
100
AcDbEntity
  8
___E
  6
CONTINUOUS
 62
             7
100
AcDbLine
 10
6770.8999999999996
 20
5686.3833412999993
 11
6770.8999999999996
 21
5689.3833412999993
  0
LINE
  5
C8
100
AcDbEntity
  8
___E
  6
CONTINUOUS
 62
             7
100
AcDbLine
 10
6770.8999999999996
 20
5689.3833412999993
 11
6783.9000004999989
 21
5689.3833412999993
  0
LINE
  5
C7
100
AcDbEntity
  8
___E
  6
CONTINUOUS
 62
             7
100
AcDbLine
 10
6783.9000004999989
 20
5689.3833412999993
 11
6783.9000004999989
 21
5696.3833418000004
  0
LINE
  5
C6
100
AcDbEntity
  8
___E
  6
CONTINUOUS
 62
             7
100
AcDbLine
 10
6783.9000004999989
 20
5696.3833418000004
 11
6770.8999999999996
 21
5696.3833418000004
  0
LINE
  5
C5
100
AcDbEntity
  8
___E
  6
CONTINUOUS
 62
             7
100
AcDbLine
 10
6770.8999999999996
 20
5696.3833418000004
 11
6770.8999999999996
 21
5699.3833418000004
  0
LINE
  5
C4
100
AcDbEntity
  8
___E
  6
CONTINUOUS
 62
             7
100
AcDbLine
 10
6772.8999995000004
 20
5707.3833412999993
 11
6772.8999995000004
 21
5708.3833418000004
  0
LINE
  5
C3
100
AcDbEntity
  8
___E
  6
CONTINUOUS
 62
             7
100
AcDbLine
 10
6770.8999999999996
 20
5699.3833418000004
 11
6783.9000004999989
 21
5699.3833418000004
  0
LINE
  5
C2
100
AcDbEntity
  8
___E
  6
CONTINUOUS
 62
             7
100
AcDbLine
 10
6783.9000004999989
 20
5699.3833418000004
 11
6783.9000004999989
 21
5706.3833407999991
  0
LINE
  5
C1
100
AcDbEntity
  8
___E
  6
CONTINUOUS
 62
             7
100
AcDbLine
 10
6783.9000004999989
 20
5706.3833407999991
 11
6770.8999999999996
 21
5706.3833407999991
  0
LINE
  5
C0
100
AcDbEntity
  8
___E
  6
CONTINUOUS
 62
             7
100
AcDbLine
 10
6770.8999999999996
 20
5706.3833407999991
 11
6770.8999999999996
 21
5709.3833407999991
  0
LINE
  5
BF
100
AcDbEntity
  8
___E
  6
CONTINUOUS
 62
             7
100
AcDbLine
 10
6775.1000000000004
 20
5669.3833418000004
 11
6775.1000000000004
 21
5676.3833407999991
  0
LINE
  5
BE
100
AcDbEntity
  8
___E
  6
CONTINUOUS
 62
             7
100
AcDbLine
 10
6777.0999994999993
 20
5669.3833418000004
 11
6777.0999994999993
 21
5676.3833407999991
  0
LINE
  5
BD
100
AcDbEntity
  8
___E
  6
CONTINUOUS
 62
             7
100
AcDbLine
 10
6777.0999994999993
 20
5669.3833418000004
 11
6777.0999994999993
 21
5676.3833407999991
  0
LINE
  5
BC
100
AcDbEntity
  8
___E
  6
CONTINUOUS
 62
             7
100
AcDbLine
 10
6778.1000000000004
 20
5669.3833418000004
 11
6778.1000000000004
 21
5676.3833407999991
  0
LINE
  5
BB
100
AcDbEntity
  8
___E
  6
CONTINUOUS
 62
             7
100
AcDbLine
 10
6778.8999995000004
 20
5669.3833418000004
 11
6778.8999995000004
 21
5676.3833407999991
  0
LINE
  5
BA
100
AcDbEntity
  8
___E
  6
CONTINUOUS
 62
             7
100
AcDbLine
 10
6775.1000000000004
 20
5679.3833407999991
 11
6775.1000000000004
 21
5686.3833412999993
  0
LINE
  5
B9
100
AcDbEntity
  8
___E
  6
CONTINUOUS
 62
             7
100
AcDbLine
 10
6777.0999994999993
 20
5679.3833407999991
 11
6777.0999994999993
 21
5686.3833412999993
  0
LINE
  5
B8
100
AcDbEntity
  8
___E
  6
CONTINUOUS
 62
             7
100
AcDbLine
 10
6777.0999994999993
 20
5679.3833407999991
 11
6777.0999994999993
 21
5686.3833412999993
  0
LINE
  5
B7
100
AcDbEntity
  8
___E
  6
CONTINUOUS
 62
             7
100
AcDbLine
 10
6778.1000000000004
 20
5679.3833407999991
 11
6778.1000000000004
 21
5686.3833412999993
  0
LINE
  5
B6
100
AcDbEntity
  8
___E
  6
CONTINUOUS
 62
             7
100
AcDbLine
 10
6778.8999995000004
 20
5679.3833407999991
 11
6778.8999995000004
 21
5686.3833412999993
  0
LINE
  5
B5
100
AcDbEntity
  8
___E
  6
CONTINUOUS
 62
             7
100
AcDbLine
 10
6775.1000000000004
 20
5689.3833412999993
 11
6775.1000000000004
 21
5696.3833418000004
  0
LINE
  5
B4
100
AcDbEntity
  8
___E
  6
CONTINUOUS
 62
             7
100
AcDbLine
 10
6777.0999994999993
 20
5689.3833412999993
 11
6777.0999994999993
 21
5696.3833418000004
  0
LINE
  5
B3
100
AcDbEntity
  8
___E
  6
CONTINUOUS
 62
             7
100
AcDbLine
 10
6777.0999994999993
 20
5689.3833412999993
 11
6777.0999994999993
 21
5696.3833418000004
  0
LINE
  5
B2
100
AcDbEntity
  8
___E
  6
CONTINUOUS
 62
             7
100
AcDbLine
 10
6778.1000000000004
 20
5689.3833412999993
 11
6778.1000000000004
 21
5696.3833418000004
  0
LINE
  5
B1
100
AcDbEntity
  8
___E
  6
CONTINUOUS
 62
             7
100
AcDbLine
 10
6778.8999995000004
 20
5689.3833412999993
 11
6778.8999995000004
 21
5696.3833418000004
  0
LINE
  5
B0
100
AcDbEntity
  8
___E
  6
CONTINUOUS
 62
             7
100
AcDbLine
 10
6775.1000000000004
 20
5699.3833418000004
 11
6775.1000000000004
 21
5706.3833407999991
  0
LINE
  5
AF
100
AcDbEntity
  8
___E
  6
CONTINUOUS
 62
             7
100
AcDbLine
 10
6777.0999994999993
 20
5699.3833418000004
 11
6777.0999994999993
 21
5706.3833407999991
  0
LINE
  5
AE
100
AcDbEntity
  8
___E
  6
CONTINUOUS
 62
             7
100
AcDbLine
 10
6777.0999994999993
 20
5699.3833418000004
 11
6777.0999994999993
 21
5706.3833407999991
  0
LINE
  5
AD
100
AcDbEntity
  8
___E
  6
CONTINUOUS
 62
             7
100
AcDbLine
 10
6778.1000000000004
 20
5699.3833418000004
 11
6778.1000000000004
 21
5706.3833407999991
  0
LINE
  5
AC
100
AcDbEntity
  8
___E
  6
CONTINUOUS
 62
             7
100
AcDbLine
 10
6778.8999995000004
 20
5699.3833418000004
 11
6778.8999995000004
 21
5706.3833407999991
  0
LINE
  5
AB
100
AcDbEntity
  8
___E
  6
CONTINUOUS
 62
             7
100
AcDbLine
 10
6784.8999995000004
 20
5807.1333412999993
 11
6784.8999995000004
 21
5633.1333412999993
  0
LINE
  5
AA
100
AcDbEntity
  8
___E
  6
CONTINUOUS
 62
             7
100
AcDbLine
 10
6674.1499995000004
 20
5777.8833412999993
 11
6677.5500000000002
 21
5774.4833408000004
  0
LINE
  5
A9
100
AcDbEntity
  8
___E
  6
CONTINUOUS
 62
             7
100
AcDbLine
 10
6677.5999995000002
 20
5777.8333417999993
 11
6674.25
 21
5774.4833408000004
  0
LINE
  5
A8
100
AcDbEntity
  8
___E
  6
CONTINUOUS
 62
             7
100
AcDbLine
 10
6629.3999999999996
 20
5808.1333418000004
 11
6629.3999999999996
 21
5798.1333412999993
  0
LINE
  5
A7
100
AcDbEntity
  8
___E
  6
CONTINUOUS
 62
             7
100
AcDbLine
 10
6722.3999999999996
 20
5798.1333412999993
 11
6722.3999999999996
 21
5808.1333418000004
  0
LINE
  5
A6
100
AcDbEntity
  8
___E
  6
CONTINUOUS
 62
             7
100
AcDbLine
 10
6720.1499999999996
 20
5821.1333407999991
 11
6720.1499999999996
 21
5808.1333418000004
  0
LINE
  5
A5
100
AcDbEntity
  8
___E
  6
CONTINUOUS
 62
             7
100
AcDbLine
 10
6718.5499995
 20
5821.1333407999991
 11
6718.5499995
 21
5808.1333418000004
  0
LINE
  5
A4
100
AcDbEntity
  8
___E
  6
CONTINUOUS
 62
             7
100
AcDbLine
 10
6631.6499999999996
 20
5821.1333407999991
 11
6631.6499999999996
 21
5808.1333418000004
  0
LINE
  5
A3
100
AcDbEntity
  8
___E
  6
CONTINUOUS
 62
             7
100
AcDbLine
 10
6633.2500005000002
 20
5821.1333407999991
 11
6633.2500005000002
 21
5808.1333418000004
  0
LINE
  5
A2
100
AcDbEntity
  8
___E
  6
CONTINUOUS
 62
             7
100
AcDbLine
 10
6630.4000004999998
 20
5798.1333412999993
 11
6629.3999999999996
 21
5798.1333412999993
  0
LINE
  5
A1
100
AcDbEntity
  8
___E
  6
CONTINUOUS
 62
             7
100
AcDbLine
 10
6722.3999999999996
 20
5798.1333412999993
 11
6721.3999995000004
 21
5798.1333412999993
  0
LINE
  5
A0
100
AcDbEntity
  8
___E
  6
CONTINUOUS
 62
             7
100
AcDbLine
 10
6722.3999999999996
 20
5808.1333418000004
 11
6629.3999999999996
 21
5808.1333418000004
  0
LINE
  5
9F
100
AcDbEntity
  8
___E
  6
CONTINUOUS
 62
             7
100
AcDbLine
 10
6869.8999999999996
 20
5807.1333412999993
 11
6878.4857869999996
 21
5807.1333412999993
  0
LINE
  5
9E
100
AcDbEntity
  8
___E
  6
CONTINUOUS
 62
             7
100
AcDbLine
 10
6867.9000004999989
 20
5798.1333412999993
 11
6869.8999999999996
 21
5800.1333407999991
  0
LINE
  5
9D
100
AcDbEntity
  8
___E
  6
CONTINUOUS
 62
             7
100
AcDbLine
 10
6869.8999999999996
 20
5807.1333412999993
 11
6869.8999999999996
 21
5800.1333407999991
  0
LINE
  5
9C
100
AcDbEntity
  8
___E
  6
CONTINUOUS
 62
             7
100
AcDbLine
 10
6784.8999995000004
 20
5807.1333412999993
 11
6785.8999999999996
 21
5807.1333412999993
  0
LINE
  5
9B
100
AcDbEntity
  8
___E
  6
CONTINUOUS
 62
             7
100
AcDbLine
 10
6785.8999999999996
 20
5808.1333418000004
 11
6869.8999999999996
 21
5808.1333418000004
  0
LINE
  5
9A
100
AcDbEntity
  8
___E
  6
CONTINUOUS
 62
             7
100
AcDbLine
 10
6662.4499994999996
 20
5649.6833407999993
 11
6662.4499994999996
 21
5636.6833417999997
  0
LINE
  5
99
100
AcDbEntity
  8
___E
  6
CONTINUOUS
 62
             7
100
AcDbLine
 10
6716.4499994999996
 20
5635.6833413000004
 11
6663.4499999999998
 21
5635.6833413000004
  0
LINE
  5
98
100
AcDbEntity
  8
___E
  6
CONTINUOUS
 62
             7
100
AcDbLine
 10
6717.4499999999998
 20
5649.6833407999993
 11
6717.4499999999998
 21
5636.6833417999997
  0
LINE
  5
97
100
AcDbEntity
  8
___E
  6
CONTINUOUS
 62
             7
100
AcDbLine
 10
6663.4499999999998
 20
5650.6833413000004
 11
6716.4499994999996
 21
5650.6833413000004
  0
LINE
  5
96
100
AcDbEntity
  8
___E
  6
CONTINUOUS
 62
             7
100
AcDbLine
 10
6944.8999999999996
 20
5593.1333407999991
 11
6871.3142134999998
 21
5593.1333407999991
  0
LINE
  5
95
100
AcDbEntity
  8
___E
  6
CONTINUOUS
 62
             7
100
AcDbLine
 10
6944.8999999999996
 20
5821.1333407999991
 11
6871.3142134999998
 21
5821.1333407999991
  0
LINE
  5
94
100
AcDbEntity
  8
___E
  6
CONTINUOUS
 62
             7
100
AcDbLine
 10
6944.8999999999996
 20
5593.1333407999991
 11
6944.8999999999996
 21
5821.1333407999991
  0
LINE
  5
93
100
AcDbEntity
  8
___E
  6
CONTINUOUS
 62
             7
100
AcDbLine
 10
6633.2500005000002
 20
5607.1333418000004
 11
6718.5499995
 21
5607.1333418000004
  0
LINE
  5
92
100
AcDbEntity
  8
___E
  6
CONTINUOUS
 62
             7
100
AcDbLine
 10
6660.8029470000001
 20
5633.1333412999993
 11
6690.8999999999996
 21
5633.1333412999993
  0
LINE
  5
91
100
AcDbEntity
  8
___E
  6
CONTINUOUS
 62
             7
100
AcDbLine
 10
6708.4000004999998
 20
5632.1333407999991
 11
6708.4000004999998
 21
5633.1333412999993
  0
LINE
  5
90
100
AcDbEntity
  8
___E
  6
CONTINUOUS
 62
             7
100
AcDbLine
 10
6693.4000004999998
 20
5632.1333407999991
 11
6708.4000004999998
 21
5632.1333407999991
  0
LINE
  5
8F
100
AcDbEntity
  8
___E
  6
CONTINUOUS
 62
             7
100
AcDbLine
 10
6693.4000004999998
 20
5633.1333412999993
 11
6693.4000004999998
 21
5632.1333407999991
  0
LINE
  5
8E
100
AcDbEntity
  8
___E
  6
CONTINUOUS
 62
             7
100
AcDbLine
 10
6690.8999999999996
 20
5608.1333407999991
 11
6690.8999999999996
 21
5633.1333412999993
  0
LINE
  5
8D
100
AcDbEntity
  8
___E
  6
CONTINUOUS
 62
             7
100
AcDbLine
 10
6710.8999995000004
 20
5608.1333407999991
 11
6710.8999995000004
 21
5633.1333412999993
  0
LINE
  5
8C
100
AcDbEntity
  8
___E
  6
CONTINUOUS
 62
             7
100
AcDbLine
 10
6690.8999999999996
 20
5608.1333407999991
 11
6710.8999995000004
 21
5608.1333407999991
  0
LINE
  5
8B
100
AcDbEntity
  8
___E
  6
CONTINUOUS
 62
             7
100
AcDbLine
 10
6697.2499994999998
 20
5621.7833407999997
 11
6705.0499995
 21
5613.9833408000004
  0
LINE
  5
8A
100
AcDbEntity
  8
___E
  6
CONTINUOUS
 62
             7
100
AcDbLine
 10
6704.6500004999998
 20
5621.8833412999993
 11
6696.6499995000004
 21
5613.8833418000004
  0
LINE
  5
89
100
AcDbEntity
  8
___E
  6
CONTINUOUS
 62
             7
100
AcDbLine
 10
6640.9000004999998
 20
5608.1333407999991
 11
6660.8999999999996
 21
5608.1333407999991
  0
LINE
  5
88
100
AcDbEntity
  8
___E
  6
CONTINUOUS
 62
             7
100
AcDbLine
 10
6658.3999995000004
 20
5632.1333407999991
 11
6658.3999995000004
 21
5633.1333412999993
  0
LINE
  5
87
100
AcDbEntity
  8
___E
  6
CONTINUOUS
 62
             7
100
AcDbLine
 10
6643.3999995000004
 20
5632.1333407999991
 11
6658.3999995000004
 21
5632.1333407999991
  0
LINE
  5
86
100
AcDbEntity
  8
___E
  6
CONTINUOUS
 62
             7
100
AcDbLine
 10
6643.3999995000004
 20
5633.1333412999993
 11
6643.3999995000004
 21
5632.1333407999991
  0
LINE
  5
85
100
AcDbEntity
  8
___E
  6
CONTINUOUS
 62
             7
100
AcDbLine
 10
6660.8999999999996
 20
5608.1333407999991
 11
6660.8999999999996
 21
5633.1333412999993
  0
LINE
  5
84
100
AcDbEntity
  8
___E
  6
CONTINUOUS
 62
             7
100
AcDbLine
 10
6640.9000004999998
 20
5608.1333407999991
 11
6640.9000004999998
 21
5633.1333412999993
  0
LINE
  5
83
100
AcDbEntity
  8
___E
  6
CONTINUOUS
 62
             7
100
AcDbLine
 10
6647.25
 20
5621.7833407999997
 11
6655.0500000000002
 21
5613.9833408000004
  0
LINE
  5
82
100
AcDbEntity
  8
___E
  6
CONTINUOUS
 62
             7
100
AcDbLine
 10
6654.6499995000004
 20
5621.8833412999993
 11
6646.6499999999996
 21
5613.8833418000004
  0
LINE
  5
81
100
AcDbEntity
  8
___E
  6
CONTINUOUS
 62
             7
100
AcDbLine
 10
6650.3142134999998
 20
5593.1333407999991
 11
6701.4857864999994
 21
5593.1333407999991
  0
LINE
  5
80
100
AcDbEntity
  8
___E
  6
CONTINUOUS
 62
             7
100
AcDbLine
 10
6710.3142134999998
 20
5593.1333407999991
 11
6720.1499999999996
 21
5593.1333407999991
  0
LINE
  5
7F
100
AcDbEntity
  8
___E
  6
CONTINUOUS
 62
             7
100
AcDbLine
 10
6708.8999999999996
 20
5594.5475542999993
 11
6708.8999999999996
 21
5600.1333412999993
  0
LINE
  5
7E
100
AcDbEntity
  8
___E
  6
CONTINUOUS
 62
             7
100
AcDbLine
 10
6710.3142134999998
 20
5593.1333407999991
 11
6708.8999999999996
 21
5594.5475542999993
  0
LINE
  5
7D
100
AcDbEntity
  8
___E
  6
CONTINUOUS
 62
             7
100
AcDbLine
 10
6701.4857864999994
 20
5593.1333407999991
 11
6702.8999999999996
 21
5594.5475542999993
  0
LINE
  5
7C
100
AcDbEntity
  8
___E
  6
CONTINUOUS
 62
             7
100
AcDbLine
 10
6702.8999999999996
 20
5594.5475542999993
 11
6702.8999999999996
 21
5600.1333412999993
  0
LINE
  5
7B
100
AcDbEntity
  8
___E
  6
CONTINUOUS
 62
             7
100
AcDbLine
 10
6641.4857864999994
 20
5593.1333407999991
 11
6631.6499999999996
 21
5593.1333407999991
  0
LINE
  5
7A
100
AcDbEntity
  8
___E
  6
CONTINUOUS
 62
             7
100
AcDbLine
 10
6648.8999999999996
 20
5594.5475542999993
 11
6648.8999999999996
 21
5600.1333412999993
  0
LINE
  5
79
100
AcDbEntity
  8
___E
  6
CONTINUOUS
 62
             7
100
AcDbLine
 10
6650.3142134999998
 20
5593.1333407999991
 11
6648.8999999999996
 21
5594.5475542999993
  0
LINE
  5
78
100
AcDbEntity
  8
___E
  6
CONTINUOUS
 62
             7
100
AcDbLine
 10
6641.4857864999994
 20
5593.1333407999991
 11
6642.8999999999996
 21
5594.5475542999993
  0
LINE
  5
77
100
AcDbEntity
  8
___E
  6
CONTINUOUS
 62
             7
100
AcDbLine
 10
6642.8999999999996
 20
5594.5475542999993
 11
6642.8999999999996
 21
5600.1333412999993
  0
LINE
  5
76
100
AcDbEntity
  8
___E
  6
CONTINUOUS
 62
             7
100
AcDbLine
 10
6650.3142134999998
 20
5821.1333407999991
 11
6701.4857864999994
 21
5821.1333407999991
  0
LINE
  5
75
100
AcDbEntity
  8
___E
  6
CONTINUOUS
 62
             7
100
AcDbLine
 10
6641.4857864999994
 20
5821.1333407999991
 11
6631.6499999999996
 21
5821.1333407999991
  0
LINE
  5
74
100
AcDbEntity
  8
___E
  6
CONTINUOUS
 62
             7
100
AcDbLine
 10
6650.3142134999998
 20
5821.1333407999991
 11
6648.8999999999996
 21
5819.7191272999999
  0
LINE
  5
73
100
AcDbEntity
  8
___E
  6
CONTINUOUS
 62
             7
100
AcDbLine
 10
6641.4857864999994
 20
5821.1333407999991
 11
6642.8999999999996
 21
5819.7191272999999
  0
LINE
  5
72
100
AcDbEntity
  8
___E
  6
CONTINUOUS
 62
             7
100
AcDbLine
 10
6642.8999999999996
 20
5819.7191272999999
 11
6642.8999999999996
 21
5814.1333418000004
  0
LINE
  5
71
100
AcDbEntity
  8
___E
  6
CONTINUOUS
 62
             7
100
AcDbLine
 10
6648.8999999999996
 20
5819.7191272999999
 11
6648.8999999999996
 21
5814.1333418000004
  0
LINE
  5
70
100
AcDbEntity
  8
___E
  6
CONTINUOUS
 62
             7
100
AcDbLine
 10
6710.3142134999998
 20
5821.1333407999991
 11
6720.1499999999996
 21
5821.1333407999991
  0
LINE
  5
6F
100
AcDbEntity
  8
___E
  6
CONTINUOUS
 62
             7
100
AcDbLine
 10
6702.8999999999996
 20
5819.7191272999999
 11
6702.8999999999996
 21
5814.1333418000004
  0
LINE
  5
6E
100
AcDbEntity
  8
___E
  6
CONTINUOUS
 62
             7
100
AcDbLine
 10
6708.8999999999996
 20
5819.7191272999999
 11
6708.8999999999996
 21
5814.1333418000004
  0
LINE
  5
6D
100
AcDbEntity
  8
___E
  6
CONTINUOUS
 62
             7
100
AcDbLine
 10
6710.3142134999998
 20
5821.1333407999991
 11
6708.8999999999996
 21
5819.7191272999999
  0
LINE
  5
6C
100
AcDbEntity
  8
___E
  6
CONTINUOUS
 62
             7
100
AcDbLine
 10
6701.4857864999994
 20
5821.1333407999991
 11
6702.8999999999996
 21
5819.7191272999999
  0
LINE
  5
6B
100
AcDbEntity
  8
___E
  6
CONTINUOUS
 62
             7
100
AcDbLine
 10
6628.3999995000004
 20
5794.1333407999991
 11
6628.3999995000004
 21
5800.1333407999991
  0
LINE
  5
6A
100
AcDbEntity
  8
___E
  6
CONTINUOUS
 62
             7
100
AcDbLine
 10
6630.4000004999998
 20
5793.1333418000004
 11
6629.3999999999996
 21
5793.1333418000004
  0
LINE
  5
69
100
AcDbEntity
  8
___E
  6
CONTINUOUS
 62
             7
100
AcDbLine
 10
6629.3999999999996
 20
5647.1333407999991
 11
6630.4000004999998
 21
5647.1333407999991
  0
LINE
  5
68
100
AcDbEntity
  8
___E
  6
CONTINUOUS
 62
             7
100
AcDbLine
 10
6628.3999995000004
 20
5640.1333418000004
 11
6628.3999995000004
 21
5646.1333418000004
  0
LINE
  5
67
100
AcDbEntity
  8
___E
  6
CONTINUOUS
 62
             7
100
AcDbLine
 10
6630.4000004999998
 20
5639.1333412999993
 11
6629.3999999999996
 21
5639.1333412999993
  0
LINE
  5
66
100
AcDbEntity
  8
___E
  6
CONTINUOUS
 62
             7
100
AcDbLine
 10
6631.6499999999996
 20
5633.1333412999993
 11
6631.6499999999996
 21
5593.1333407999991
  0
LINE
  5
65
100
AcDbEntity
  8
___E
  6
CONTINUOUS
 62
             7
100
AcDbLine
 10
6633.2500005000002
 20
5633.1333412999993
 11
6633.2500005000002
 21
5593.1333407999991
  0
LINE
  5
64
100
AcDbEntity
  8
___E
  6
CONTINUOUS
 62
             7
100
AcDbLine
 10
6722.3999999999996
 20
5639.1333412999993
 11
6721.3999995000004
 21
5639.1333412999993
  0
LINE
  5
63
100
AcDbEntity
  8
___E
  6
CONTINUOUS
 62
             7
100
AcDbLine
 10
6723.4000004999998
 20
5646.1333418000004
 11
6723.4000004999998
 21
5640.1333418000004
  0
LINE
  5
62
100
AcDbEntity
  8
___E
  6
CONTINUOUS
 62
             7
100
AcDbLine
 10
6721.3999995000004
 20
5647.1333407999991
 11
6722.3999999999996
 21
5647.1333407999991
  0
LINE
  5
61
100
AcDbEntity
  8
___E
  6
CONTINUOUS
 62
             7
100
AcDbLine
 10
6722.3999999999996
 20
5793.1333418000004
 11
6721.3999995000004
 21
5793.1333418000004
  0
LINE
  5
60
100
AcDbEntity
  8
___E
  6
CONTINUOUS
 62
             7
100
AcDbLine
 10
6723.4000004999998
 20
5800.1333407999991
 11
6723.4000004999998
 21
5794.1333407999991
  0
LINE
  5
5F
100
AcDbEntity
  8
___E
  6
CONTINUOUS
 62
             7
100
AcDbLine
 10
6720.1499999999996
 20
5633.1333412999993
 11
6720.1499999999996
 21
5593.1333407999991
  0
LINE
  5
5E
100
AcDbEntity
  8
___E
  6
CONTINUOUS
 62
             7
100
AcDbLine
 10
6718.5499995
 20
5633.1333412999993
 11
6718.5499995
 21
5593.1333407999991
  0
LINE
  5
5D
100
AcDbEntity
  8
___E
  6
CONTINUOUS
 62
             7
100
AcDbLine
 10
6705.0499995
 20
5613.9833408000004
 11
6707.2012274999997
 21
5611.8334072999996
  0
LINE
  5
5C
100
AcDbEntity
  8
___E
  6
CONTINUOUS
 62
             7
100
AcDbLine
 10
6707.7822210000004
 20
5612.6473147999995
 11
6705.0499995
 21
5613.9833408000004
  0
LINE
  5
5B
100
AcDbEntity
  8
___E
  6
CONTINUOUS
 62
             7
100
AcDbLine
 10
6657.8999999999996
 20
5733.3833407999991
 11
6655.6838639999996
 21
5735.4663053000004
  0
LINE
  5
5A
100
AcDbEntity
  8
___E
  6
CONTINUOUS
 62
             7
100
AcDbLine
 10
6655.1280989999996
 20
5734.6349662999992
 11
6657.8999999999996
 21
5733.3833407999991
  0
LINE
  5
59
100
AcDbEntity
  8
___E
  6
CONTINUOUS
 62
             7
100
AcDbLine
 10
6877.25
 20
5794.7833417999991
 11
6872.5500004999994
 21
5799.4833412999997
  0
LINE
  5
58
100
AcDbEntity
  8
___E
  6
CONTINUOUS
 62
             7
100
AcDbLine
 10
6872.6000000000004
 20
5794.8333412999991
 11
6877.25
 21
5799.4833412999997
  0
LINE
  5
57
100
AcDbEntity
  8
___E
  6
CONTINUOUS
 62
             7
100
AcDbLine
 10
6877.25
 20
5640.7833412999989
 11
6872.5500004999994
 21
5645.4833408000004
  0
LINE
  5
56
100
AcDbEntity
  8
___E
  6
CONTINUOUS
 62
             7
100
AcDbLine
 10
6872.6000000000004
 20
5640.833340799999
 11
6877.25
 21
5645.4833408000004
  0
LINE
  5
55
100
AcDbEntity
  8
___E
  6
CONTINUOUS
 62
             7
100
AcDbLine
 10
6832.8999995000004
 20
5625.6333412999993
 11
6832.8999995000004
 21
5632.1333407999991
  0
LINE
  5
54
100
AcDbEntity
  8
___E
  6
CONTINUOUS
 62
             7
100
AcDbLine
 10
6834.9000004999989
 20
5608.1333407999991
 11
6838.3999999999996
 21
5608.1333407999991
  0
LINE
  5
53
100
AcDbEntity
  8
___E
  6
CONTINUOUS
 62
             7
100
AcDbLine
 10
6832.8999995000004
 20
5610.6333412999993
 11
6832.8999995000004
 21
5609.1333412999993
  0
LINE
  5
52
100
AcDbEntity
  8
___E
  6
CONTINUOUS
 62
             7
100
AcDbLine
 10
6834.9000004999989
 20
5608.1333407999991
 11
6832.8999995000004
 21
5609.1333412999993
  0
LINE
  5
51
100
AcDbEntity
  8
___E
  6
CONTINUOUS
 62
             7
100
AcDbLine
 10
6834.9000004999989
 20
5633.1333412999993
 11
6832.8999995000004
 21
5632.1333407999991
  0
LINE
  5
50
100
AcDbEntity
  8
___E
  6
CONTINUOUS
 62
             7
100
AcDbLine
 10
6838.3999999999996
 20
5633.1333412999993
 11
6838.3999999999996
 21
5608.1333407999991
  0
LINE
  5
4F
100
AcDbEntity
  8
___E
  6
CONTINUOUS
 62
             7
100
AcDbLine
 10
6840.3999995000004
 20
5633.1333412999993
 11
6840.3999995000004
 21
5608.1333407999991
  0
LINE
  5
4E
100
AcDbEntity
  8
___E
  6
CONTINUOUS
 62
             7
100
AcDbLine
 10
6832.8999995000004
 20
5633.1333412999993
 11
6838.3999999999996
 21
5633.1333412999993
  0
LINE
  5
4D
100
AcDbEntity
  8
___E
  6
CONTINUOUS
 62
             7
100
AcDbLine
 10
6840.3999995000004
 20
5633.1333412999993
 11
6869.8999999999996
 21
5633.1333412999993
  0
LINE
  5
4C
100
AcDbEntity
  8
___E
  6
CONTINUOUS
 62
             7
100
AcDbLine
 10
6836.7999994999991
 20
5618.1333412999993
 11
6834.7999999999993
 21
5616.1333418000004
  0
LINE
  5
4B
100
AcDbEntity
  8
___E
  6
CONTINUOUS
 62
             7
100
AcDbLine
 10
6828.3000004999994
 20
5612.2333417999989
 11
6828.3000004999994
 21
5624.0333407999997
  0
LINE
  5
4A
100
AcDbEntity
  8
___E
  6
CONTINUOUS
 62
             7
100
AcDbLine
 10
6836.7999994999991
 20
5611.1333407999991
 11
6834.7999999999993
 21
5611.1333407999991
  0
LINE
  5
49
100
AcDbEntity
  8
___E
  6
CONTINUOUS
 62
             7
100
AcDbLine
 10
6836.7999994999991
 20
5625.1333418000004
 11
6834.7999999999993
 21
5625.1333418000004
  0
LINE
  5
48
100
AcDbEntity
  8
___E
  6
CONTINUOUS
 62
             7
100
AcDbLine
 10
6834.7999999999993
 20
5622.1333418000004
 11
6829.3999999999996
 21
5622.1333418000004
  0
LINE
  5
47
100
AcDbEntity
  8
___E
  6
CONTINUOUS
 62
             7
100
AcDbLine
 10
6834.7999999999993
 20
5614.1333407999991
 11
6829.5000004999993
 21
5614.1333407999991
  0
LINE
  5
46
100
AcDbEntity
  8
___E
  6
CONTINUOUS
 62
             7
100
AcDbLine
 10
6829.3999999999996
 20
5610.6333412999993
 11
6834.7999999999993
 21
5610.6333412999993
  0
LINE
  5
45
100
AcDbEntity
  8
___E
  6
CONTINUOUS
 62
             7
100
AcDbLine
 10
6834.7999999999993
 20
5610.6333412999993
 11
6834.7999999999993
 21
5625.6333412999993
  0
LINE
  5
44
100
AcDbEntity
  8
___E
  6
CONTINUOUS
 62
             7
100
AcDbLine
 10
6834.7999999999993
 20
5625.6333412999993
 11
6829.3999999999996
 21
5625.6333412999993
  0
LINE
  5
43
100
AcDbEntity
  8
___E
  6
CONTINUOUS
 62
             7
100
AcDbLine
 10
6834.7999999999993
 20
5618.1333412999993
 11
6836.7999994999991
 21
5620.1333407999991
  0
LINE
  5
42
100
AcDbEntity
  8
___E
  6
CONTINUOUS
 62
             7
100
AcDbLine
 10
6869.8999999999996
 20
5608.1333407999991
 11
6838.3999999999996
 21
5608.1333407999991
  0
LINE
  5
41
100
AcDbEntity
  8
___E
  6
CONTINUOUS
 62
             7
100
AcDbLine
 10
6859.8999995000004
 20
5633.1333412999993
 11
6858.9000004999989
 21
5633.1333412999993
  0
LINE
  5
40
100
AcDbEntity
  8
___E
  6
CONTINUOUS
 62
             7
100
AcDbLine
 10
6869.8999999999996
 20
5633.1333412999993
 11
6869.8999999999996
 21
5594.5475542999993
  0
LINE
  5
3F
100
AcDbEntity
  8
___E
  6
CONTINUOUS
 62
             7
100
AcDbLine
 10
6869.8999999999996
 20
5819.7191272999999
 11
6869.8999999999996
 21
5807.1333412999993
  0
LINE
  5
3E
100
AcDbEntity
  8
___E
  6
CONTINUOUS
 62
             7
100
AcDbLine
 10
6879.9000004999989
 20
5634.5475548000004
 11
6878.4857869999996
 21
5633.1333412999993
  0
LINE
  5
3D
100
AcDbEntity
  8
___E
  6
CONTINUOUS
 62
             7
100
AcDbLine
 10
6879.9000004999989
 20
5805.7191277999991
 11
6878.4857869999996
 21
5807.1333412999993
  0
LINE
  5
3C
100
AcDbEntity
  8
___E
  6
CONTINUOUS
 62
             7
100
AcDbLine
 10
6784.8999995000004
 20
5633.1333412999993
 11
6878.4857869999996
 21
5633.1333412999993
  0
LINE
  5
3B
100
AcDbEntity
  8
___E
  6
CONTINUOUS
 62
             7
100
AcDbLine
 10
6871.3142134999998
 20
5593.1333407999991
 11
6869.8999999999996
 21
5594.5475542999993
  0
LINE
  5
3A
100
AcDbEntity
  8
___E
  6
CONTINUOUS
 62
             7
100
AcDbLine
 10
6871.3142134999998
 20
5821.1333407999991
 11
6869.8999999999996
 21
5819.7191272999999
  0
LINE
  5
39
100
AcDbEntity
  8
___E
  6
CONTINUOUS
 62
             7
100
AcDbLine
 10
6720.1499999999996
 20
5601.1333418000004
 11
6720.1499999999996
 21
5605.5633412999996
  0
LINE
  5
38
100
AcDbEntity
  8
___E
  6
CONTINUOUS
 62
             7
100
AcDbLine
 10
6720.1499999999996
 20
5813.1333412999993
 11
6720.1499999999996
 21
5808.7033417999992
  0
POINT
  5
37
100
AcDbEntity
  8
___E
 62
             7
100
AcDbPoint
 10
6629.3999999999996
 20
5808.1333418000004
  0
POINT
  5
36
100
AcDbEntity
  8
___E
 62
             7
100
AcDbPoint
 10
6722.3999999999996
 20
5808.1333418000004
  0
POINT
  5
35
100
AcDbEntity
  8
___E
 62
             7
100
AcDbPoint
 10
6943.2999995
 20
5593.1333407999991
  0
POINT
  5
34
100
AcDbEntity
  8
___E
 62
             7
100
AcDbPoint
 10
6944.8999999999996
 20
5593.1333407999991
  0
POINT
  5
33
100
AcDbEntity
  8
___E
 62
             7
100
AcDbPoint
 10
6784.8999995000004
 20
5807.1333412999993
  0
POINT
  5
32
100
AcDbEntity
  8
___E
 62
             7
100
AcDbPoint
 10
6784.8999995000004
 20
5807.1333412999993
  0
POINT
  5
31
100
AcDbEntity
  8
___E
 62
             7
100
AcDbPoint
 10
6944.8999999999996
 20
5821.8833407999991
  0
POINT
  5
30
100
AcDbEntity
  8
___E
 62
             7
100
AcDbPoint
 10
6769.8999995000004
 20
5739.3833407999991
  0
POINT
  5
2F
100
AcDbEntity
  8
___E
 62
             7
100
AcDbPoint
 10
6944.8999999999996
 20
5821.1333407999991
  0
POINT
  5
2E
100
AcDbEntity
  8
___E
 62
             7
100
AcDbPoint
 10
6640.7500005000002
 20
5814.1333418000004
  0
POINT
  5
2D
100
AcDbEntity
  8
___E
 62
             7
100
AcDbPoint
 10
6640.7500005000002
 20
5600.1333412999993
  0
POINT
  5
2C
100
AcDbEntity
  8
___E
 62
             7
100
AcDbPoint
 10
6631.6499999999996
 20
5593.1333407999991
  0
POINT
  5
2B
100
AcDbEntity
  8
___E
 62
             7
100
AcDbPoint
 10
6631.6499999999996
 20
5821.1333407999991
  0
POINT
  5
2A
100
AcDbEntity
  8
___E
 62
             7
100
AcDbPoint
 10
6648.8999999999996
 20
5819.7191272999999
  0
POINT
  5
29
100
AcDbEntity
  8
___E
 62
             7
100
AcDbPoint
 10
6642.8999999999996
 20
5819.7191272999999
  0
ENDSEC
  0
SECTION
  2
OBJECTS
  0
DICTIONARY
  5
19
100
AcDbDictionary
  3
ACAD_GROUP
350
1A
  3
ACAD_MLINESTYLE
350
1B
  0
DICTIONARY
  5
1A
102
{ACAD_REACTORS
330
19
102
}
100
AcDbDictionary
  0
DICTIONARY
  5
1B
102
{ACAD_REACTORS
330
19
102
}
100
AcDbDictionary
  3
STANDARD
350
1C
  0
MLINESTYLE
  5
1C
102
{ACAD_REACTORS
330
1B
102
}
100
AcDbMlineStyle
  2
STANDARD
 70
             0
  3

 62
             0
 51
90.0
 52
90.0
 71
             2
 49
0.5
 62
           256
  6
BYLAYER
 49
-0.5
 62
           256
  6
BYLAYER
  0
ENDSEC
  0
EOF
