  0
SECTION
  2
HEADER
  9
$ACADVER
  1
AC1014
  9
$ACADMAINTVER
 70
             0
  9
$DWGCODEPAGE
  3
ANSI_1252
  9
$INSBASE
 10
0.0
 20
0.0
 30
0.0
  9
$EXTMIN
 10
1.00000000000000E+20
 20
1.00000000000000E+20
 30
1.00000000000000E+20
  9
$EXTMAX
 10
-1.00000000000000E+20
 20
-1.00000000000000E+20
 30
-1.00000000000000E+20
  9
$LIMMIN
 10
0.0
 20
0.0
  9
$LIMMAX
 10
0.0
 20
0.0
  9
$ORTHOMODE
 70
             0
  9
$REGENMODE
 70
             1
  9
$FILLMODE
 70
             1
  9
$QTEXTMODE
 70
             0
  9
$MIRRTEXT
 70
             1
  9
$DRAGMODE
 70
             2
  9
$LTSCALE
 40
1.0
  9
$OSMODE
 70
             0
  9
$ATTMODE
 70
             1
  9
$TEXTSIZE
 40
0.2
  9
$TRACEWID
 40
0.05
  9
$TEXTSTYLE
  7
STANDARD
  9
$CLAYER
  8
0
  9
$CELTYPE
  6
CONTINUOUS
  9
$CECOLOR
 62
           256
  9
$CELTSCALE
 40
1.0
  9
$DELOBJ
 70
             1
  9
$DISPSILH
 70
             0
  9
$DIMSCALE
 40
1.0
  9
$DIMASZ
 40
0.18
  9
$DIMEXO
 40
0.0625
  9
$DIMDLI
 40
0.38
  9
$DIMRND
 40
0.0
  9
$DIMDLE
 40
0.0
  9
$DIMEXE
 40
0.18
  9
$DIMTP
 40
0.0
  9
$DIMTM
 40
0.0
  9
$DIMTXT
 40
0.18
  9
$DIMCEN
 40
0.09
  9
$DIMTSZ
 40
0.0
  9
$DIMTOL
 70
             0
  9
$DIMLIM
 70
             0
  9
$DIMTIH
 70
             1
  9
$DIMTOH
 70
             1
  9
$DIMSE1
 70
             0
  9
$DIMSE2
 70
             0
  9
$DIMTAD
 70
             0
  9
$DIMZIN
 70
             0
  9
$DIMBLK
  1

  9
$DIMASO
 70
             1
  9
$DIMSHO
 70
             1
  9
$DIMPOST
  1

  9
$DIMAPOST
  1

  9
$DIMALT
 70
             0
  9
$DIMALTD
 70
             2
  9
$DIMALTF
 40
25.4
  9
$DIMLFAC
 40
1.0
  9
$DIMTOFL
 70
             0
  9
$DIMTVP
 40
0.0
  9
$DIMTIX
 70
             0
  9
$DIMSOXD
 70
             0
  9
$DIMSAH
 70
             0
  9
$DIMBLK1
  1

  9
$DIMBLK2
  1

  9
$DIMSTYLE
  2
STANDARD
  9
$DIMCLRD
 70
             0
  9
$DIMCLRE
 70
             0
  9
$DIMCLRT
 70
             0
  9
$DIMTFAC
 40
1.0
  9
$DIMGAP
 40
0.09
  9
$DIMJUST
 70
             0
  9
$DIMSD1
 70
             0
  9
$DIMSD2
 70
             0
  9
$DIMTOLJ
 70
             1
  9
$DIMTZIN
 70
             0
  9
$DIMALTZ
 70
             0
  9
$DIMALTTZ
 70
             0
  9
$DIMFIT
 70
             3
  9
$DIMUPT
 70
             0
  9
$DIMUNIT
 70
             2
  9
$DIMDEC
 70
             4
  9
$DIMTDEC
 70
             4
  9
$DIMALTU
 70
             2
  9
$DIMALTTD
 70
             2
  9
$DIMTXSTY
  7
STANDARD
  9
$DIMAUNIT
 70
             0
  9
$LUNITS
 70
             2
  9
$LUPREC
 70
             4
  9
$SKETCHINC
 40
0.1
  9
$FILLETRAD
 40
0.0
  9
$AUNITS
 70
             0
  9
$AUPREC
 70
             0
  9
$MENU
  1
acad
  9
$ELEVATION
 40
0.0
  9
$PELEVATION
 40
0.0
  9
$THICKNESS
 40
0.0
  9
$LIMCHECK
 70
             0
  9
$BLIPMODE
 70
             1
  9
$CHAMFERA
 40
0.0
  9
$CHAMFERB
 40
0.0
  9
$CHAMFERC
 40
0.0
  9
$CHAMFERD
 40
0.0
  9
$SKPOLY
 70
             0
  9
$TDCREATE
 40
0.000000000
  9
$TDUPDATE
 40
0.000000000
  9
$TDINDWG
 40
0.0000000000
  9
$TDUSRTIMER
 40
0.0000000000
  9
$USRTIMER
 70
             1
  9
$ANGBASE
 50
0.0
  9
$ANGDIR
 70
             0
  9
$PDMODE
 70
             0
  9
$PDSIZE
 40
0.0
  9
$PLINEWID
 40
0.0
  9
$COORDS
 70
             0
  9
$SPLFRAME
 70
             0
  9
$SPLINETYPE
 70
             6
  9
$SPLINESEGS
 70
             8
  9
$ATTDIA
 70
             0
  9
$ATTREQ
 70
             1
  9
$HANDLING
 70
             1
  9
$HANDSEED
  5
4DF
  9
$SURFTAB1
 70
             6
  9
$SURFTAB2
 70
             6
  9
$SURFTYPE
 70
             6
  9
$SURFU
 70
             6
  9
$SURFV
 70
             6
  9
$UCSNAME
  2

  9
$UCSORG
 10
0.0
 20
0.0
 30
0.0
  9
$UCSXDIR
 10
1.0
 20
0.0
 30
0.0
  9
$UCSYDIR
 10
0.0
 20
1.0
 30
0.0
  9
$PUCSNAME
  2

  9
$PUCSORG
 10
0.0
 20
0.0
 30
0.0
  9
$PUCSXDIR
 10
1.0
 20
0.0
 30
0.0
  9
$PUCSYDIR
 10
0.0
 20
1.0
 30
0.0
  9
$USERI1
 70
             0
  9
$USERI2
 70
             0
  9
$USERI3
 70
             0
  9
$USERI4
 70
             0
  9
$USERI5
 70
             0
  9
$USERR1
 40
11.6
  9
$USERR2
 40
0.0
  9
$USERR3
 40
0.0
  9
$USERR4
 40
0.0
  9
$USERR5
 40
0.0
  9
$WORLDVIEW
 70
             1
  9
$SHADEDGE
 70
             3
  9
$SHADEDIF
 70
            70
  9
$TILEMODE
 70
             1
  9
$MAXACTVP
 70
            16
  9
$PINSBASE
 10
0.0
 20
0.0
 30
0.0
  9
$PLIMCHECK
 70
             0
  9
$PEXTMIN
 10
1.00000000000000E+20
 20
1.00000000000000E+20
 30
1.00000000000000E+20
  9
$PEXTMAX
 10
-1.00000000000000E+20
 20
-1.00000000000000E+20
 30
-1.00000000000000E+20
  9
$PLIMMIN
 10
0.0
 20
0.0
  9
$PLIMMAX
 10
12.0
 20
9.0
  9
$UNITMODE
 70
             0
  9
$VISRETAIN
 70
             0
  9
$PLINEGEN
 70
             1
  9
$PSLTSCALE
 70
             0
  9
$TREEDEPTH
 70
          3020
  9
$PICKSTYLE
 70
             1
  9
$CMLSTYLE
  2
STANDARD
  9
$CMLJUST
 70
             0
  9
$CMLSCALE
 40
1.0
  9
$PROXYGRAPHICS
 70
             0
  9
$MEASUREMENT
 70
             1
  0
ENDSEC
  0
SECTION
  2
CLASSES
  0
CLASS
  1
LWPOLYLINE
  2
AcDbPolyline
  3
"AutoCAD"
 90
        0
280
             0
281
             1
  0
CLASS
  1
IMAGE
  2
AcDbRasterImage
  3
ISM
 90
      127
280
             0
281
             1
  0
CLASS
  1
OLE2FRAME
  2
AcDbOle2Frame
  3
""
 90
        0
280
             0
281
             1
  0
CLASS
  1
HATCH
  2
AcDbHatch
  3
"ACAD_SEDONA"
 90
        0
280
             0
281
             1
  0
CLASS
  1
DICTIONARYVAR
  2
AcDbDictionaryVar
  3
"AutoCAD"
 90
        0
280
             0
281
             0
  0
CLASS
  1
RASTERVARIABLES
  2
AcDbRasterVariables
  3
ISM
 90
        0
280
             0
281
             0
  0
CLASS
  1
IMAGEDEF
  2
AcDbRasterImageDef
  3
ISM
 90
        0
280
             0
281
             0
  0
CLASS
  1
IMAGEDEF_REACTOR
  2
AcDbRasterImageDefReactor
  3
ISM
 90
        1
280
             0
281
             0
  0
CLASS
  1
IDBUFFER
  2
AcDbIdBuffer
  3
"Acad"
 90
        0
280
             0
281
             0
  0
CLASS
  1
SPATIAL_FILTER
  2
AcDbSpatialFilter
  3
"Acad"
 90
        0
280
             0
281
             0
  0
CLASS
  1
XRECORD
  2
AcDbXrecord
  3
"<Built In>"
 90
        0
280
             0
281
             0
  0
CLASS
  1
SORTENTSTABLE
  2
AcDbSortentsTable
  3
"AutoCAD"
 90
        0
280
             0
281
             0
  0
CLASS
  1
LAYER_INDEX
  2
AcDbLayerIndex
  3
"Acad"
 90
        0
280
             0
281
             0
  0
CLASS
  1
SPATIAL_INDEX
  2
AcDbSpatialIndex
  3
"Acad"
 90
        0
280
             0
281
             0
  0
CLASS
  1
OBJECT_PTR
  2
CAseDLPNTableRecord
  3
"ASE-LPNTableRecord"
 90
        1
280
             0
281
             0
  0
CLASS
  1
LAYOUT
  2
AcDbLayout
  3
"AutoCAD 2000"
 90
        1
280
             0
281
             0
  0
CLASS
  1
PLOTSETTINGS
  2
AcDbPlotSettings
  3
"AutoCAD 2000"
 90
        1
280
             0
281
             0
  0
CLASS
  1
ACDBDICTIONARYWDFLT
  2
AcDbDictionaryWithDefault
  3
"AutoCAD 2000"
 90
        1
280
             0
281
             0
  0
CLASS
  1
ACDBPLACEHOLDER
  2
AcDbPlaceHolder
  3
"AutoCAD 2000"
 90
        1
280
             0
281
             0
  0
ENDSEC
  0
SECTION
  2
TABLES
  0
TABLE
  2
VPORT
  5
7
100
AcDbSymbolTable
 70
             1
  0
VPORT
  5
15
100
AcDbSymbolTableRecord
100
AcDbViewportTableRecord
  2
*ACTIVE
 70
             0
 10
0.0
 20
0.0
 11
1.0
 21
1.0
 12
62.50000000000006
 22
0.00000000000001
 13
0.0
 23
0.0
 14
1.0
 24
1.0
 15
0.0
 25
0.0
 16
0.0
 26
0.0
 36
1.0
 17
0.0
 27
0.0
 37
0.0
 40
151.68356545961018
 41
1.60267857142857
 42
50.0
 43
0.0
 44
0.0
 50
0.0
 51
0.0
 71
             0
 72
           100
 73
             1
 74
             1
 75
             0
 76
             0
 77
             0
 78
             0
  0
ENDTAB
  0
TABLE
  2
LTYPE
  5
4
100
AcDbSymbolTable
 70
            10
  0
LTYPE
  5
11
100
AcDbSymbolTableRecord
100
AcDbLinetypeTableRecord
  2
BYBLOCK
 70
            64
  3

 72
            65
 73
             0
 40
0.0
  0
LTYPE
  5
12
100
AcDbSymbolTableRecord
100
AcDbLinetypeTableRecord
  2
BYLAYER
 70
            64
  3

 72
            65
 73
             0
 40
0.0
  0
LTYPE
  5
13
100
AcDbSymbolTableRecord
100
AcDbLinetypeTableRecord
  2
CONTINUOUS
 70
            64
  3
Solid line
 72
            65
 73
             0
 40
0.0
  0
LTYPE
  5
1D
100
AcDbSymbolTableRecord
100
AcDbLinetypeTableRecord
  2
DASHED
 70
            64
  3
Dashed
 72
            65
 73
             2
 40
15.0
 49
12.0
 74
             0
 49
-3.0
 74
             0
  0
LTYPE
  5
1E
100
AcDbSymbolTableRecord
100
AcDbLinetypeTableRecord
  2
DOTTED
 70
            64
  3
Dotted
 72
            65
 73
             2
 40
3.5
 49
0.5
 74
             0
 49
-3.0
 74
             0
  0
LTYPE
  5
1F
100
AcDbSymbolTableRecord
100
AcDbLinetypeTableRecord
  2
DOT_CENTER
 70
            64
  3
Dot_Center
 72
            65
 73
             4
 40
2.0
 49
1.25
 74
             0
 49
-0.25
 74
             0
 49
0.25
 74
             0
 49
-0.25
 74
             0
  0
LTYPE
  5
20
100
AcDbSymbolTableRecord
100
AcDbLinetypeTableRecord
  2
LONG_DASHED
 70
            64
  3
Long_Dashed
 72
            65
 73
             2
 40
2.0
 49
1.5
 74
             0
 49
-0.5
 74
             0
  0
LTYPE
  5
21
100
AcDbSymbolTableRecord
100
AcDbLinetypeTableRecord
  2
DASH_CENTER
 70
            64
  3
Dash_Center
 72
            65
 73
             4
 40
36.0
 49
24.0
 74
             0
 49
-3.0
 74
             0
 49
6.0
 74
             0
 49
-3.0
 74
             0
  0
LTYPE
  5
22
100
AcDbSymbolTableRecord
100
AcDbLinetypeTableRecord
  2
PHANTOM
 70
            64
  3
Phantom
 72
            65
 73
             6
 40
2.5
 49
1.25
 74
             0
 49
-0.25
 74
             0
 49
0.25
 74
             0
 49
-0.25
 74
             0
 49
0.25
 74
             0
 49
-0.25
 74
             0
  0
LTYPE
  5
23
100
AcDbSymbolTableRecord
100
AcDbLinetypeTableRecord
  2
CENTER_DASH_DASH
 70
            64
  3
Center_Dash_Dash
 72
            65
 73
             6
 40
22.0
 49
12.0
 74
             0
 49
-3.0
 74
             0
 49
0.5
 74
             0
 49
-3.0
 74
             0
 49
0.5
 74
             0
 49
-3.0
 74
             0
  0
ENDTAB
  0
TABLE
  2
LAYER
  5
2
100
AcDbSymbolTable
 70
             2
  0
LAYER
  5
14
100
AcDbSymbolTableRecord
100
AcDbLayerTableRecord
  2
0
 70
             0
 62
             7
  6
CONTINUOUS
  0
LAYER
  5
24
100
AcDbSymbolTableRecord
100
AcDbLayerTableRecord
  2
1
 70
             0
 62
             7
  6
CONTINUOUS
  0
ENDTAB
  0
TABLE
  2
STYLE
  5
3
100
AcDbSymbolTable
 70
             1
  0
STYLE
  5
17
100
AcDbSymbolTableRecord
100
AcDbTextStyleTableRecord
  2
STANDARD
 70
             0
 40
0.0
 41
1.0
 50
0.0
 71
             0
 42
0.0
  3
txt
  4

  0
ENDTAB
  0
TABLE
  2
VIEW
  5
5
100
AcDbSymbolTable
 70
             0
  0
ENDTAB
  0
TABLE
  2
UCS
  5
6
100
AcDbSymbolTable
 70
             0
  0
ENDTAB
  0
TABLE
  2
APPID
  5
8
100
AcDbSymbolTable
 70
             1
  0
APPID
  5
16
100
AcDbSymbolTableRecord
100
AcDbRegAppTableRecord
  2
ACAD
 70
             0
  0
ENDTAB
  0
TABLE
  2
DIMSTYLE
  5
9
100
AcDbSymbolTable
 70
             1
  0
DIMSTYLE
105
18
100
AcDbSymbolTableRecord
100
AcDbDimStyleTableRecord
  2
STANDARD
 70
             0
  3

  4

  5

  6

  7

 40
1.0
 41
0.18
 42
0.0625
 43
0.38
 44
0.18
 45
0.0
 46
0.0
 47
0.0
 48
0.0
 71
             0
 72
             0
 73
             1
 74
             1
 75
             0
 76
             0
 77
             0
 78
             0
140
0.18
141
0.09
142
0.0
143
25.4
144
1.0
145
0.0
146
1.0
147
0.09
170
             0
171
             2
172
             0
173
             0
174
             0
175
             0
176
             0
177
             0
178
             0
270
             2
271
             4
272
             4
273
             2
274
             2
275
             0
280
             0
281
             0
282
             0
283
             1
284
             0
285
             0
286
             0
287
             0
288
             0
340
17
  0
ENDTAB
  0
TABLE
  2
BLOCK_RECORD
  5
1
100
AcDbSymbolTable
 70
             0
  0
BLOCK_RECORD
  5
A
100
AcDbSymbolTableRecord
100
AcDbBlockTableRecord
  2
*MODEL_SPACE
  0
BLOCK_RECORD
  5
B
100
AcDbSymbolTableRecord
100
AcDbBlockTableRecord
  2
*PAPER_SPACE
  0
ENDTAB
  0
ENDSEC
  0
SECTION
  2
BLOCKS
  0
BLOCK
  5
D
100
AcDbEntity
  8
0
100
AcDbBlockBegin
  2
*MODEL_SPACE
 70
             0
 10
0.0
 20
0.0
 30
0.0
  3
*MODEL_SPACE
  1

  0
ENDBLK
  5
E
100
AcDbEntity
  8
0
100
AcDbBlockEnd
  0
BLOCK
  5
F
100
AcDbEntity
 67
             1
  8
0
100
AcDbBlockBegin
  2
*PAPER_SPACE
 70
             0
 10
0.0
 20
0.0
 30
0.0
  3
*PAPER_SPACE
  1

  0
ENDBLK
  5
10
100
AcDbEntity
 67
             1
  8
0
100
AcDbBlockEnd
  0
ENDSEC
  0
SECTION
  2
ENTITIES
  0
ARC
  5
4DD
100
AcDbEntity
  8
1
  6
CONTINUOUS
 62
             7
100
AcDbCircle
 10
29.49999999999992
 20
-11.50000000000051
 40
0.5
100
AcDbArc
 50
180.0
 51
-90.0
  0
ARC
  5
4DC
100
AcDbEntity
  8
1
  6
CONTINUOUS
 62
             7
100
AcDbCircle
 10
33.49999999999992
 20
-11.50000000000051
 40
0.5
100
AcDbArc
 50
-90.0
 51
0.0
  0
ARC
  5
4DB
100
AcDbEntity
  8
1
  6
CONTINUOUS
 62
             7
100
AcDbCircle
 10
11.49999999999992
 20
-11.50000000000051
 40
0.5
100
AcDbArc
 50
180.0
 51
-90.0
  0
ARC
  5
4DA
100
AcDbEntity
  8
1
  6
CONTINUOUS
 62
             7
100
AcDbCircle
 10
15.49999999999992
 20
-11.50000000000051
 40
0.5
100
AcDbArc
 50
-90.0
 51
0.0
  0
ARC
  5
4D9
100
AcDbEntity
  8
1
  6
CONTINUOUS
 62
             7
100
AcDbCircle
 10
-6.50000000000009
 20
-11.50000000000051
 40
0.5
100
AcDbArc
 50
180.0
 51
-90.0
  0
ARC
  5
4D8
100
AcDbEntity
  8
1
  6
CONTINUOUS
 62
             7
100
AcDbCircle
 10
-2.50000000000008
 20
-11.50000000000051
 40
0.5
100
AcDbArc
 50
-90.0
 51
0.0
  0
ARC
  5
4D7
100
AcDbEntity
  8
1
  6
CONTINUOUS
 62
             7
100
AcDbCircle
 10
29.49999999999992
 20
-10.50000000000051
 40
0.5
100
AcDbArc
 50
90.0
 51
180.0
  0
ARC
  5
4D6
100
AcDbEntity
  8
1
  6
CONTINUOUS
 62
             7
100
AcDbCircle
 10
33.49999999999992
 20
-10.50000000000051
 40
0.5
100
AcDbArc
 50
0.0
 51
90.0
  0
ARC
  5
4D5
100
AcDbEntity
  8
1
  6
CONTINUOUS
 62
             7
100
AcDbCircle
 10
11.49999999999992
 20
-10.50000000000051
 40
0.5
100
AcDbArc
 50
90.0
 51
180.0
  0
ARC
  5
4D4
100
AcDbEntity
  8
1
  6
CONTINUOUS
 62
             7
100
AcDbCircle
 10
15.49999999999992
 20
-10.50000000000051
 40
0.5
100
AcDbArc
 50
0.0
 51
90.0
  0
ARC
  5
4D3
100
AcDbEntity
  8
1
  6
CONTINUOUS
 62
             7
100
AcDbCircle
 10
-6.50000000000009
 20
-10.50000000000051
 40
0.5
100
AcDbArc
 50
90.0
 51
180.0
  0
ARC
  5
4D2
100
AcDbEntity
  8
1
  6
CONTINUOUS
 62
             7
100
AcDbCircle
 10
-2.50000000000008
 20
-10.50000000000051
 40
0.5
100
AcDbArc
 50
0.0
 51
90.0
  0
ARC
  5
4D1
100
AcDbEntity
  8
1
  6
CONTINUOUS
 62
             7
100
AcDbCircle
 10
15.49999999999992
 20
-5.50000000000049
 40
0.5
100
AcDbArc
 50
-90.0
 51
0.0
  0
ARC
  5
4D0
100
AcDbEntity
  8
1
  6
CONTINUOUS
 62
             7
100
AcDbCircle
 10
11.49999999999992
 20
-5.50000000000049
 40
0.5
100
AcDbArc
 50
180.0
 51
-90.0
  0
ARC
  5
4CF
100
AcDbEntity
  8
1
  6
CONTINUOUS
 62
             7
100
AcDbCircle
 10
29.49999999999992
 20
-5.50000000000049
 40
0.5
100
AcDbArc
 50
180.0
 51
-90.0
  0
ARC
  5
4CE
100
AcDbEntity
  8
1
  6
CONTINUOUS
 62
             7
100
AcDbCircle
 10
33.49999999999992
 20
-5.50000000000049
 40
0.5
100
AcDbArc
 50
-90.0
 51
0.0
  0
ARC
  5
4CD
100
AcDbEntity
  8
1
  6
CONTINUOUS
 62
             7
100
AcDbCircle
 10
-33.50000000000009
 20
-5.50000000000049
 40
0.5
100
AcDbArc
 50
180.0
 51
-90.0
  0
ARC
  5
4CC
100
AcDbEntity
  8
1
  6
CONTINUOUS
 62
             7
100
AcDbCircle
 10
-15.5
 20
-5.50000000000049
 40
0.5
100
AcDbArc
 50
180.0
 51
-90.0
  0
ARC
  5
4CB
100
AcDbEntity
  8
1
  6
CONTINUOUS
 62
             7
100
AcDbCircle
 10
-11.5
 20
-5.50000000000049
 40
0.5
100
AcDbArc
 50
-90.0
 51
0.0
  0
ARC
  5
4CA
100
AcDbEntity
  8
1
  6
CONTINUOUS
 62
             7
100
AcDbCircle
 10
15.49999999999992
 20
-4.50000000000049
 40
0.5
100
AcDbArc
 50
0.0
 51
90.0
  0
ARC
  5
4C9
100
AcDbEntity
  8
1
  6
CONTINUOUS
 62
             7
100
AcDbCircle
 10
11.49999999999992
 20
-4.50000000000049
 40
0.5
100
AcDbArc
 50
90.0
 51
180.0
  0
ARC
  5
4C8
100
AcDbEntity
  8
1
  6
CONTINUOUS
 62
             7
100
AcDbCircle
 10
29.49999999999992
 20
-4.50000000000049
 40
0.5
100
AcDbArc
 50
90.0
 51
180.0
  0
ARC
  5
4C7
100
AcDbEntity
  8
1
  6
CONTINUOUS
 62
             7
100
AcDbCircle
 10
33.49999999999992
 20
-4.50000000000049
 40
0.5
100
AcDbArc
 50
0.0
 51
90.0
  0
ARC
  5
4C6
100
AcDbEntity
  8
1
  6
CONTINUOUS
 62
             7
100
AcDbCircle
 10
-15.5
 20
-4.50000000000049
 40
0.5
100
AcDbArc
 50
90.0
 51
180.0
  0
ARC
  5
4C5
100
AcDbEntity
  8
1
  6
CONTINUOUS
 62
             7
100
AcDbCircle
 10
-11.5
 20
-4.50000000000049
 40
0.5
100
AcDbArc
 50
0.0
 51
90.0
  0
ARC
  5
4C4
100
AcDbEntity
  8
1
  6
CONTINUOUS
 62
             7
100
AcDbCircle
 10
-29.50000000000009
 20
-5.50000000000049
 40
0.5
100
AcDbArc
 50
-90.0
 51
0.0
  0
ARC
  5
4C3
100
AcDbEntity
  8
1
  6
CONTINUOUS
 62
             7
100
AcDbCircle
 10
-29.50000000000009
 20
-4.50000000000049
 40
0.5
100
AcDbArc
 50
0.0
 51
90.0
  0
ARC
  5
4C2
100
AcDbEntity
  8
1
  6
CONTINUOUS
 62
             7
100
AcDbCircle
 10
-33.50000000000009
 20
-4.50000000000049
 40
0.5
100
AcDbArc
 50
90.0
 51
180.0
  0
ARC
  5
4C1
100
AcDbEntity
  8
1
  6
CONTINUOUS
 62
             7
100
AcDbCircle
 10
-38.00000000000003
 20
-19.99999999999988
 40
2.0
100
AcDbArc
 50
90.0
 51
180.0
  0
ARC
  5
4C0
100
AcDbEntity
  8
1
  6
CONTINUOUS
 62
             7
100
AcDbCircle
 10
-38.00000000000003
 20
-23.99999999999989
 40
2.0
100
AcDbArc
 50
180.0
 51
-90.0
  0
ARC
  5
4BF
100
AcDbEntity
  8
1
  6
CONTINUOUS
 62
             7
100
AcDbCircle
 10
37.99999999999997
 20
-19.99999999999988
 40
2.0
100
AcDbArc
 50
0.0
 51
90.0
  0
ARC
  5
4BE
100
AcDbEntity
  8
1
  6
CONTINUOUS
 62
             7
100
AcDbCircle
 10
37.99999999999997
 20
-23.99999999999989
 40
2.0
100
AcDbArc
 50
-90.0
 51
0.0
  0
ARC
  5
4BD
100
AcDbEntity
  8
1
  6
CONTINUOUS
 62
             7
100
AcDbCircle
 10
37.99999999999997
 20
-34.99999999999989
 40
2.0
100
AcDbArc
 50
-90.0
 51
0.0
  0
ARC
  5
4BC
100
AcDbEntity
  8
1
  6
CONTINUOUS
 62
             7
100
AcDbCircle
 10
-38.00000000000003
 20
-34.99999999999989
 40
2.0
100
AcDbArc
 50
180.0
 51
-90.0
  0
ARC
  5
4BB
100
AcDbEntity
  8
1
  6
CONTINUOUS
 62
             7
100
AcDbCircle
 10
-38.00000000000003
 20
-30.99999999999989
 40
1.99999999999997
100
AcDbArc
 50
89.99999999999166
 51
180.0
  0
ARC
  5
4BA
100
AcDbEntity
  8
1
  6
CONTINUOUS
 62
             7
100
AcDbCircle
 10
37.99999999999997
 20
-30.99999999999989
 40
2.0
100
AcDbArc
 50
0.0
 51
90.0
  0
ARC
  5
4B9
100
AcDbEntity
  8
1
  6
CONTINUOUS
 62
             7
100
AcDbCircle
 10
-40.75000000000003
 20
-11.74999999999991
 40
2.26384628453435
100
AcDbArc
 50
173.65980825409011
 51
-96.34019174590991
  0
ARC
  5
4B8
100
AcDbEntity
  8
1
  6
CONTINUOUS
 62
             7
100
AcDbCircle
 10
-41.25000000000003
 20
-17.74999999999991
 40
1.76776695296637
100
AcDbArc
 50
81.86989764584403
 51
171.86989764584402
  0
ARC
  5
4B7
100
AcDbEntity
  8
1
  6
CONTINUOUS
 62
             7
100
AcDbCircle
 10
40.99999999999997
 20
40.00000000000011
 40
2.0
100
AcDbArc
 50
0.0
 51
90.0
  0
ARC
  5
4B6
100
AcDbEntity
  8
1
  6
CONTINUOUS
 62
             7
100
AcDbCircle
 10
40.99999999999997
 20
-11.99999999999991
 40
2.0
100
AcDbArc
 50
-90.0
 51
0.0
  0
ARC
  5
4B5
100
AcDbEntity
  8
1
  6
CONTINUOUS
 62
             7
100
AcDbCircle
 10
40.99999999999997
 20
-17.99999999999991
 40
2.0
100
AcDbArc
 50
0.0
 51
90.0
  0
ARC
  5
4B4
100
AcDbEntity
  8
1
  6
CONTINUOUS
 62
             7
100
AcDbCircle
 10
40.99999999999997
 20
-36.99999999999992
 40
2.0
100
AcDbArc
 50
-90.0
 51
0.0
  0
ARC
  5
4B3
100
AcDbEntity
  8
1
  6
CONTINUOUS
 62
             7
100
AcDbCircle
 10
-41.00000000000003
 20
-36.99999999999992
 40
2.0
100
AcDbArc
 50
180.0
 51
-90.0
  0
ARC
  5
4B2
100
AcDbEntity
  8
1
  6
CONTINUOUS
 62
             7
100
AcDbCircle
 10
-41.00000000000003
 20
40.00000000000011
 40
2.0
100
AcDbArc
 50
90.0
 51
180.0
  0
ARC
  5
4B1
100
AcDbEntity
  8
1
  6
CONTINUOUS
 62
             7
100
AcDbCircle
 10
168.50000000000011
 20
-47.25
 40
1.0
100
AcDbArc
 50
0.0
 51
90.0
  0
ARC
  5
4B0
100
AcDbEntity
  8
1
  6
CONTINUOUS
 62
             7
100
AcDbCircle
 10
168.50000000000011
 20
-50.75
 40
1.0
100
AcDbArc
 50
-90.0
 51
0.0
  0
ARC
  5
4AF
100
AcDbEntity
  8
1
  6
CONTINUOUS
 62
             7
100
AcDbCircle
 10
159.60000000000011
 20
-51.89999999999998
 40
1.2
100
AcDbArc
 50
-90.0
 51
0.0
  0
ARC
  5
4AE
100
AcDbEntity
  8
1
  6
CONTINUOUS
 62
             7
100
AcDbCircle
 10
136.00000000000011
 20
-51.89999999999998
 40
1.20000000000002
100
AcDbArc
 50
180.0
 51
-90.0
  0
ARC
  5
4AD
100
AcDbEntity
  8
1
  6
CONTINUOUS
 62
             7
100
AcDbCircle
 10
168.50000000000011
 20
47.25000000000001
 40
1.0
100
AcDbArc
 50
-90.0
 51
0.0
  0
ARC
  5
4AC
100
AcDbEntity
  8
1
  6
CONTINUOUS
 62
             7
100
AcDbCircle
 10
168.50000000000011
 20
50.75000000000001
 40
1.0
100
AcDbArc
 50
0.0
 51
90.0
  0
ARC
  5
4AB
100
AcDbEntity
  8
1
  6
CONTINUOUS
 62
             7
100
AcDbCircle
 10
159.60000000000011
 20
51.90000000000001
 40
1.19999999999999
100
AcDbArc
 50
0.0
 51
90.0
  0
ARC
  5
4AA
100
AcDbEntity
  8
1
  6
CONTINUOUS
 62
             7
100
AcDbCircle
 10
136.00000000000011
 20
51.90000000000001
 40
1.2
100
AcDbArc
 50
90.0
 51
180.0
  0
ARC
  5
4A9
100
AcDbEntity
  8
0
  6
CONTINUOUS
 62
             7
100
AcDbCircle
 10
166.32205450853181
 20
38.68860009363267
 40
0.19999999999997
100
AcDbArc
 50
-69.44395478040843
 51
0.0
  0
ARC
  5
4A8
100
AcDbEntity
  8
0
  6
CONTINUOUS
 62
             7
100
AcDbCircle
 10
166.32205450853181
 20
36.91139990636682
 40
0.1999999999999
100
AcDbArc
 50
0.0
 51
69.44395478041201
  0
ARC
  5
4A7
100
AcDbEntity
  8
0
  6
CONTINUOUS
 62
             7
100
AcDbCircle
 10
167.32205450853181
 20
38.68860009363267
 40
0.19999999999997
100
AcDbArc
 50
-69.44395478040843
 51
0.0
  0
ARC
  5
4A6
100
AcDbEntity
  8
0
  6
CONTINUOUS
 62
             7
100
AcDbCircle
 10
167.32205450853181
 20
36.91139990636682
 40
0.1999999999999
100
AcDbArc
 50
0.0
 51
69.44395478041201
  0
ARC
  5
4A5
100
AcDbEntity
  8
0
  6
CONTINUOUS
 62
             7
100
AcDbCircle
 10
166.32205450853181
 20
30.28860009363271
 40
0.2
100
AcDbArc
 50
-69.44395478041129
 51
0.0
  0
ARC
  5
4A4
100
AcDbEntity
  8
0
  6
CONTINUOUS
 62
             7
100
AcDbCircle
 10
166.32205450853181
 20
28.51139990636684
 40
0.1999999999999
100
AcDbArc
 50
0.0
 51
69.44395478041345
  0
ARC
  5
4A3
100
AcDbEntity
  8
0
  6
CONTINUOUS
 62
             7
100
AcDbCircle
 10
167.32205450853181
 20
30.28860009363271
 40
0.2
100
AcDbArc
 50
-69.44395478041129
 51
0.0
  0
ARC
  5
4A2
100
AcDbEntity
  8
0
  6
CONTINUOUS
 62
             7
100
AcDbCircle
 10
167.32205450853181
 20
28.51139990636684
 40
0.1999999999999
100
AcDbArc
 50
0.0
 51
69.44395478041345
  0
ARC
  5
4A1
100
AcDbEntity
  8
0
  6
CONTINUOUS
 62
             7
100
AcDbCircle
 10
166.32205450853181
 20
21.8886000936327
 40
0.19999999999997
100
AcDbArc
 50
-69.44395478040843
 51
0.0
  0
ARC
  5
4A0
100
AcDbEntity
  8
0
  6
CONTINUOUS
 62
             7
100
AcDbCircle
 10
166.32205450853181
 20
20.11139990636687
 40
0.1999999999999
100
AcDbArc
 50
0.0
 51
69.44395478041129
  0
ARC
  5
49F
100
AcDbEntity
  8
0
  6
CONTINUOUS
 62
             7
100
AcDbCircle
 10
167.32205450853181
 20
21.8886000936327
 40
0.19999999999997
100
AcDbArc
 50
-69.44395478040843
 51
0.0
  0
ARC
  5
49E
100
AcDbEntity
  8
0
  6
CONTINUOUS
 62
             7
100
AcDbCircle
 10
167.32205450853181
 20
20.11139990636687
 40
0.1999999999999
100
AcDbArc
 50
0.0
 51
69.44395478041129
  0
ARC
  5
49D
100
AcDbEntity
  8
0
  6
CONTINUOUS
 62
             7
100
AcDbCircle
 10
166.32205450853181
 20
13.48860009363273
 40
0.19999999999998
100
AcDbArc
 50
-69.44395478040934
 51
0.0
  0
ARC
  5
49C
100
AcDbEntity
  8
0
  6
CONTINUOUS
 62
             7
100
AcDbCircle
 10
166.32205450853181
 20
11.71139990636687
 40
0.1999999999999
100
AcDbArc
 50
0.0
 51
69.44395478041254
  0
ARC
  5
49B
100
AcDbEntity
  8
0
  6
CONTINUOUS
 62
             7
100
AcDbCircle
 10
167.32205450853181
 20
13.48860009363273
 40
0.19999999999998
100
AcDbArc
 50
-69.44395478040934
 51
0.0
  0
ARC
  5
49A
100
AcDbEntity
  8
0
  6
CONTINUOUS
 62
             7
100
AcDbCircle
 10
167.32205450853181
 20
11.71139990636687
 40
0.1999999999999
100
AcDbArc
 50
0.0
 51
69.44395478041254
  0
ARC
  5
499
100
AcDbEntity
  8
0
  6
CONTINUOUS
 62
             7
100
AcDbCircle
 10
166.32205450853181
 20
5.08860009363276
 40
0.19999999999998
100
AcDbArc
 50
-69.44395478040987
 51
0.0
  0
ARC
  5
498
100
AcDbEntity
  8
0
  6
CONTINUOUS
 62
             7
100
AcDbCircle
 10
166.32205450853181
 20
3.31139990636689
 40
0.1999999999999
100
AcDbArc
 50
0.0
 51
69.44395478041274
  0
ARC
  5
497
100
AcDbEntity
  8
0
  6
CONTINUOUS
 62
             7
100
AcDbCircle
 10
167.32205450853181
 20
5.08860009363276
 40
0.19999999999998
100
AcDbArc
 50
-69.44395478040987
 51
0.0
  0
ARC
  5
496
100
AcDbEntity
  8
0
  6
CONTINUOUS
 62
             7
100
AcDbCircle
 10
167.32205450853181
 20
3.31139990636689
 40
0.1999999999999
100
AcDbArc
 50
0.0
 51
69.44395478041274
  0
ARC
  5
495
100
AcDbEntity
  8
0
  6
CONTINUOUS
 62
             7
100
AcDbCircle
 10
166.32205450853181
 20
-3.31139990636723
 40
0.19999999999998
100
AcDbArc
 50
-69.4439547804091
 51
0.0
  0
ARC
  5
494
100
AcDbEntity
  8
0
  6
CONTINUOUS
 62
             7
100
AcDbCircle
 10
166.32205450853181
 20
-5.08860009363308
 40
0.1999999999999
100
AcDbArc
 50
0.0
 51
69.44395478041201
  0
ARC
  5
493
100
AcDbEntity
  8
0
  6
CONTINUOUS
 62
             7
100
AcDbCircle
 10
167.32205450853181
 20
-3.31139990636723
 40
0.19999999999998
100
AcDbArc
 50
-69.4439547804091
 51
0.0
  0
ARC
  5
492
100
AcDbEntity
  8
0
  6
CONTINUOUS
 62
             7
100
AcDbCircle
 10
167.32205450853181
 20
-5.08860009363308
 40
0.1999999999999
100
AcDbArc
 50
0.0
 51
69.44395478041201
  0
ARC
  5
491
100
AcDbEntity
  8
0
  6
CONTINUOUS
 62
             7
100
AcDbCircle
 10
166.32205450853181
 20
-11.71139990636719
 40
0.19999999999999
100
AcDbArc
 50
-69.44395478041041
 51
0.0
  0
ARC
  5
490
100
AcDbEntity
  8
0
  6
CONTINUOUS
 62
             7
100
AcDbCircle
 10
166.32205450853181
 20
-13.48860009363307
 40
0.1999999999999
100
AcDbArc
 50
0.0
 51
69.44395478041433
  0
ARC
  5
48F
100
AcDbEntity
  8
0
  6
CONTINUOUS
 62
             7
100
AcDbCircle
 10
167.32205450853181
 20
-11.71139990636719
 40
0.19999999999999
100
AcDbArc
 50
-69.44395478041041
 51
0.0
  0
ARC
  5
48E
100
AcDbEntity
  8
0
  6
CONTINUOUS
 62
             7
100
AcDbCircle
 10
167.32205450853181
 20
-13.48860009363307
 40
0.1999999999999
100
AcDbArc
 50
0.0
 51
69.44395478041433
  0
ARC
  5
48D
100
AcDbEntity
  8
0
  6
CONTINUOUS
 62
             7
100
AcDbCircle
 10
166.32205450853181
 20
-20.11139990636717
 40
0.2
100
AcDbArc
 50
-69.44395478041164
 51
0.0
  0
ARC
  5
48C
100
AcDbEntity
  8
0
  6
CONTINUOUS
 62
             7
100
AcDbCircle
 10
166.32205450853181
 20
-21.88860009363302
 40
0.1999999999999
100
AcDbArc
 50
0.0
 51
69.44395478041129
  0
ARC
  5
48B
100
AcDbEntity
  8
0
  6
CONTINUOUS
 62
             7
100
AcDbCircle
 10
167.32205450853181
 20
-20.11139990636717
 40
0.2
100
AcDbArc
 50
-69.44395478041164
 51
0.0
  0
ARC
  5
48A
100
AcDbEntity
  8
0
  6
CONTINUOUS
 62
             7
100
AcDbCircle
 10
167.32205450853181
 20
-21.88860009363302
 40
0.1999999999999
100
AcDbArc
 50
0.0
 51
69.44395478041129
  0
ARC
  5
489
100
AcDbEntity
  8
0
  6
CONTINUOUS
 62
             7
100
AcDbCircle
 10
166.32205450853181
 20
-28.51139990636713
 40
0.20000000000002
100
AcDbArc
 50
-69.44395478041416
 51
0.0
  0
ARC
  5
488
100
AcDbEntity
  8
0
  6
CONTINUOUS
 62
             7
100
AcDbCircle
 10
166.32205450853181
 20
-30.28860009363301
 40
0.1999999999999
100
AcDbArc
 50
0.0
 51
69.44395478041452
  0
ARC
  5
487
100
AcDbEntity
  8
0
  6
CONTINUOUS
 62
             7
100
AcDbCircle
 10
167.32205450853181
 20
-28.51139990636713
 40
0.20000000000002
100
AcDbArc
 50
-69.44395478041416
 51
0.0
  0
ARC
  5
486
100
AcDbEntity
  8
0
  6
CONTINUOUS
 62
             7
100
AcDbCircle
 10
167.32205450853181
 20
-30.28860009363301
 40
0.1999999999999
100
AcDbArc
 50
0.0
 51
69.44395478041452
  0
ARC
  5
485
100
AcDbEntity
  8
0
  6
CONTINUOUS
 62
             7
100
AcDbCircle
 10
166.32205450853181
 20
-36.91139990636715
 40
0.19999999999997
100
AcDbArc
 50
-69.44395478040843
 51
0.0
  0
ARC
  5
484
100
AcDbEntity
  8
0
  6
CONTINUOUS
 62
             7
100
AcDbCircle
 10
166.32205450853181
 20
-38.68860009363297
 40
0.1999999999999
100
AcDbArc
 50
0.0
 51
69.44395478040843
  0
ARC
  5
483
100
AcDbEntity
  8
0
  6
CONTINUOUS
 62
             7
100
AcDbCircle
 10
167.32205450853181
 20
-36.91139990636715
 40
0.19999999999997
100
AcDbArc
 50
-69.44395478040843
 51
0.0
  0
ARC
  5
482
100
AcDbEntity
  8
0
  6
CONTINUOUS
 62
             7
100
AcDbCircle
 10
167.32205450853181
 20
-38.68860009363297
 40
0.1999999999999
100
AcDbArc
 50
0.0
 51
69.44395478040843
  0
CIRCLE
  5
481
100
AcDbEntity
  8
1
  6
CONTINUOUS
 62
             7
100
AcDbCircle
 10
-1.10000000000008
 20
18.89999999999933
 40
0.90000000000069
  0
CIRCLE
  5
480
100
AcDbEntity
  8
1
  6
CONTINUOUS
 62
             7
100
AcDbCircle
 10
10.89999999999992
 20
18.89999999999933
 40
0.90000000000066
  0
CIRCLE
  5
47F
100
AcDbEntity
  8
1
  6
CONTINUOUS
 62
             7
100
AcDbCircle
 10
22.89999999999992
 20
18.89999999999933
 40
0.90000000000066
  0
CIRCLE
  5
47E
100
AcDbEntity
  8
1
  6
CONTINUOUS
 62
             7
100
AcDbCircle
 10
5.10000000000002
 20
1.49999999999946
 40
0.70000000000053
  0
CIRCLE
  5
47D
100
AcDbEntity
  8
1
  6
CONTINUOUS
 62
             7
100
AcDbCircle
 10
15.10000000000002
 20
1.49999999999946
 40
0.70000000000056
  0
CIRCLE
  5
47C
100
AcDbEntity
  8
1
  6
CONTINUOUS
 62
             7
100
AcDbCircle
 10
25.09999999999999
 20
1.49999999999946
 40
0.70000000000059
  0
CIRCLE
  5
47B
100
AcDbEntity
  8
1
  6
CONTINUOUS
 62
             7
100
AcDbCircle
 10
155.50000000000011
 20
37.73500000000011
 40
0.24500000000009
  0
ARC
  5
47A
100
AcDbEntity
  8
1
  6
CONTINUOUS
 62
             7
100
AcDbCircle
 10
2.69999999999985
 20
-21.99999999999935
 40
0.30000000000001
100
AcDbArc
 50
-90.0
 51
90.0
  0
ARC
  5
479
100
AcDbEntity
  8
1
  6
CONTINUOUS
 62
             7
100
AcDbCircle
 10
-2.70000000000002
 20
-21.99999999999989
 40
0.30000000000055
100
AcDbArc
 50
90.0000000000218
 51
-90.0
  0
ARC
  5
478
100
AcDbEntity
  8
1
  6
CONTINUOUS
 62
             7
100
AcDbCircle
 10
-2.70000000000002
 20
-20.79999999999989
 40
0.30000000000057
100
AcDbArc
 50
90.0000000000218
 51
-90.0
  0
ARC
  5
477
100
AcDbEntity
  8
1
  6
CONTINUOUS
 62
             7
100
AcDbCircle
 10
2.69999999999985
 20
-20.79999999999933
 40
0.30000000000004
100
AcDbArc
 50
-90.0
 51
90.0
  0
ARC
  5
476
100
AcDbEntity
  8
1
  6
CONTINUOUS
 62
             7
100
AcDbCircle
 10
-2.70000000000002
 20
-23.1999999999999
 40
0.30000000000003
100
AcDbArc
 50
90.0
 51
-90.0
  0
ARC
  5
475
100
AcDbEntity
  8
1
  6
CONTINUOUS
 62
             7
100
AcDbCircle
 10
2.69999999999985
 20
-23.19999999999934
 40
0.30000000000004
100
AcDbArc
 50
-90.0
 51
90.0
  0
ARC
  5
474
100
AcDbEntity
  8
1
  6
CONTINUOUS
 62
             7
100
AcDbCircle
 10
22.69999999999985
 20
-21.99999999999935
 40
0.30000000000001
100
AcDbArc
 50
-90.0
 51
90.0
  0
ARC
  5
473
100
AcDbEntity
  8
1
  6
CONTINUOUS
 62
             7
100
AcDbCircle
 10
17.29999999999987
 20
-21.99999999999935
 40
0.30000000000001
100
AcDbArc
 50
90.0
 51
-90.0
  0
ARC
  5
472
100
AcDbEntity
  8
1
  6
CONTINUOUS
 62
             7
100
AcDbCircle
 10
17.29999999999987
 20
-20.79999999999936
 40
0.30000000000004
100
AcDbArc
 50
90.0
 51
-90.0
  0
ARC
  5
471
100
AcDbEntity
  8
1
  6
CONTINUOUS
 62
             7
100
AcDbCircle
 10
22.69999999999985
 20
-20.79999999999933
 40
0.30000000000004
100
AcDbArc
 50
-90.0
 51
90.0
  0
ARC
  5
470
100
AcDbEntity
  8
1
  6
CONTINUOUS
 62
             7
100
AcDbCircle
 10
17.29999999999987
 20
-23.19999999999936
 40
0.30000000000005
100
AcDbArc
 50
90.0
 51
-90.0
  0
ARC
  5
46F
100
AcDbEntity
  8
1
  6
CONTINUOUS
 62
             7
100
AcDbCircle
 10
22.69999999999985
 20
-23.19999999999934
 40
0.30000000000004
100
AcDbArc
 50
-90.0
 51
90.0
  0
ARC
  5
46E
100
AcDbEntity
  8
1
  6
CONTINUOUS
 62
             7
100
AcDbCircle
 10
-32.32240751944178
 20
24.30000000000003
 40
1.50000000000002
100
AcDbArc
 50
170.0000000000004
 51
-155.49509163211741
  0
ARC
  5
46D
100
AcDbEntity
  8
1
  6
CONTINUOUS
 62
             7
100
AcDbCircle
 10
-32.32240751944178
 20
24.30000000000003
 40
1.50000000000001
100
AcDbArc
 50
-128.30756931943989
 51
-90.0
  0
ARC
  5
46C
100
AcDbEntity
  8
1
  6
CONTINUOUS
 62
             7
100
AcDbCircle
 10
-29.6956774993732
 20
24.80000000000003
 40
2.0
100
AcDbArc
 50
-90.0
 51
-54.91588873127064
  0
ARC
  5
46B
100
AcDbEntity
  8
1
  6
CONTINUOUS
 62
             7
100
AcDbCircle
 10
-29.6956774993732
 20
24.80000000000003
 40
1.99999999999999
100
AcDbArc
 50
-34.42286802977299
 51
-10.00000000000031
  0
ARC
  5
46A
100
AcDbEntity
  8
1
  6
CONTINUOUS
 62
             7
100
AcDbCircle
 10
-27.47759248055823
 20
34.50000000000002
 40
1.50000000000003
100
AcDbArc
 50
-9.99999999999973
 51
22.8714524269236
  0
ARC
  5
469
100
AcDbEntity
  8
1
  6
CONTINUOUS
 62
             7
100
AcDbCircle
 10
-27.47759248055823
 20
34.50000000000002
 40
1.5
100
AcDbArc
 50
51.69243068056042
 51
90.0
  0
ARC
  5
468
100
AcDbEntity
  8
1
  6
CONTINUOUS
 62
             7
100
AcDbCircle
 10
-30.10432250062681
 20
34.00000000000002
 40
2.0
100
AcDbArc
 50
90.0
 51
125.08411126872868
  0
ARC
  5
467
100
AcDbEntity
  8
1
  6
CONTINUOUS
 62
             7
100
AcDbCircle
 10
-30.10432250062681
 20
34.00000000000002
 40
1.99999999999999
100
AcDbArc
 50
145.57713197022713
 51
170.00000000000037
  0
ARC
  5
466
100
AcDbEntity
  8
1
  6
CONTINUOUS
 62
             7
100
AcDbCircle
 10
-30.10432250062681
 20
12.00000000000002
 40
1.99999999999999
100
AcDbArc
 50
145.5771319702271
 51
169.99999999999997
  0
ARC
  5
465
100
AcDbEntity
  8
1
  6
CONTINUOUS
 62
             7
100
AcDbCircle
 10
-30.10432250062681
 20
12.00000000000002
 40
2.0
100
AcDbArc
 50
90.0
 51
125.08411126872868
  0
ARC
  5
464
100
AcDbEntity
  8
1
  6
CONTINUOUS
 62
             7
100
AcDbCircle
 10
-27.47759248055823
 20
12.50000000000002
 40
1.5
100
AcDbArc
 50
51.69243068056047
 51
90.0
  0
ARC
  5
463
100
AcDbEntity
  8
1
  6
CONTINUOUS
 62
             7
100
AcDbCircle
 10
-27.47759248055823
 20
12.50000000000002
 40
1.50000000000003
100
AcDbArc
 50
-9.9999999999996
 51
22.8714524269236
  0
ARC
  5
462
100
AcDbEntity
  8
1
  6
CONTINUOUS
 62
             7
100
AcDbCircle
 10
-29.6956774993732
 20
2.80000000000002
 40
1.99999999999998
100
AcDbArc
 50
-34.42286802977282
 51
-10.0000000000002
  0
ARC
  5
461
100
AcDbEntity
  8
1
  6
CONTINUOUS
 62
             7
100
AcDbCircle
 10
-29.6956774993732
 20
2.80000000000002
 40
2.0
100
AcDbArc
 50
-90.0
 51
-54.91588873127065
  0
ARC
  5
460
100
AcDbEntity
  8
1
  6
CONTINUOUS
 62
             7
100
AcDbCircle
 10
-32.32240751944178
 20
2.30000000000002
 40
1.5
100
AcDbArc
 50
-128.30756931943998
 51
-90.0
  0
ARC
  5
45F
100
AcDbEntity
  8
1
  6
CONTINUOUS
 62
             7
100
AcDbCircle
 10
-32.32240751944178
 20
2.30000000000002
 40
1.50000000000002
100
AcDbArc
 50
170.00000000000011
 51
-155.49509163211764
  0
ARC
  5
45E
100
AcDbEntity
  8
1
  6
CONTINUOUS
 62
             7
100
AcDbCircle
 10
-5.97701454322359
 20
33.50000000000001
 40
2.5
100
AcDbArc
 50
90.0
 51
119.14468546845082
  0
ARC
  5
45D
100
AcDbEntity
  8
1
  6
CONTINUOUS
 62
             7
100
AcDbCircle
 10
-2.33485791126927
 20
34.00000000000001
 40
2.00000000000001
100
AcDbArc
 50
46.11034006055343
 51
90.0
  0
ARC
  5
45C
100
AcDbEntity
  8
1
  6
CONTINUOUS
 62
             7
100
AcDbCircle
 10
-5.97701454322359
 20
33.50000000000001
 40
2.50000000000001
100
AcDbArc
 50
135.37126078627676
 51
169.9999999999998
  0
ARC
  5
45B
100
AcDbEntity
  8
1
  6
CONTINUOUS
 62
             7
100
AcDbCircle
 10
-2.33485791126927
 20
34.00000000000001
 40
2.00000000000002
100
AcDbArc
 50
-9.99999999999987
 51
25.69345983051738
  0
ARC
  5
45A
100
AcDbEntity
  8
1
  6
CONTINUOUS
 62
             7
100
AcDbCircle
 10
-8.86514208873075
 20
20.00000000000001
 40
1.99999999999999
100
AcDbArc
 50
169.99999999999997
 51
-154.30654016948233
  0
ARC
  5
459
100
AcDbEntity
  8
1
  6
CONTINUOUS
 62
             7
100
AcDbCircle
 10
-5.2229854567764
 20
20.50000000000001
 40
2.5
100
AcDbArc
 50
-90.0
 51
-60.8553145315492
  0
ARC
  5
458
100
AcDbEntity
  8
1
  6
CONTINUOUS
 62
             7
100
AcDbCircle
 10
-8.86514208873075
 20
20.00000000000001
 40
1.99999999999999
100
AcDbArc
 50
-133.88965993944603
 51
-89.99999999999919
  0
ARC
  5
457
100
AcDbEntity
  8
1
  6
CONTINUOUS
 62
             7
100
AcDbCircle
 10
-5.2229854567764
 20
20.50000000000001
 40
2.49999999999998
100
AcDbArc
 50
-44.62873921372363
 51
-10.00000000000037
  0
ARC
  5
456
100
AcDbEntity
  8
1
  6
CONTINUOUS
 62
             7
100
AcDbCircle
 10
6.02298545677641
 20
33.50000000000001
 40
2.5
100
AcDbArc
 50
90.0
 51
119.14468546845082
  0
ARC
  5
455
100
AcDbEntity
  8
1
  6
CONTINUOUS
 62
             7
100
AcDbCircle
 10
9.66514208873073
 20
34.00000000000001
 40
2.00000000000001
100
AcDbArc
 50
46.11034006055351
 51
90.0
  0
ARC
  5
454
100
AcDbEntity
  8
1
  6
CONTINUOUS
 62
             7
100
AcDbCircle
 10
6.02298545677641
 20
33.50000000000001
 40
2.50000000000001
100
AcDbArc
 50
135.37126078627676
 51
169.9999999999998
  0
ARC
  5
453
100
AcDbEntity
  8
1
  6
CONTINUOUS
 62
             7
100
AcDbCircle
 10
9.66514208873073
 20
34.00000000000001
 40
2.00000000000002
100
AcDbArc
 50
-9.99999999999988
 51
25.69345983051734
  0
ARC
  5
452
100
AcDbEntity
  8
1
  6
CONTINUOUS
 62
             7
100
AcDbCircle
 10
3.13485791126925
 20
20.00000000000001
 40
1.99999999999999
100
AcDbArc
 50
169.99999999999997
 51
-154.30654016948228
  0
ARC
  5
451
100
AcDbEntity
  8
1
  6
CONTINUOUS
 62
             7
100
AcDbCircle
 10
6.7770145432236
 20
20.50000000000001
 40
2.5
100
AcDbArc
 50
-90.0
 51
-60.85531453154904
  0
ARC
  5
450
100
AcDbEntity
  8
1
  6
CONTINUOUS
 62
             7
100
AcDbCircle
 10
3.13485791126925
 20
20.00000000000001
 40
1.99999999999999
100
AcDbArc
 50
-133.88965993944609
 51
-89.9999999999992
  0
ARC
  5
44F
100
AcDbEntity
  8
1
  6
CONTINUOUS
 62
             7
100
AcDbCircle
 10
6.7770145432236
 20
20.50000000000001
 40
2.49999999999998
100
AcDbArc
 50
-44.62873921372363
 51
-10.00000000000039
  0
ARC
  5
44E
100
AcDbEntity
  8
1
  6
CONTINUOUS
 62
             7
100
AcDbCircle
 10
18.02298545677641
 20
33.50000000000001
 40
2.5
100
AcDbArc
 50
90.0
 51
119.14468546845075
  0
ARC
  5
44D
100
AcDbEntity
  8
1
  6
CONTINUOUS
 62
             7
100
AcDbCircle
 10
21.66514208873073
 20
34.00000000000001
 40
2.00000000000001
100
AcDbArc
 50
46.11034006055343
 51
90.0
  0
ARC
  5
44C
100
AcDbEntity
  8
1
  6
CONTINUOUS
 62
             7
100
AcDbCircle
 10
18.02298545677641
 20
33.50000000000001
 40
2.50000000000001
100
AcDbArc
 50
135.37126078627682
 51
169.99999999999977
  0
ARC
  5
44B
100
AcDbEntity
  8
1
  6
CONTINUOUS
 62
             7
100
AcDbCircle
 10
21.66514208873073
 20
34.00000000000001
 40
2.00000000000002
100
AcDbArc
 50
-9.99999999999987
 51
25.6934598305173
  0
ARC
  5
44A
100
AcDbEntity
  8
1
  6
CONTINUOUS
 62
             7
100
AcDbCircle
 10
15.13485791126925
 20
20.00000000000001
 40
1.99999999999999
100
AcDbArc
 50
169.99999999999997
 51
-154.30654016948219
  0
ARC
  5
449
100
AcDbEntity
  8
1
  6
CONTINUOUS
 62
             7
100
AcDbCircle
 10
18.7770145432236
 20
20.50000000000001
 40
2.5
100
AcDbArc
 50
-90.0
 51
-60.85531453154904
  0
ARC
  5
448
100
AcDbEntity
  8
1
  6
CONTINUOUS
 62
             7
100
AcDbCircle
 10
15.13485791126925
 20
20.00000000000001
 40
1.99999999999999
100
AcDbArc
 50
-133.88965993944603
 51
-89.99999999999913
  0
ARC
  5
447
100
AcDbEntity
  8
1
  6
CONTINUOUS
 62
             7
100
AcDbCircle
 10
18.7770145432236
 20
20.50000000000001
 40
2.5
100
AcDbArc
 50
-44.62873921372317
 51
-10.00000000000039
  0
ARC
  5
446
100
AcDbEntity
  8
1
  6
CONTINUOUS
 62
             7
100
AcDbCircle
 10
30.7770145432236
 20
20.50000000000001
 40
2.5
100
AcDbArc
 50
-44.62873921372317
 51
-10.0000000000004
  0
ARC
  5
445
100
AcDbEntity
  8
1
  6
CONTINUOUS
 62
             7
100
AcDbCircle
 10
27.13485791126925
 20
20.00000000000001
 40
1.99999999999998
100
AcDbArc
 50
-133.88965993944583
 51
-89.99999999999919
  0
ARC
  5
444
100
AcDbEntity
  8
1
  6
CONTINUOUS
 62
             7
100
AcDbCircle
 10
30.7770145432236
 20
20.50000000000001
 40
2.5
100
AcDbArc
 50
-90.0
 51
-60.85531453154904
  0
ARC
  5
443
100
AcDbEntity
  8
1
  6
CONTINUOUS
 62
             7
100
AcDbCircle
 10
27.13485791126925
 20
20.00000000000001
 40
1.99999999999999
100
AcDbArc
 50
169.99999999999997
 51
-154.30654016948222
  0
ARC
  5
442
100
AcDbEntity
  8
1
  6
CONTINUOUS
 62
             7
100
AcDbCircle
 10
33.66514208873073
 20
34.00000000000001
 40
2.00000000000002
100
AcDbArc
 50
-9.99999999999987
 51
25.6934598305173
  0
ARC
  5
441
100
AcDbEntity
  8
1
  6
CONTINUOUS
 62
             7
100
AcDbCircle
 10
30.02298545677641
 20
33.50000000000001
 40
2.50000000000001
100
AcDbArc
 50
135.37126078627682
 51
169.99999999999977
  0
ARC
  5
440
100
AcDbEntity
  8
1
  6
CONTINUOUS
 62
             7
100
AcDbCircle
 10
33.66514208873073
 20
34.00000000000001
 40
2.00000000000001
100
AcDbArc
 50
46.11034006055343
 51
90.0
  0
ARC
  5
43F
100
AcDbEntity
  8
1
  6
CONTINUOUS
 62
             7
100
AcDbCircle
 10
30.02298545677641
 20
33.50000000000001
 40
2.5
100
AcDbArc
 50
90.0
 51
119.14468546845075
  0
ARC
  5
43E
100
AcDbEntity
  8
1
  6
CONTINUOUS
 62
             7
100
AcDbCircle
 10
-1.32240751944178
 20
2.30000000000002
 40
1.5
100
AcDbArc
 50
169.99999999999994
 51
-155.49509163211764
  0
ARC
  5
43D
100
AcDbEntity
  8
1
  6
CONTINUOUS
 62
             7
100
AcDbCircle
 10
-1.32240751944178
 20
2.30000000000002
 40
1.5
100
AcDbArc
 50
-128.30756931943978
 51
-90.0
  0
ARC
  5
43C
100
AcDbEntity
  8
1
  6
CONTINUOUS
 62
             7
100
AcDbCircle
 10
1.3043225006268
 20
2.80000000000002
 40
2.0
100
AcDbArc
 50
-90.0
 51
-54.91588873127114
  0
ARC
  5
43B
100
AcDbEntity
  8
1
  6
CONTINUOUS
 62
             7
100
AcDbCircle
 10
1.3043225006268
 20
2.80000000000002
 40
1.99999999999999
100
AcDbArc
 50
-34.42286802977269
 51
-10.0000000000002
  0
ARC
  5
43A
100
AcDbEntity
  8
1
  6
CONTINUOUS
 62
             7
100
AcDbCircle
 10
3.52240751944177
 20
12.50000000000002
 40
1.50000000000002
100
AcDbArc
 50
-9.99999999999963
 51
22.87145242692361
  0
ARC
  5
439
100
AcDbEntity
  8
1
  6
CONTINUOUS
 62
             7
100
AcDbCircle
 10
3.52240751944177
 20
12.50000000000002
 40
1.5
100
AcDbArc
 50
51.69243068056037
 51
90.0
  0
ARC
  5
438
100
AcDbEntity
  8
1
  6
CONTINUOUS
 62
             7
100
AcDbCircle
 10
0.89567749937319
 20
12.00000000000002
 40
2.0
100
AcDbArc
 50
90.0
 51
125.08411126872868
  0
ARC
  5
437
100
AcDbEntity
  8
1
  6
CONTINUOUS
 62
             7
100
AcDbCircle
 10
0.89567749937319
 20
12.00000000000002
 40
1.99999999999999
100
AcDbArc
 50
145.5771319702271
 51
169.99999999999997
  0
ARC
  5
436
100
AcDbEntity
  8
1
  6
CONTINUOUS
 62
             7
100
AcDbCircle
 10
8.67759248055822
 20
2.30000000000002
 40
1.5
100
AcDbArc
 50
169.99999999999994
 51
-155.49509163211764
  0
ARC
  5
435
100
AcDbEntity
  8
1
  6
CONTINUOUS
 62
             7
100
AcDbCircle
 10
8.67759248055822
 20
2.30000000000002
 40
1.5
100
AcDbArc
 50
-128.30756931943992
 51
-90.0
  0
ARC
  5
434
100
AcDbEntity
  8
1
  6
CONTINUOUS
 62
             7
100
AcDbCircle
 10
11.3043225006268
 20
2.80000000000002
 40
2.0
100
AcDbArc
 50
-90.0
 51
-54.91588873127065
  0
ARC
  5
433
100
AcDbEntity
  8
1
  6
CONTINUOUS
 62
             7
100
AcDbCircle
 10
11.3043225006268
 20
2.80000000000002
 40
2.00000000000001
100
AcDbArc
 50
-34.42286802977236
 51
-10.0000000000002
  0
ARC
  5
432
100
AcDbEntity
  8
1
  6
CONTINUOUS
 62
             7
100
AcDbCircle
 10
13.52240751944177
 20
12.50000000000002
 40
1.50000000000002
100
AcDbArc
 50
-9.99999999999961
 51
22.8714524269236
  0
ARC
  5
431
100
AcDbEntity
  8
1
  6
CONTINUOUS
 62
             7
100
AcDbCircle
 10
13.52240751944177
 20
12.50000000000002
 40
1.5
100
AcDbArc
 50
51.69243068056047
 51
90.0
  0
ARC
  5
430
100
AcDbEntity
  8
1
  6
CONTINUOUS
 62
             7
100
AcDbCircle
 10
10.89567749937319
 20
12.00000000000002
 40
2.0
100
AcDbArc
 50
90.0
 51
125.08411126872873
  0
ARC
  5
42F
100
AcDbEntity
  8
1
  6
CONTINUOUS
 62
             7
100
AcDbCircle
 10
10.89567749937319
 20
12.00000000000002
 40
2.0
100
AcDbArc
 50
145.57713197022713
 51
169.99999999999997
  0
ARC
  5
42E
100
AcDbEntity
  8
1
  6
CONTINUOUS
 62
             7
100
AcDbCircle
 10
18.67759248055822
 20
2.30000000000002
 40
1.5
100
AcDbArc
 50
169.99999999999997
 51
-155.49509163211769
  0
ARC
  5
42D
100
AcDbEntity
  8
1
  6
CONTINUOUS
 62
             7
100
AcDbCircle
 10
18.67759248055822
 20
2.30000000000002
 40
1.5
100
AcDbArc
 50
-128.30756931943998
 51
-90.0
  0
ARC
  5
42C
100
AcDbEntity
  8
1
  6
CONTINUOUS
 62
             7
100
AcDbCircle
 10
21.3043225006268
 20
2.80000000000002
 40
2.0
100
AcDbArc
 50
-90.0
 51
-54.91588873127065
  0
ARC
  5
42B
100
AcDbEntity
  8
1
  6
CONTINUOUS
 62
             7
100
AcDbCircle
 10
21.3043225006268
 20
2.80000000000002
 40
1.99999999999999
100
AcDbArc
 50
-34.42286802977264
 51
-10.0000000000002
  0
ARC
  5
42A
100
AcDbEntity
  8
1
  6
CONTINUOUS
 62
             7
100
AcDbCircle
 10
23.52240751944177
 20
12.50000000000002
 40
1.50000000000004
100
AcDbArc
 50
-9.99999999999953
 51
22.8714524269236
  0
ARC
  5
429
100
AcDbEntity
  8
1
  6
CONTINUOUS
 62
             7
100
AcDbCircle
 10
23.52240751944177
 20
12.50000000000002
 40
1.5
100
AcDbArc
 50
51.69243068056047
 51
90.0
  0
ARC
  5
428
100
AcDbEntity
  8
1
  6
CONTINUOUS
 62
             7
100
AcDbCircle
 10
20.89567749937319
 20
12.00000000000002
 40
2.0
100
AcDbArc
 50
90.0
 51
125.08411126872868
  0
ARC
  5
427
100
AcDbEntity
  8
1
  6
CONTINUOUS
 62
             7
100
AcDbCircle
 10
20.89567749937319
 20
12.00000000000002
 40
1.99999999999999
100
AcDbArc
 50
145.5771319702271
 51
169.99999999999997
  0
ARC
  5
426
100
AcDbEntity
  8
1
  6
CONTINUOUS
 62
             7
100
AcDbCircle
 10
30.89567749937319
 20
12.00000000000002
 40
1.99999999999999
100
AcDbArc
 50
145.5771319702271
 51
169.99999999999997
  0
ARC
  5
425
100
AcDbEntity
  8
1
  6
CONTINUOUS
 62
             7
100
AcDbCircle
 10
30.89567749937319
 20
12.00000000000002
 40
2.0
100
AcDbArc
 50
90.0
 51
125.08411126872868
  0
ARC
  5
424
100
AcDbEntity
  8
1
  6
CONTINUOUS
 62
             7
100
AcDbCircle
 10
33.52240751944177
 20
12.50000000000002
 40
1.5
100
AcDbArc
 50
51.69243068056058
 51
90.0
  0
ARC
  5
423
100
AcDbEntity
  8
1
  6
CONTINUOUS
 62
             7
100
AcDbCircle
 10
33.52240751944177
 20
12.50000000000002
 40
1.50000000000002
100
AcDbArc
 50
-9.99999999999962
 51
22.8714524269236
  0
ARC
  5
422
100
AcDbEntity
  8
1
  6
CONTINUOUS
 62
             7
100
AcDbCircle
 10
31.3043225006268
 20
2.80000000000002
 40
1.99999999999999
100
AcDbArc
 50
-34.42286802977264
 51
-10.00000000000022
  0
ARC
  5
421
100
AcDbEntity
  8
1
  6
CONTINUOUS
 62
             7
100
AcDbCircle
 10
31.3043225006268
 20
2.80000000000002
 40
2.0
100
AcDbArc
 50
-90.0
 51
-54.91588873127056
  0
ARC
  5
420
100
AcDbEntity
  8
1
  6
CONTINUOUS
 62
             7
100
AcDbCircle
 10
28.67759248055822
 20
2.30000000000002
 40
1.5
100
AcDbArc
 50
-128.30756931943998
 51
-90.0
  0
ARC
  5
41F
100
AcDbEntity
  8
1
  6
CONTINUOUS
 62
             7
100
AcDbCircle
 10
28.67759248055822
 20
2.30000000000002
 40
1.5
100
AcDbArc
 50
169.99999999999997
 51
-155.49509163211769
  0
ARC
  5
41E
100
AcDbEntity
  8
1
  6
CONTINUOUS
 62
             7
100
AcDbCircle
 10
-17.30000000000004
 20
-21.99999999999988
 40
0.30000000000002
100
AcDbArc
 50
-90.0
 51
90.0
  0
ARC
  5
41D
100
AcDbEntity
  8
1
  6
CONTINUOUS
 62
             7
100
AcDbCircle
 10
-22.70000000000002
 20
-21.99999999999989
 40
0.30000000000002
100
AcDbArc
 50
90.0
 51
-90.0
  0
ARC
  5
41C
100
AcDbEntity
  8
1
  6
CONTINUOUS
 62
             7
100
AcDbCircle
 10
-22.70000000000002
 20
-20.79999999999989
 40
0.30000000000001
100
AcDbArc
 50
90.0
 51
-90.0
  0
ARC
  5
41B
100
AcDbEntity
  8
1
  6
CONTINUOUS
 62
             7
100
AcDbCircle
 10
-17.30000000000004
 20
-20.79999999999989
 40
0.30000000000001
100
AcDbArc
 50
-90.0
 51
90.0
  0
ARC
  5
41A
100
AcDbEntity
  8
1
  6
CONTINUOUS
 62
             7
100
AcDbCircle
 10
-22.70000000000002
 20
-23.1999999999999
 40
0.30000000000003
100
AcDbArc
 50
90.0
 51
-90.0
  0
ARC
  5
419
100
AcDbEntity
  8
1
  6
CONTINUOUS
 62
             7
100
AcDbCircle
 10
-17.30000000000004
 20
-23.19999999999988
 40
0.30000000000004
100
AcDbArc
 50
-90.0
 51
90.0
  0
ARC
  5
418
100
AcDbEntity
  8
1
  6
CONTINUOUS
 62
             7
100
AcDbCircle
 10
2.69999999999996
 20
-34.19999999999988
 40
0.30000000000004
100
AcDbArc
 50
-90.0
 51
90.0
  0
ARC
  5
417
100
AcDbEntity
  8
1
  6
CONTINUOUS
 62
             7
100
AcDbCircle
 10
-22.70000000000002
 20
-34.1999999999999
 40
0.30000000000005
100
AcDbArc
 50
90.0
 51
-90.0
  0
ARC
  5
416
100
AcDbEntity
  8
1
  6
CONTINUOUS
 62
             7
100
AcDbCircle
 10
2.69999999999996
 20
-31.79999999999986
 40
0.30000000000001
100
AcDbArc
 50
-90.0
 51
90.0
  0
ARC
  5
415
100
AcDbEntity
  8
1
  6
CONTINUOUS
 62
             7
100
AcDbCircle
 10
-22.70000000000002
 20
-31.79999999999989
 40
0.30000000000004
100
AcDbArc
 50
90.0
 51
-90.0
  0
ARC
  5
414
100
AcDbEntity
  8
1
  6
CONTINUOUS
 62
             7
100
AcDbCircle
 10
-22.70000000000002
 20
-32.99999999999989
 40
0.30000000000001
100
AcDbArc
 50
90.0
 51
-90.0
  0
ARC
  5
413
100
AcDbEntity
  8
1
  6
CONTINUOUS
 62
             7
100
AcDbCircle
 10
2.69999999999996
 20
-32.99999999999989
 40
0.3
100
AcDbArc
 50
-90.0
 51
90.0
  0
ARC
  5
412
100
AcDbEntity
  8
1
  6
CONTINUOUS
 62
             7
100
AcDbCircle
 10
22.69999999999996
 20
-34.19999999999988
 40
0.30000000000004
100
AcDbArc
 50
-90.0
 51
90.0
  0
ARC
  5
411
100
AcDbEntity
  8
1
  6
CONTINUOUS
 62
             7
100
AcDbCircle
 10
17.29999999999998
 20
-34.1999999999999
 40
0.30000000000005
100
AcDbArc
 50
90.0
 51
-90.0
  0
ARC
  5
410
100
AcDbEntity
  8
1
  6
CONTINUOUS
 62
             7
100
AcDbCircle
 10
22.69999999999996
 20
-31.79999999999986
 40
0.30000000000004
100
AcDbArc
 50
-90.0
 51
90.0
  0
ARC
  5
40F
100
AcDbEntity
  8
1
  6
CONTINUOUS
 62
             7
100
AcDbCircle
 10
17.29999999999998
 20
-31.79999999999989
 40
0.30000000000004
100
AcDbArc
 50
90.0
 51
-90.0
  0
ARC
  5
40E
100
AcDbEntity
  8
1
  6
CONTINUOUS
 62
             7
100
AcDbCircle
 10
17.29999999999998
 20
-32.99999999999989
 40
0.30000000000001
100
AcDbArc
 50
90.0
 51
-90.0
  0
ARC
  5
40D
100
AcDbEntity
  8
1
  6
CONTINUOUS
 62
             7
100
AcDbCircle
 10
22.69999999999996
 20
-32.99999999999989
 40
0.3
100
AcDbArc
 50
-90.0
 51
90.0
  0
ARC
  5
40C
100
AcDbEntity
  8
1
  6
CONTINUOUS
 62
             7
100
AcDbCircle
 10
155.50000000000011
 20
40.82352447854372
 40
0.20999999999949
100
AcDbArc
 50
30.00000000011308
 51
149.99999999997223
  0
ARC
  5
40B
100
AcDbEntity
  8
1
  6
CONTINUOUS
 62
             7
100
AcDbCircle
 10
153.4137306695892
 20
37.20999999999991
 40
0.21000000000034
100
AcDbArc
 50
149.99999999998246
 51
-90.0
  0
ARC
  5
40A
100
AcDbEntity
  8
1
  6
CONTINUOUS
 62
             7
100
AcDbCircle
 10
157.58626933040969
 20
37.20999999999991
 40
0.2099999999999
100
AcDbArc
 50
-90.0
 51
30.00000000001367
  0
ARC
  5
409
100
AcDbEntity
  8
1
  6
CONTINUOUS
 62
             7
100
AcDbCircle
 10
155.50000000000011
 20
39.5899999999999
 40
0.27999999999963
100
AcDbArc
 50
-6.75632703055262
 51
-173.24367296946929
  0
ARC
  5
408
100
AcDbEntity
  8
1
  6
CONTINUOUS
 62
             7
100
AcDbCircle
 10
155.50000000000011
 20
38.40000000000002
 40
0.14000000000067
100
AcDbArc
 50
-173.24367296948913
 51
-6.7563270305752
  0
ARC
  5
407
100
AcDbEntity
  8
1
  6
CONTINUOUS
 62
             7
100
AcDbCircle
 10
144.00000000000011
 20
-40.49999999999998
 40
1.0
100
AcDbArc
 50
-90.0
 51
90.0
  0
ARC
  5
406
100
AcDbEntity
  8
1
  6
CONTINUOUS
 62
             7
100
AcDbCircle
 10
131.50000000000011
 20
-40.49999999999998
 40
1.0
100
AcDbArc
 50
90.0
 51
-90.0
  0
ARC
  5
405
100
AcDbEntity
  8
1
  6
CONTINUOUS
 62
             7
100
AcDbCircle
 10
105.0000000000001
 20
-40.49999999999998
 40
1.0
100
AcDbArc
 50
-90.0
 51
90.0
  0
ARC
  5
404
100
AcDbEntity
  8
1
  6
CONTINUOUS
 62
             7
100
AcDbCircle
 10
92.50000000000011
 20
-40.49999999999998
 40
1.0
100
AcDbArc
 50
90.0
 51
-90.0
  0
ARC
  5
403
100
AcDbEntity
  8
1
  6
CONTINUOUS
 62
             7
100
AcDbCircle
 10
131.50000000000011
 20
-36.99999999999998
 40
1.0
100
AcDbArc
 50
90.0
 51
-90.0
  0
ARC
  5
402
100
AcDbEntity
  8
1
  6
CONTINUOUS
 62
             7
100
AcDbCircle
 10
144.00000000000011
 20
-36.99999999999998
 40
1.0
100
AcDbArc
 50
-90.0
 51
90.0
  0
ARC
  5
401
100
AcDbEntity
  8
1
  6
CONTINUOUS
 62
             7
100
AcDbCircle
 10
124.5000000000001
 20
-36.99999999999998
 40
1.0
100
AcDbArc
 50
-90.0
 51
90.0
  0
ARC
  5
400
100
AcDbEntity
  8
1
  6
CONTINUOUS
 62
             7
100
AcDbCircle
 10
112.0000000000001
 20
-36.99999999999998
 40
1.0
100
AcDbArc
 50
90.0
 51
-90.0
  0
ARC
  5
3FF
100
AcDbEntity
  8
1
  6
CONTINUOUS
 62
             7
100
AcDbCircle
 10
112.0000000000001
 20
-40.49999999999998
 40
1.0
100
AcDbArc
 50
90.0
 51
-90.0
  0
ARC
  5
3FE
100
AcDbEntity
  8
1
  6
CONTINUOUS
 62
             7
100
AcDbCircle
 10
124.5000000000001
 20
-40.49999999999998
 40
1.0
100
AcDbArc
 50
-90.0
 51
90.0
  0
ARC
  5
3FD
100
AcDbEntity
  8
1
  6
CONTINUOUS
 62
             7
100
AcDbCircle
 10
92.50000000000011
 20
-36.99999999999998
 40
1.0
100
AcDbArc
 50
90.0
 51
-90.0
  0
ARC
  5
3FC
100
AcDbEntity
  8
1
  6
CONTINUOUS
 62
             7
100
AcDbCircle
 10
105.0000000000001
 20
-36.99999999999998
 40
1.0
100
AcDbArc
 50
-90.0
 51
90.0
  0
ARC
  5
3FB
100
AcDbEntity
  8
1
  6
CONTINUOUS
 62
             7
100
AcDbCircle
 10
63.50000000000003
 20
-47.19809375960232
 40
0.5
100
AcDbArc
 50
180.0
 51
-94.00000000000388
  0
ARC
  5
3FA
100
AcDbEntity
  8
1
  6
CONTINUOUS
 62
             7
100
AcDbCircle
 10
63.50000000000003
 20
47.19809375960234
 40
0.5
100
AcDbArc
 50
94.00000000000382
 51
180.0
  0
ARC
  5
3F9
100
AcDbEntity
  8
1
  6
CONTINUOUS
 62
             7
100
AcDbCircle
 10
47.00000000000003
 20
-47.0
 40
1.0
100
AcDbArc
 50
-90.0
 51
0.0
  0
ARC
  5
3F8
100
AcDbEntity
  8
1
  6
CONTINUOUS
 62
             7
100
AcDbCircle
 10
-46.99999999999999
 20
-46.99999999999999
 40
1.0
100
AcDbArc
 50
180.0
 51
-90.0
  0
ARC
  5
3F7
100
AcDbEntity
  8
1
  6
CONTINUOUS
 62
             7
100
AcDbCircle
 10
-46.99999999999999
 20
47.00000000000001
 40
1.0
100
AcDbArc
 50
90.0
 51
180.0
  0
ARC
  5
3F6
100
AcDbEntity
  8
1
  6
CONTINUOUS
 62
             7
100
AcDbCircle
 10
47.00000000000003
 20
47.00000000000001
 40
1.0
100
AcDbArc
 50
0.0
 51
90.0
  0
ARC
  5
3F5
100
AcDbEntity
  8
1
  6
CONTINUOUS
 62
             7
100
AcDbCircle
 10
166.90000000000009
 20
-46.09999999999998
 40
0.60000000000002
100
AcDbArc
 50
0.00000000000068
 51
90.0
  0
ARC
  5
3F4
100
AcDbEntity
  8
1
  6
CONTINUOUS
 62
             7
100
AcDbCircle
 10
166.90000000000009
 20
46.09999999999999
 40
0.59999999999998
100
AcDbArc
 50
-90.0
 51
0.0
  0
ARC
  5
3F3
100
AcDbEntity
  8
0
  6
CONTINUOUS
 62
             7
100
AcDbCircle
 10
168.26117465015619
 20
39.54999999999974
 40
1.00000000000002
100
AcDbArc
 50
16.95776330000413
 51
90.0
  0
ARC
  5
3F2
100
AcDbEntity
  8
0
  6
CONTINUOUS
 62
             7
100
AcDbCircle
 10
162.52205450853171
 20
37.79999999999974
 40
6.99999999999999
100
AcDbArc
 50
-16.95776330000396
 51
16.95776330000418
  0
ARC
  5
3F1
100
AcDbEntity
  8
0
  6
CONTINUOUS
 62
             7
100
AcDbCircle
 10
168.26117465015619
 20
36.04999999999974
 40
1.0
100
AcDbArc
 50
-90.0
 51
-16.95776330000258
  0
ARC
  5
3F0
100
AcDbEntity
  8
0
  6
CONTINUOUS
 62
             7
100
AcDbCircle
 10
168.26117465015619
 20
31.14999999999978
 40
1.00000000000001
100
AcDbArc
 50
16.95776330000258
 51
90.0
  0
ARC
  5
3EF
100
AcDbEntity
  8
0
  6
CONTINUOUS
 62
             7
100
AcDbCircle
 10
162.52205450853171
 20
29.39999999999978
 40
7.0
100
AcDbArc
 50
-16.95776330000407
 51
16.95776330000396
  0
ARC
  5
3EE
100
AcDbEntity
  8
0
  6
CONTINUOUS
 62
             7
100
AcDbCircle
 10
168.26117465015619
 20
27.64999999999978
 40
1.0
100
AcDbArc
 50
-90.0
 51
-16.95776330000335
  0
ARC
  5
3ED
100
AcDbEntity
  8
0
  6
CONTINUOUS
 62
             7
100
AcDbCircle
 10
168.26117465015619
 20
22.74999999999978
 40
1.00000000000002
100
AcDbArc
 50
16.95776330000452
 51
90.0
  0
ARC
  5
3EC
100
AcDbEntity
  8
0
  6
CONTINUOUS
 62
             7
100
AcDbCircle
 10
162.52205450853171
 20
20.99999999999978
 40
6.99999999999999
100
AcDbArc
 50
-16.95776330000393
 51
16.95776330000424
  0
ARC
  5
3EB
100
AcDbEntity
  8
0
  6
CONTINUOUS
 62
             7
100
AcDbCircle
 10
168.26117465015619
 20
19.24999999999978
 40
0.99999999999999
100
AcDbArc
 50
-90.0
 51
-16.95776330000238
  0
ARC
  5
3EA
100
AcDbEntity
  8
0
  6
CONTINUOUS
 62
             7
100
AcDbCircle
 10
168.26117465015619
 20
14.3499999999998
 40
1.00000000000001
100
AcDbArc
 50
16.95776330000345
 51
90.0
  0
ARC
  5
3E9
100
AcDbEntity
  8
0
  6
CONTINUOUS
 62
             7
100
AcDbCircle
 10
162.52205450853171
 20
12.5999999999998
 40
7.0
100
AcDbArc
 50
-16.95776330000401
 51
16.95776330000409
  0
ARC
  5
3E8
100
AcDbEntity
  8
0
  6
CONTINUOUS
 62
             7
100
AcDbCircle
 10
168.26117465015619
 20
10.8499999999998
 40
1.0
100
AcDbArc
 50
-90.0
 51
-16.95776330000297
  0
ARC
  5
3E7
100
AcDbEntity
  8
0
  6
CONTINUOUS
 62
             7
100
AcDbCircle
 10
168.26117465015619
 20
5.94999999999983
 40
1.00000000000001
100
AcDbArc
 50
16.95776330000335
 51
90.0
  0
ARC
  5
3E6
100
AcDbEntity
  8
0
  6
CONTINUOUS
 62
             7
100
AcDbCircle
 10
162.52205450853171
 20
4.19999999999983
 40
7.0
100
AcDbArc
 50
-16.95776330000407
 51
16.95776330000407
  0
ARC
  5
3E5
100
AcDbEntity
  8
0
  6
CONTINUOUS
 62
             7
100
AcDbCircle
 10
168.26117465015619
 20
2.44999999999983
 40
1.0
100
AcDbArc
 50
-90.0
 51
-16.95776330000335
  0
ARC
  5
3E4
100
AcDbEntity
  8
0
  6
CONTINUOUS
 62
             7
100
AcDbCircle
 10
168.26117465015619
 20
-2.45000000000015
 40
1.00000000000001
100
AcDbArc
 50
16.95776330000335
 51
90.0
  0
ARC
  5
3E3
100
AcDbEntity
  8
0
  6
CONTINUOUS
 62
             7
100
AcDbCircle
 10
162.52205450853171
 20
-4.20000000000015
 40
7.0
100
AcDbArc
 50
-16.95776330000413
 51
16.95776330000407
  0
ARC
  5
3E2
100
AcDbEntity
  8
0
  6
CONTINUOUS
 62
             7
100
AcDbCircle
 10
168.26117465015619
 20
-5.95000000000015
 40
1.0
100
AcDbArc
 50
-90.0
 51
-16.95776330000374
  0
ARC
  5
3E1
100
AcDbEntity
  8
0
  6
CONTINUOUS
 62
             7
100
AcDbCircle
 10
168.26117465015619
 20
-10.85000000000014
 40
1.00000000000001
100
AcDbArc
 50
16.95776330000355
 51
90.0
  0
ARC
  5
3E0
100
AcDbEntity
  8
0
  6
CONTINUOUS
 62
             7
100
AcDbCircle
 10
162.52205450853171
 20
-12.60000000000014
 40
6.99999999999999
100
AcDbArc
 50
-16.95776330000393
 51
16.9577633000041
  0
ARC
  5
3DF
100
AcDbEntity
  8
0
  6
CONTINUOUS
 62
             7
100
AcDbCircle
 10
168.26117465015619
 20
-14.35000000000014
 40
1.0
100
AcDbArc
 50
-90.0
 51
-16.95776330000238
  0
ARC
  5
3DE
100
AcDbEntity
  8
0
  6
CONTINUOUS
 62
             7
100
AcDbCircle
 10
168.26117465015619
 20
-19.2500000000001
 40
1.00000000000001
100
AcDbArc
 50
16.95776330000238
 51
90.0
  0
ARC
  5
3DD
100
AcDbEntity
  8
0
  6
CONTINUOUS
 62
             7
100
AcDbCircle
 10
162.52205450853171
 20
-21.0000000000001
 40
7.0
100
AcDbArc
 50
-16.95776330000418
 51
16.95776330000393
  0
ARC
  5
3DC
100
AcDbEntity
  8
0
  6
CONTINUOUS
 62
             7
100
AcDbCircle
 10
168.26117465015619
 20
-22.7500000000001
 40
1.0
100
AcDbArc
 50
-90.0
 51
-16.95776330000413
  0
ARC
  5
3DB
100
AcDbEntity
  8
0
  6
CONTINUOUS
 62
             7
100
AcDbCircle
 10
168.26117465015619
 20
-27.65000000000008
 40
1.0
100
AcDbArc
 50
16.95776330000179
 51
90.0
  0
ARC
  5
3DA
100
AcDbEntity
  8
0
  6
CONTINUOUS
 62
             7
100
AcDbCircle
 10
162.52205450853171
 20
-29.40000000000008
 40
7.0
100
AcDbArc
 50
-16.95776330000424
 51
16.95776330000385
  0
ARC
  5
3D9
100
AcDbEntity
  8
0
  6
CONTINUOUS
 62
             7
100
AcDbCircle
 10
168.26117465015619
 20
-31.15000000000008
 40
1.0
100
AcDbArc
 50
-90.0
 51
-16.95776330000452
  0
ARC
  5
3D8
100
AcDbEntity
  8
0
  6
CONTINUOUS
 62
             7
100
AcDbCircle
 10
168.26117465015619
 20
-36.05000000000005
 40
1.00000000000001
100
AcDbArc
 50
16.95776330000219
 51
90.0
  0
ARC
  5
3D7
100
AcDbEntity
  8
0
  6
CONTINUOUS
 62
             7
100
AcDbCircle
 10
162.52205450853171
 20
-37.80000000000005
 40
7.0
100
AcDbArc
 50
-16.95776330000413
 51
16.9577633000039
  0
ARC
  5
3D6
100
AcDbEntity
  8
0
  6
CONTINUOUS
 62
             7
100
AcDbCircle
 10
168.26117465015619
 20
-39.55000000000005
 40
1.0
100
AcDbArc
 50
-90.0
 51
-16.95776330000374
  0
LINE
  5
3D5
100
AcDbEntity
  8
1
  6
CONTINUOUS
 62
             7
100
AcDbLine
 10
-2.70000000000013
 20
-21.69999999999934
 11
2.69999999999985
 21
-21.69999999999934
  0
LINE
  5
3D4
100
AcDbEntity
  8
1
  6
CONTINUOUS
 62
             7
100
AcDbLine
 10
2.69999999999985
 20
-22.29999999999936
 11
-2.70000000000002
 21
-22.2999999999999
  0
LINE
  5
3D3
100
AcDbEntity
  8
1
  6
CONTINUOUS
 62
             7
100
AcDbLine
 10
2.69999999999985
 20
-21.09999999999937
 11
-2.70000000000002
 21
-21.0999999999999
  0
LINE
  5
3D2
100
AcDbEntity
  8
1
  6
CONTINUOUS
 62
             7
100
AcDbLine
 10
-2.70000000000013
 20
-20.49999999999932
 11
2.69999999999985
 21
-20.49999999999932
  0
LINE
  5
3D1
100
AcDbEntity
  8
1
  6
CONTINUOUS
 62
             7
100
AcDbLine
 10
2.69999999999985
 20
-23.49999999999938
 11
-2.70000000000002
 21
-23.49999999999992
  0
LINE
  5
3D0
100
AcDbEntity
  8
1
  6
CONTINUOUS
 62
             7
100
AcDbLine
 10
-2.70000000000002
 20
-22.89999999999987
 11
2.69999999999985
 21
-22.89999999999931
  0
LINE
  5
3CF
100
AcDbEntity
  8
1
  6
CONTINUOUS
 62
             7
100
AcDbLine
 10
17.29999999999987
 20
-21.69999999999934
 11
22.69999999999985
 21
-21.69999999999934
  0
LINE
  5
3CE
100
AcDbEntity
  8
1
  6
CONTINUOUS
 62
             7
100
AcDbLine
 10
22.69999999999985
 20
-22.29999999999936
 11
17.29999999999987
 21
-22.29999999999936
  0
LINE
  5
3CD
100
AcDbEntity
  8
1
  6
CONTINUOUS
 62
             7
100
AcDbLine
 10
22.69999999999985
 20
-21.09999999999937
 11
17.29999999999987
 21
-21.09999999999937
  0
LINE
  5
3CC
100
AcDbEntity
  8
1
  6
CONTINUOUS
 62
             7
100
AcDbLine
 10
17.29999999999987
 20
-20.49999999999932
 11
22.69999999999985
 21
-20.49999999999932
  0
LINE
  5
3CB
100
AcDbEntity
  8
1
  6
CONTINUOUS
 62
             7
100
AcDbLine
 10
22.69999999999985
 20
-23.49999999999938
 11
17.29999999999987
 21
-23.49999999999938
  0
LINE
  5
3CA
100
AcDbEntity
  8
1
  6
CONTINUOUS
 62
             7
100
AcDbLine
 10
17.29999999999987
 20
-22.89999999999931
 11
22.69999999999985
 21
-22.89999999999931
  0
LINE
  5
3C9
100
AcDbEntity
  8
1
  6
CONTINUOUS
 62
             7
100
AcDbLine
 10
-32.76769185634754
 20
30.41282276026145
 11
-32.37409786610695
 21
29.85071228763369
  0
LINE
  5
3C8
100
AcDbEntity
  8
1
  6
CONTINUOUS
 62
             7
100
AcDbLine
 10
-32.37409786610695
 20
29.85071228763369
 11
-31.24635906420306
 21
30.97845108953759
  0
LINE
  5
3C7
100
AcDbEntity
  8
1
  6
CONTINUOUS
 62
             7
100
AcDbLine
 10
-30.76364219024075
 20
33.71607452086263
 11
-31.24635906420306
 21
30.97845108953759
  0
LINE
  5
3C6
100
AcDbEntity
  8
1
  6
CONTINUOUS
 62
             7
100
AcDbLine
 10
-27.62481015374061
 20
34.60000000000003
 11
-30.52803126181536
 21
34.60000000000003
  0
LINE
  5
3C5
100
AcDbEntity
  8
1
  6
CONTINUOUS
 62
             7
100
AcDbLine
 10
-27.99602862357932
 20
30.98392547913743
 11
-27.33098894794489
 21
30.03415039197569
  0
LINE
  5
3C4
100
AcDbEntity
  8
1
  6
CONTINUOUS
 62
             7
100
AcDbLine
 10
-27.99602862357932
 20
30.98392547913743
 11
-27.51331174961703
 21
33.72154891046245
  0
LINE
  5
3C3
100
AcDbEntity
  8
1
  6
CONTINUOUS
 62
             7
100
AcDbLine
 10
-27.33098894794489
 20
30.03415039197569
 11
-26.61579421200347
 21
30.74934512791712
  0
LINE
  5
3C2
100
AcDbEntity
  8
1
  6
CONTINUOUS
 62
             7
100
AcDbLine
 10
-31.13486066007943
 20
30.10000000000003
 11
-31.96640052191194
 21
29.26846013816753
  0
LINE
  5
3C1
100
AcDbEntity
  8
1
  6
CONTINUOUS
 62
             7
100
AcDbLine
 10
-31.13486066007943
 20
30.10000000000003
 11
-28.23163955200468
 21
30.10000000000003
  0
LINE
  5
3C0
100
AcDbEntity
  8
1
  6
CONTINUOUS
 62
             7
100
AcDbLine
 10
-31.96640052191194
 20
29.26846013816753
 11
-31.5683604479953
 21
28.70000000000002
  0
LINE
  5
3BF
100
AcDbEntity
  8
1
  6
CONTINUOUS
 62
             7
100
AcDbLine
 10
-28.66513933992056
 20
28.70000000000002
 11
-27.83359947808808
 21
29.53153986183252
  0
LINE
  5
3BE
100
AcDbEntity
  8
1
  6
CONTINUOUS
 62
             7
100
AcDbLine
 10
-28.66513933992056
 20
28.70000000000002
 11
-31.5683604479953
 21
28.70000000000002
  0
LINE
  5
3BD
100
AcDbEntity
  8
1
  6
CONTINUOUS
 62
             7
100
AcDbLine
 10
-27.83359947808808
 20
29.53153986183252
 11
-28.23163955200468
 21
30.10000000000003
  0
LINE
  5
3BC
100
AcDbEntity
  8
1
  6
CONTINUOUS
 62
             7
100
AcDbLine
 10
-28.55364093579695
 20
27.82154891046245
 11
-27.42590213389306
 21
28.94928771236636
  0
LINE
  5
3BB
100
AcDbEntity
  8
1
  6
CONTINUOUS
 62
             7
100
AcDbLine
 10
-27.42590213389306
 20
28.94928771236636
 11
-27.03230814365247
 21
28.38717723973858
  0
LINE
  5
3BA
100
AcDbEntity
  8
1
  6
CONTINUOUS
 62
             7
100
AcDbLine
 10
-29.03635780975924
 20
25.08392547913741
 11
-28.55364093579695
 21
27.82154891046245
  0
LINE
  5
3B9
100
AcDbEntity
  8
1
  6
CONTINUOUS
 62
             7
100
AcDbLine
 10
-33.18420578799655
 20
28.05065487208294
 11
-32.46901105205512
 21
28.76584960802435
  0
LINE
  5
3B8
100
AcDbEntity
  8
1
  6
CONTINUOUS
 62
             7
100
AcDbLine
 10
-32.46901105205512
 20
28.76584960802435
 11
-31.80397137642069
 21
27.81607452086263
  0
LINE
  5
3B7
100
AcDbEntity
  8
1
  6
CONTINUOUS
 62
             7
100
AcDbLine
 10
-31.80397137642069
 20
27.81607452086263
 11
-32.28668825038298
 21
25.07845108953759
  0
LINE
  5
3B6
100
AcDbEntity
  8
1
  6
CONTINUOUS
 62
             7
100
AcDbLine
 10
-32.1751898462594
 20
24.20000000000002
 11
-29.27196873818465
 21
24.20000000000002
  0
LINE
  5
3B5
100
AcDbEntity
  8
1
  6
CONTINUOUS
 62
             7
100
AcDbLine
 10
-33.79961914896012
 20
24.56047226650042
 11
-33.18420578799655
 21
28.05065487208294
  0
LINE
  5
3B4
100
AcDbEntity
  8
1
  6
CONTINUOUS
 62
             7
100
AcDbLine
 10
-33.68729613234683
 20
23.67784320757375
 11
-32.28668825038298
 21
25.07845108953759
  0
LINE
  5
3B3
100
AcDbEntity
  8
1
  6
CONTINUOUS
 62
             7
100
AcDbLine
 10
-32.1751898462594
 20
24.20000000000002
 11
-33.25223157369678
 21
23.12295827256263
  0
LINE
  5
3B2
100
AcDbEntity
  8
1
  6
CONTINUOUS
 62
             7
100
AcDbLine
 10
-32.32240751944178
 20
22.80000000000003
 11
-29.6956774993732
 21
22.80000000000003
  0
LINE
  5
3B1
100
AcDbEntity
  8
1
  6
CONTINUOUS
 62
             7
100
AcDbLine
 10
-28.54612080279961
 20
23.16338171788204
 11
-29.27196873818465
 21
24.20000000000002
  0
LINE
  5
3B0
100
AcDbEntity
  8
1
  6
CONTINUOUS
 62
             7
100
AcDbLine
 10
-29.03635780975924
 20
25.08392547913741
 11
-28.04590161623148
 21
23.66940744058532
  0
LINE
  5
3AF
100
AcDbEntity
  8
1
  6
CONTINUOUS
 62
             7
100
AcDbLine
 10
-27.72606199334879
 20
24.45270364466616
 11
-27.03230814365247
 21
28.38717723973858
  0
LINE
  5
3AE
100
AcDbEntity
  8
1
  6
CONTINUOUS
 62
             7
100
AcDbLine
 10
-26.61579421200347
 20
30.74934512791712
 11
-26.00038085103989
 21
34.23952773349963
  0
LINE
  5
3AD
100
AcDbEntity
  8
1
  6
CONTINUOUS
 62
             7
100
AcDbLine
 10
-26.09552372272401
 20
35.08299738302898
 11
-27.51331174961703
 21
33.72154891046245
  0
LINE
  5
3AC
100
AcDbEntity
  8
1
  6
CONTINUOUS
 62
             7
100
AcDbLine
 10
-27.62481015374061
 20
34.60000000000003
 11
-26.54776842630324
 21
35.67704172743742
  0
LINE
  5
3AB
100
AcDbEntity
  8
1
  6
CONTINUOUS
 62
             7
100
AcDbLine
 10
-32.07393800665122
 20
34.34729635533387
 11
-32.76769185634754
 21
30.41282276026145
  0
LINE
  5
3AA
100
AcDbEntity
  8
1
  6
CONTINUOUS
 62
             7
100
AcDbLine
 10
-31.75409838376854
 20
35.13059255941473
 11
-30.76364219024075
 21
33.71607452086263
  0
LINE
  5
3A9
100
AcDbEntity
  8
1
  6
CONTINUOUS
 62
             7
100
AcDbLine
 10
-31.25387919720038
 20
35.63661828211802
 11
-30.52803126181536
 21
34.60000000000003
  0
LINE
  5
3A8
100
AcDbEntity
  8
1
  6
CONTINUOUS
 62
             7
100
AcDbLine
 10
-30.10432250062681
 20
36.00000000000002
 11
-27.47759248055823
 21
36.00000000000002
  0
LINE
  5
3A7
100
AcDbEntity
  8
1
  6
CONTINUOUS
 62
             7
100
AcDbLine
 10
-30.10432250062681
 20
14.00000000000002
 11
-27.47759248055823
 21
14.00000000000002
  0
LINE
  5
3A6
100
AcDbEntity
  8
1
  6
CONTINUOUS
 62
             7
100
AcDbLine
 10
-31.25387919720038
 20
13.63661828211802
 11
-30.52803126181536
 21
12.60000000000003
  0
LINE
  5
3A5
100
AcDbEntity
  8
1
  6
CONTINUOUS
 62
             7
100
AcDbLine
 10
-31.75409838376854
 20
13.13059255941473
 11
-30.76364219024075
 21
11.71607452086263
  0
LINE
  5
3A4
100
AcDbEntity
  8
1
  6
CONTINUOUS
 62
             7
100
AcDbLine
 10
-32.07393800665122
 20
12.34729635533388
 11
-32.76769185634754
 21
8.41282276026145
  0
LINE
  5
3A3
100
AcDbEntity
  8
1
  6
CONTINUOUS
 62
             7
100
AcDbLine
 10
-27.62481015374061
 20
12.60000000000003
 11
-26.54776842630324
 21
13.67704172743742
  0
LINE
  5
3A2
100
AcDbEntity
  8
1
  6
CONTINUOUS
 62
             7
100
AcDbLine
 10
-26.09552372272401
 20
13.08299738302898
 11
-27.51331174961703
 21
11.72154891046245
  0
LINE
  5
3A1
100
AcDbEntity
  8
1
  6
CONTINUOUS
 62
             7
100
AcDbLine
 10
-26.61579421200347
 20
8.74934512791711
 11
-26.00038085103989
 21
12.23952773349963
  0
LINE
  5
3A0
100
AcDbEntity
  8
1
  6
CONTINUOUS
 62
             7
100
AcDbLine
 10
-27.72606199334879
 20
2.45270364466616
 11
-27.03230814365247
 21
6.38717723973859
  0
LINE
  5
39F
100
AcDbEntity
  8
1
  6
CONTINUOUS
 62
             7
100
AcDbLine
 10
-29.03635780975924
 20
3.08392547913742
 11
-28.04590161623148
 21
1.66940744058532
  0
LINE
  5
39E
100
AcDbEntity
  8
1
  6
CONTINUOUS
 62
             7
100
AcDbLine
 10
-28.54612080279961
 20
1.16338171788203
 11
-29.27196873818465
 21
2.20000000000002
  0
LINE
  5
39D
100
AcDbEntity
  8
1
  6
CONTINUOUS
 62
             7
100
AcDbLine
 10
-32.32240751944178
 20
0.80000000000002
 11
-29.6956774993732
 21
0.80000000000002
  0
LINE
  5
39C
100
AcDbEntity
  8
1
  6
CONTINUOUS
 62
             7
100
AcDbLine
 10
-32.1751898462594
 20
2.20000000000002
 11
-33.25223157369678
 21
1.12295827256263
  0
LINE
  5
39B
100
AcDbEntity
  8
1
  6
CONTINUOUS
 62
             7
100
AcDbLine
 10
-33.68729613234683
 20
1.67784320757375
 11
-32.28668825038298
 21
3.07845108953759
  0
LINE
  5
39A
100
AcDbEntity
  8
1
  6
CONTINUOUS
 62
             7
100
AcDbLine
 10
-33.79961914896012
 20
2.56047226650042
 11
-33.18420578799655
 21
6.05065487208293
  0
LINE
  5
399
100
AcDbEntity
  8
1
  6
CONTINUOUS
 62
             7
100
AcDbLine
 10
-32.1751898462594
 20
2.20000000000002
 11
-29.27196873818465
 21
2.20000000000002
  0
LINE
  5
398
100
AcDbEntity
  8
1
  6
CONTINUOUS
 62
             7
100
AcDbLine
 10
-31.80397137642069
 20
5.81607452086263
 11
-32.28668825038298
 21
3.07845108953759
  0
LINE
  5
397
100
AcDbEntity
  8
1
  6
CONTINUOUS
 62
             7
100
AcDbLine
 10
-32.46901105205512
 20
6.76584960802435
 11
-31.80397137642069
 21
5.81607452086263
  0
LINE
  5
396
100
AcDbEntity
  8
1
  6
CONTINUOUS
 62
             7
100
AcDbLine
 10
-33.18420578799655
 20
6.05065487208293
 11
-32.46901105205512
 21
6.76584960802435
  0
LINE
  5
395
100
AcDbEntity
  8
1
  6
CONTINUOUS
 62
             7
100
AcDbLine
 10
-29.03635780975924
 20
3.08392547913742
 11
-28.55364093579695
 21
5.82154891046245
  0
LINE
  5
394
100
AcDbEntity
  8
1
  6
CONTINUOUS
 62
             7
100
AcDbLine
 10
-27.42590213389306
 20
6.94928771236635
 11
-27.03230814365247
 21
6.38717723973859
  0
LINE
  5
393
100
AcDbEntity
  8
1
  6
CONTINUOUS
 62
             7
100
AcDbLine
 10
-28.55364093579695
 20
5.82154891046245
 11
-27.42590213389306
 21
6.94928771236635
  0
LINE
  5
392
100
AcDbEntity
  8
1
  6
CONTINUOUS
 62
             7
100
AcDbLine
 10
-27.83359947808808
 20
7.53153986183251
 11
-28.23163955200468
 21
8.10000000000002
  0
LINE
  5
391
100
AcDbEntity
  8
1
  6
CONTINUOUS
 62
             7
100
AcDbLine
 10
-28.66513933992056
 20
6.70000000000002
 11
-31.5683604479953
 21
6.70000000000002
  0
LINE
  5
390
100
AcDbEntity
  8
1
  6
CONTINUOUS
 62
             7
100
AcDbLine
 10
-28.66513933992056
 20
6.70000000000002
 11
-27.83359947808808
 21
7.53153986183251
  0
LINE
  5
38F
100
AcDbEntity
  8
1
  6
CONTINUOUS
 62
             7
100
AcDbLine
 10
-31.96640052191194
 20
7.26846013816753
 11
-31.5683604479953
 21
6.70000000000002
  0
LINE
  5
38E
100
AcDbEntity
  8
1
  6
CONTINUOUS
 62
             7
100
AcDbLine
 10
-31.13486066007943
 20
8.10000000000002
 11
-28.23163955200468
 21
8.10000000000002
  0
LINE
  5
38D
100
AcDbEntity
  8
1
  6
CONTINUOUS
 62
             7
100
AcDbLine
 10
-31.13486066007943
 20
8.10000000000002
 11
-31.96640052191194
 21
7.26846013816753
  0
LINE
  5
38C
100
AcDbEntity
  8
1
  6
CONTINUOUS
 62
             7
100
AcDbLine
 10
-27.33098894794489
 20
8.0341503919757
 11
-26.61579421200347
 21
8.74934512791711
  0
LINE
  5
38B
100
AcDbEntity
  8
1
  6
CONTINUOUS
 62
             7
100
AcDbLine
 10
-27.99602862357932
 20
8.98392547913742
 11
-27.51331174961703
 21
11.72154891046245
  0
LINE
  5
38A
100
AcDbEntity
  8
1
  6
CONTINUOUS
 62
             7
100
AcDbLine
 10
-27.99602862357932
 20
8.98392547913742
 11
-27.33098894794489
 21
8.0341503919757
  0
LINE
  5
389
100
AcDbEntity
  8
1
  6
CONTINUOUS
 62
             7
100
AcDbLine
 10
-27.62481015374061
 20
12.60000000000003
 11
-30.52803126181536
 21
12.60000000000003
  0
LINE
  5
388
100
AcDbEntity
  8
1
  6
CONTINUOUS
 62
             7
100
AcDbLine
 10
-30.76364219024075
 20
11.71607452086263
 11
-31.24635906420306
 21
8.97845108953759
  0
LINE
  5
387
100
AcDbEntity
  8
1
  6
CONTINUOUS
 62
             7
100
AcDbLine
 10
-32.37409786610695
 20
7.85071228763369
 11
-31.24635906420306
 21
8.97845108953759
  0
LINE
  5
386
100
AcDbEntity
  8
1
  6
CONTINUOUS
 62
             7
100
AcDbLine
 10
-32.76769185634754
 20
8.41282276026145
 11
-32.37409786610695
 21
7.85071228763369
  0
LINE
  5
385
100
AcDbEntity
  8
1
  6
CONTINUOUS
 62
             7
100
AcDbLine
 10
-6.3380677501402
 20
34.20000000000001
 11
-7.19455628041197
 21
35.68348165053071
  0
LINE
  5
384
100
AcDbEntity
  8
1
  6
CONTINUOUS
 62
             7
100
AcDbLine
 10
-5.97701454322359
 20
36.00000000000001
 11
-2.33485791126927
 21
36.00000000000001
  0
LINE
  5
383
100
AcDbEntity
  8
1
  6
CONTINUOUS
 62
             7
100
AcDbLine
 10
-0.94831435028178
 20
35.44135247371495
 11
-2.18966682399673
 21
34.20000000000001
  0
LINE
  5
382
100
AcDbEntity
  8
1
  6
CONTINUOUS
 62
             7
100
AcDbLine
 10
-2.18966682399673
 20
34.20000000000001
 11
-6.3380677501402
 21
34.20000000000001
  0
LINE
  5
381
100
AcDbEntity
  8
1
  6
CONTINUOUS
 62
             7
100
AcDbLine
 10
-7.75619894508151
 20
35.25627528143669
 11
-6.70054029933314
 21
33.42782087155121
  0
LINE
  5
380
100
AcDbEntity
  8
1
  6
CONTINUOUS
 62
             7
100
AcDbLine
 10
-6.70054029933314
 20
33.42782087155121
 11
-7.50089756555212
 21
28.8887692584446
  0
LINE
  5
37F
100
AcDbEntity
  8
1
  6
CONTINUOUS
 62
             7
100
AcDbLine
 10
-7.50089756555212
 20
28.8887692584446
 11
-8.64214546753678
 21
27.74752135645996
  0
LINE
  5
37E
100
AcDbEntity
  8
1
  6
CONTINUOUS
 62
             7
100
AcDbLine
 10
-8.64214546753678
 20
27.74752135645996
 11
-9.32220356393412
 21
28.92541653151874
  0
LINE
  5
37D
100
AcDbEntity
  8
1
  6
CONTINUOUS
 62
             7
100
AcDbLine
 10
-9.32220356393412
 20
28.92541653151874
 11
-8.4390339257541
 21
33.93412044416734
  0
LINE
  5
37C
100
AcDbEntity
  8
1
  6
CONTINUOUS
 62
             7
100
AcDbLine
 10
-8.27979880439324
 20
27.11991852594233
 11
-7.49971733033556
 21
27.90000000000001
  0
LINE
  5
37B
100
AcDbEntity
  8
1
  6
CONTINUOUS
 62
             7
100
AcDbLine
 10
-7.49971733033556
 20
27.90000000000001
 11
-3.50905143111103
 21
27.90000000000001
  0
LINE
  5
37A
100
AcDbEntity
  8
1
  6
CONTINUOUS
 62
             7
100
AcDbLine
 10
-3.50905143111103
 20
27.90000000000001
 11
-2.92020119560675
 21
26.88008147405768
  0
LINE
  5
379
100
AcDbEntity
  8
1
  6
CONTINUOUS
 62
             7
100
AcDbLine
 10
-2.92020119560675
 20
26.88008147405768
 11
-3.70028266966443
 21
26.10000000000001
  0
LINE
  5
378
100
AcDbEntity
  8
1
  6
CONTINUOUS
 62
             7
100
AcDbLine
 10
-3.70028266966443
 20
26.10000000000001
 11
-7.69094856888896
 21
26.10000000000001
  0
LINE
  5
377
100
AcDbEntity
  8
1
  6
CONTINUOUS
 62
             7
100
AcDbLine
 10
-7.69094856888896
 20
26.10000000000001
 11
-8.27979880439324
 21
27.11991852594233
  0
LINE
  5
376
100
AcDbEntity
  8
1
  6
CONTINUOUS
 62
             7
100
AcDbLine
 10
-3.08884385499911
 20
28.57217912844879
 11
-2.28848658878013
 21
33.11123074155542
  0
LINE
  5
375
100
AcDbEntity
  8
1
  6
CONTINUOUS
 62
             7
100
AcDbLine
 10
-2.28848658878013
 20
33.11123074155542
 11
-0.532604878173
 21
34.86711245216256
  0
LINE
  5
374
100
AcDbEntity
  8
1
  6
CONTINUOUS
 62
             7
100
AcDbLine
 10
-0.36524240524483
 20
33.65270364466615
 11
-1.26813448992573
 21
28.53214817973873
  0
LINE
  5
373
100
AcDbEntity
  8
1
  6
CONTINUOUS
 62
             7
100
AcDbLine
 10
-1.26813448992573
 20
28.53214817973873
 11
-2.40776563030855
 21
27.39251703935591
  0
LINE
  5
372
100
AcDbEntity
  8
1
  6
CONTINUOUS
 62
             7
100
AcDbLine
 10
-2.40776563030855
 20
27.39251703935591
 11
-3.08884385499911
 21
28.57217912844879
  0
LINE
  5
371
100
AcDbEntity
  8
1
  6
CONTINUOUS
 62
             7
100
AcDbLine
 10
-9.93186551007426
 20
25.4678518202613
 11
-8.79223436969144
 21
26.60748296064411
  0
LINE
  5
370
100
AcDbEntity
  8
1
  6
CONTINUOUS
 62
             7
100
AcDbLine
 10
-8.79223436969144
 20
26.60748296064411
 11
-8.11115614500088
 21
25.42782087155121
  0
LINE
  5
36F
100
AcDbEntity
  8
1
  6
CONTINUOUS
 62
             7
100
AcDbLine
 10
-8.11115614500088
 20
25.42782087155121
 11
-8.91151341121986
 21
20.8887692584446
  0
LINE
  5
36E
100
AcDbEntity
  8
1
  6
CONTINUOUS
 62
             7
100
AcDbLine
 10
-8.91151341121986
 20
20.8887692584446
 11
-10.66739512182699
 21
19.13288754783746
  0
LINE
  5
36D
100
AcDbEntity
  8
1
  6
CONTINUOUS
 62
             7
100
AcDbLine
 10
-10.83475759475516
 20
20.34729635533387
 11
-9.93186551007426
 21
25.4678518202613
  0
LINE
  5
36C
100
AcDbEntity
  8
1
  6
CONTINUOUS
 62
             7
100
AcDbLine
 10
-9.01033317600329
 20
19.8
 11
-4.86193224985979
 21
19.8
  0
LINE
  5
36B
100
AcDbEntity
  8
1
  6
CONTINUOUS
 62
             7
100
AcDbLine
 10
-4.86193224985979
 20
19.8
 11
-4.00544371958802
 21
18.31651834946931
  0
LINE
  5
36A
100
AcDbEntity
  8
1
  6
CONTINUOUS
 62
             7
100
AcDbLine
 10
-5.2229854567764
 20
18.00000000000001
 11
-8.86514208873072
 21
18.00000000000001
  0
LINE
  5
369
100
AcDbEntity
  8
1
  6
CONTINUOUS
 62
             7
100
AcDbLine
 10
-10.25168564971821
 20
18.55864752628507
 11
-9.01033317600329
 21
19.8
  0
LINE
  5
368
100
AcDbEntity
  8
1
  6
CONTINUOUS
 62
             7
100
AcDbLine
 10
-4.49945970066685
 20
20.5721791284488
 11
-3.69910243444787
 21
25.11123074155542
  0
LINE
  5
367
100
AcDbEntity
  8
1
  6
CONTINUOUS
 62
             7
100
AcDbLine
 10
-3.69910243444787
 20
25.11123074155542
 11
-2.55785453246324
 21
26.25247864354006
  0
LINE
  5
366
100
AcDbEntity
  8
1
  6
CONTINUOUS
 62
             7
100
AcDbLine
 10
-2.55785453246324
 20
26.25247864354006
 11
-1.87779643606589
 21
25.07458346848127
  0
LINE
  5
365
100
AcDbEntity
  8
1
  6
CONTINUOUS
 62
             7
100
AcDbLine
 10
-1.87779643606589
 20
25.07458346848127
 11
-2.76096607424589
 21
20.06587955583267
  0
LINE
  5
364
100
AcDbEntity
  8
1
  6
CONTINUOUS
 62
             7
100
AcDbLine
 10
-3.44380105491851
 20
18.74372471856333
 11
-4.49945970066685
 21
20.5721791284488
  0
LINE
  5
363
100
AcDbEntity
  8
1
  6
CONTINUOUS
 62
             7
100
AcDbLine
 10
5.6619322498598
 20
34.20000000000001
 11
4.80544371958803
 21
35.68348165053071
  0
LINE
  5
362
100
AcDbEntity
  8
1
  6
CONTINUOUS
 62
             7
100
AcDbLine
 10
6.02298545677641
 20
36.00000000000001
 11
9.66514208873073
 21
36.00000000000001
  0
LINE
  5
361
100
AcDbEntity
  8
1
  6
CONTINUOUS
 62
             7
100
AcDbLine
 10
11.05168564971822
 20
35.44135247371495
 11
9.81033317600327
 21
34.20000000000001
  0
LINE
  5
360
100
AcDbEntity
  8
1
  6
CONTINUOUS
 62
             7
100
AcDbLine
 10
9.81033317600327
 20
34.20000000000001
 11
5.6619322498598
 21
34.20000000000001
  0
LINE
  5
35F
100
AcDbEntity
  8
1
  6
CONTINUOUS
 62
             7
100
AcDbLine
 10
4.24380105491849
 20
35.25627528143669
 11
5.29945970066686
 21
33.42782087155121
  0
LINE
  5
35E
100
AcDbEntity
  8
1
  6
CONTINUOUS
 62
             7
100
AcDbLine
 10
5.29945970066686
 20
33.42782087155121
 11
4.49910243444788
 21
28.8887692584446
  0
LINE
  5
35D
100
AcDbEntity
  8
1
  6
CONTINUOUS
 62
             7
100
AcDbLine
 10
4.49910243444788
 20
28.8887692584446
 11
3.35785453246322
 21
27.74752135645996
  0
LINE
  5
35C
100
AcDbEntity
  8
1
  6
CONTINUOUS
 62
             7
100
AcDbLine
 10
3.35785453246322
 20
27.74752135645996
 11
2.67779643606588
 21
28.92541653151874
  0
LINE
  5
35B
100
AcDbEntity
  8
1
  6
CONTINUOUS
 62
             7
100
AcDbLine
 10
2.67779643606588
 20
28.92541653151874
 11
3.5609660742459
 21
33.93412044416734
  0
LINE
  5
35A
100
AcDbEntity
  8
1
  6
CONTINUOUS
 62
             7
100
AcDbLine
 10
3.72020119560676
 20
27.11991852594233
 11
4.50028266966444
 21
27.90000000000001
  0
LINE
  5
359
100
AcDbEntity
  8
1
  6
CONTINUOUS
 62
             7
100
AcDbLine
 10
4.50028266966444
 20
27.90000000000001
 11
8.49094856888897
 21
27.90000000000001
  0
LINE
  5
358
100
AcDbEntity
  8
1
  6
CONTINUOUS
 62
             7
100
AcDbLine
 10
8.49094856888897
 20
27.90000000000001
 11
9.07979880439325
 21
26.88008147405768
  0
LINE
  5
357
100
AcDbEntity
  8
1
  6
CONTINUOUS
 62
             7
100
AcDbLine
 10
9.07979880439325
 20
26.88008147405768
 11
8.29971733033557
 21
26.10000000000001
  0
LINE
  5
356
100
AcDbEntity
  8
1
  6
CONTINUOUS
 62
             7
100
AcDbLine
 10
8.29971733033557
 20
26.10000000000001
 11
4.30905143111104
 21
26.10000000000001
  0
LINE
  5
355
100
AcDbEntity
  8
1
  6
CONTINUOUS
 62
             7
100
AcDbLine
 10
4.30905143111104
 20
26.10000000000001
 11
3.72020119560676
 21
27.11991852594233
  0
LINE
  5
354
100
AcDbEntity
  8
1
  6
CONTINUOUS
 62
             7
100
AcDbLine
 10
8.91115614500089
 20
28.57217912844879
 11
9.71151341121987
 21
33.11123074155542
  0
LINE
  5
353
100
AcDbEntity
  8
1
  6
CONTINUOUS
 62
             7
100
AcDbLine
 10
9.71151341121987
 20
33.11123074155542
 11
11.467395121827
 21
34.86711245216256
  0
LINE
  5
352
100
AcDbEntity
  8
1
  6
CONTINUOUS
 62
             7
100
AcDbLine
 10
11.63475759475517
 20
33.65270364466615
 11
10.73186551007427
 21
28.53214817973873
  0
LINE
  5
351
100
AcDbEntity
  8
1
  6
CONTINUOUS
 62
             7
100
AcDbLine
 10
10.73186551007427
 20
28.53214817973873
 11
9.59223436969145
 21
27.39251703935591
  0
LINE
  5
350
100
AcDbEntity
  8
1
  6
CONTINUOUS
 62
             7
100
AcDbLine
 10
9.59223436969145
 20
27.39251703935591
 11
8.91115614500089
 21
28.57217912844879
  0
LINE
  5
34F
100
AcDbEntity
  8
1
  6
CONTINUOUS
 62
             7
100
AcDbLine
 10
2.06813448992574
 20
25.4678518202613
 11
3.20776563030856
 21
26.60748296064411
  0
LINE
  5
34E
100
AcDbEntity
  8
1
  6
CONTINUOUS
 62
             7
100
AcDbLine
 10
3.20776563030856
 20
26.60748296064411
 11
3.88884385499912
 21
25.42782087155121
  0
LINE
  5
34D
100
AcDbEntity
  8
1
  6
CONTINUOUS
 62
             7
100
AcDbLine
 10
3.88884385499912
 20
25.42782087155121
 11
3.08848658878014
 21
20.8887692584446
  0
LINE
  5
34C
100
AcDbEntity
  8
1
  6
CONTINUOUS
 62
             7
100
AcDbLine
 10
3.08848658878014
 20
20.8887692584446
 11
1.33260487817302
 21
19.13288754783746
  0
LINE
  5
34B
100
AcDbEntity
  8
1
  6
CONTINUOUS
 62
             7
100
AcDbLine
 10
1.16524240524484
 20
20.34729635533387
 11
2.06813448992574
 21
25.4678518202613
  0
LINE
  5
34A
100
AcDbEntity
  8
1
  6
CONTINUOUS
 62
             7
100
AcDbLine
 10
2.98966682399671
 20
19.8
 11
7.13806775014021
 21
19.8
  0
LINE
  5
349
100
AcDbEntity
  8
1
  6
CONTINUOUS
 62
             7
100
AcDbLine
 10
7.13806775014021
 20
19.8
 11
7.99455628041199
 21
18.31651834946931
  0
LINE
  5
348
100
AcDbEntity
  8
1
  6
CONTINUOUS
 62
             7
100
AcDbLine
 10
6.7770145432236
 20
18.00000000000001
 11
3.13485791126928
 21
18.00000000000001
  0
LINE
  5
347
100
AcDbEntity
  8
1
  6
CONTINUOUS
 62
             7
100
AcDbLine
 10
1.74831435028179
 20
18.55864752628507
 11
2.98966682399671
 21
19.8
  0
LINE
  5
346
100
AcDbEntity
  8
1
  6
CONTINUOUS
 62
             7
100
AcDbLine
 10
7.50054029933315
 20
20.5721791284488
 11
8.30089756555213
 21
25.11123074155542
  0
LINE
  5
345
100
AcDbEntity
  8
1
  6
CONTINUOUS
 62
             7
100
AcDbLine
 10
8.30089756555213
 20
25.11123074155542
 11
9.44214546753679
 21
26.25247864354006
  0
LINE
  5
344
100
AcDbEntity
  8
1
  6
CONTINUOUS
 62
             7
100
AcDbLine
 10
9.44214546753679
 20
26.25247864354006
 11
10.12220356393411
 21
25.07458346848127
  0
LINE
  5
343
100
AcDbEntity
  8
1
  6
CONTINUOUS
 62
             7
100
AcDbLine
 10
10.12220356393411
 20
25.07458346848127
 11
9.23903392575411
 21
20.06587955583267
  0
LINE
  5
342
100
AcDbEntity
  8
1
  6
CONTINUOUS
 62
             7
100
AcDbLine
 10
8.55619894508149
 20
18.74372471856333
 11
7.50054029933315
 21
20.5721791284488
  0
LINE
  5
341
100
AcDbEntity
  8
1
  6
CONTINUOUS
 62
             7
100
AcDbLine
 10
17.6619322498598
 20
34.20000000000001
 11
16.80544371958803
 21
35.68348165053071
  0
LINE
  5
340
100
AcDbEntity
  8
1
  6
CONTINUOUS
 62
             7
100
AcDbLine
 10
18.02298545677641
 20
36.00000000000001
 11
21.66514208873073
 21
36.00000000000001
  0
LINE
  5
33F
100
AcDbEntity
  8
1
  6
CONTINUOUS
 62
             7
100
AcDbLine
 10
23.05168564971822
 20
35.44135247371495
 11
21.81033317600327
 21
34.20000000000001
  0
LINE
  5
33E
100
AcDbEntity
  8
1
  6
CONTINUOUS
 62
             7
100
AcDbLine
 10
21.81033317600327
 20
34.20000000000001
 11
17.6619322498598
 21
34.20000000000001
  0
LINE
  5
33D
100
AcDbEntity
  8
1
  6
CONTINUOUS
 62
             7
100
AcDbLine
 10
16.24380105491849
 20
35.25627528143669
 11
17.29945970066683
 21
33.42782087155121
  0
LINE
  5
33C
100
AcDbEntity
  8
1
  6
CONTINUOUS
 62
             7
100
AcDbLine
 10
17.29945970066683
 20
33.42782087155121
 11
16.49910243444788
 21
28.8887692584446
  0
LINE
  5
33B
100
AcDbEntity
  8
1
  6
CONTINUOUS
 62
             7
100
AcDbLine
 10
16.49910243444788
 20
28.8887692584446
 11
15.35785453246322
 21
27.74752135645996
  0
LINE
  5
33A
100
AcDbEntity
  8
1
  6
CONTINUOUS
 62
             7
100
AcDbLine
 10
15.35785453246322
 20
27.74752135645996
 11
14.6777964360659
 21
28.92541653151874
  0
LINE
  5
339
100
AcDbEntity
  8
1
  6
CONTINUOUS
 62
             7
100
AcDbLine
 10
14.6777964360659
 20
28.92541653151874
 11
15.5609660742459
 21
33.93412044416734
  0
LINE
  5
338
100
AcDbEntity
  8
1
  6
CONTINUOUS
 62
             7
100
AcDbLine
 10
15.72020119560676
 20
27.11991852594233
 11
16.50028266966444
 21
27.90000000000001
  0
LINE
  5
337
100
AcDbEntity
  8
1
  6
CONTINUOUS
 62
             7
100
AcDbLine
 10
16.50028266966444
 20
27.90000000000001
 11
20.49094856888897
 21
27.90000000000001
  0
LINE
  5
336
100
AcDbEntity
  8
1
  6
CONTINUOUS
 62
             7
100
AcDbLine
 10
20.49094856888897
 20
27.90000000000001
 11
21.07979880439325
 21
26.88008147405768
  0
LINE
  5
335
100
AcDbEntity
  8
1
  6
CONTINUOUS
 62
             7
100
AcDbLine
 10
21.07979880439325
 20
26.88008147405768
 11
20.29971733033557
 21
26.10000000000001
  0
LINE
  5
334
100
AcDbEntity
  8
1
  6
CONTINUOUS
 62
             7
100
AcDbLine
 10
20.29971733033557
 20
26.10000000000001
 11
16.30905143111104
 21
26.10000000000001
  0
LINE
  5
333
100
AcDbEntity
  8
1
  6
CONTINUOUS
 62
             7
100
AcDbLine
 10
16.30905143111104
 20
26.10000000000001
 11
15.72020119560676
 21
27.11991852594233
  0
LINE
  5
332
100
AcDbEntity
  8
1
  6
CONTINUOUS
 62
             7
100
AcDbLine
 10
20.91115614500089
 20
28.57217912844879
 11
21.71151341121987
 21
33.11123074155542
  0
LINE
  5
331
100
AcDbEntity
  8
1
  6
CONTINUOUS
 62
             7
100
AcDbLine
 10
21.71151341121987
 20
33.11123074155542
 11
23.467395121827
 21
34.86711245216256
  0
LINE
  5
330
100
AcDbEntity
  8
1
  6
CONTINUOUS
 62
             7
100
AcDbLine
 10
23.63475759475517
 20
33.65270364466615
 11
22.73186551007427
 21
28.53214817973873
  0
LINE
  5
32F
100
AcDbEntity
  8
1
  6
CONTINUOUS
 62
             7
100
AcDbLine
 10
22.73186551007427
 20
28.53214817973873
 11
21.59223436969145
 21
27.39251703935591
  0
LINE
  5
32E
100
AcDbEntity
  8
1
  6
CONTINUOUS
 62
             7
100
AcDbLine
 10
21.59223436969145
 20
27.39251703935591
 11
20.91115614500089
 21
28.57217912844879
  0
LINE
  5
32D
100
AcDbEntity
  8
1
  6
CONTINUOUS
 62
             7
100
AcDbLine
 10
14.06813448992574
 20
25.4678518202613
 11
15.20776563030856
 21
26.60748296064411
  0
LINE
  5
32C
100
AcDbEntity
  8
1
  6
CONTINUOUS
 62
             7
100
AcDbLine
 10
15.20776563030856
 20
26.60748296064411
 11
15.88884385499912
 21
25.42782087155121
  0
LINE
  5
32B
100
AcDbEntity
  8
1
  6
CONTINUOUS
 62
             7
100
AcDbLine
 10
15.88884385499912
 20
25.42782087155121
 11
15.08848658878014
 21
20.8887692584446
  0
LINE
  5
32A
100
AcDbEntity
  8
1
  6
CONTINUOUS
 62
             7
100
AcDbLine
 10
15.08848658878014
 20
20.8887692584446
 11
13.33260487817302
 21
19.13288754783746
  0
LINE
  5
329
100
AcDbEntity
  8
1
  6
CONTINUOUS
 62
             7
100
AcDbLine
 10
13.16524240524484
 20
20.34729635533387
 11
14.06813448992574
 21
25.4678518202613
  0
LINE
  5
328
100
AcDbEntity
  8
1
  6
CONTINUOUS
 62
             7
100
AcDbLine
 10
14.98966682399674
 20
19.8
 11
19.13806775014021
 21
19.8
  0
LINE
  5
327
100
AcDbEntity
  8
1
  6
CONTINUOUS
 62
             7
100
AcDbLine
 10
19.13806775014021
 20
19.8
 11
19.99455628041199
 21
18.31651834946931
  0
LINE
  5
326
100
AcDbEntity
  8
1
  6
CONTINUOUS
 62
             7
100
AcDbLine
 10
18.7770145432236
 20
18.00000000000001
 11
15.13485791126928
 21
18.00000000000001
  0
LINE
  5
325
100
AcDbEntity
  8
1
  6
CONTINUOUS
 62
             7
100
AcDbLine
 10
13.74831435028179
 20
18.55864752628507
 11
14.98966682399674
 21
19.8
  0
LINE
  5
324
100
AcDbEntity
  8
1
  6
CONTINUOUS
 62
             7
100
AcDbLine
 10
19.50054029933315
 20
20.5721791284488
 11
20.30089756555213
 21
25.11123074155542
  0
LINE
  5
323
100
AcDbEntity
  8
1
  6
CONTINUOUS
 62
             7
100
AcDbLine
 10
20.30089756555213
 20
25.11123074155542
 11
21.44214546753679
 21
26.25247864354006
  0
LINE
  5
322
100
AcDbEntity
  8
1
  6
CONTINUOUS
 62
             7
100
AcDbLine
 10
21.44214546753679
 20
26.25247864354006
 11
22.12220356393411
 21
25.07458346848127
  0
LINE
  5
321
100
AcDbEntity
  8
1
  6
CONTINUOUS
 62
             7
100
AcDbLine
 10
22.12220356393411
 20
25.07458346848127
 11
21.23903392575411
 21
20.06587955583267
  0
LINE
  5
320
100
AcDbEntity
  8
1
  6
CONTINUOUS
 62
             7
100
AcDbLine
 10
20.55619894508152
 20
18.74372471856333
 11
19.50054029933315
 21
20.5721791284488
  0
LINE
  5
31F
100
AcDbEntity
  8
1
  6
CONTINUOUS
 62
             7
100
AcDbLine
 10
32.55619894508152
 20
18.74372471856333
 11
31.50054029933315
 21
20.5721791284488
  0
LINE
  5
31E
100
AcDbEntity
  8
1
  6
CONTINUOUS
 62
             7
100
AcDbLine
 10
34.12220356393411
 20
25.07458346848127
 11
33.23903392575411
 21
20.06587955583267
  0
LINE
  5
31D
100
AcDbEntity
  8
1
  6
CONTINUOUS
 62
             7
100
AcDbLine
 10
33.44214546753679
 20
26.25247864354006
 11
34.12220356393411
 21
25.07458346848127
  0
LINE
  5
31C
100
AcDbEntity
  8
1
  6
CONTINUOUS
 62
             7
100
AcDbLine
 10
32.30089756555213
 20
25.11123074155542
 11
33.44214546753679
 21
26.25247864354006
  0
LINE
  5
31B
100
AcDbEntity
  8
1
  6
CONTINUOUS
 62
             7
100
AcDbLine
 10
31.50054029933315
 20
20.5721791284488
 11
32.30089756555213
 21
25.11123074155542
  0
LINE
  5
31A
100
AcDbEntity
  8
1
  6
CONTINUOUS
 62
             7
100
AcDbLine
 10
25.7483143502818
 20
18.55864752628507
 11
26.98966682399671
 21
19.8
  0
LINE
  5
319
100
AcDbEntity
  8
1
  6
CONTINUOUS
 62
             7
100
AcDbLine
 10
30.7770145432236
 20
18.00000000000001
 11
27.13485791126928
 21
18.00000000000001
  0
LINE
  5
318
100
AcDbEntity
  8
1
  6
CONTINUOUS
 62
             7
100
AcDbLine
 10
31.13806775014021
 20
19.8
 11
31.99455628041199
 21
18.31651834946931
  0
LINE
  5
317
100
AcDbEntity
  8
1
  6
CONTINUOUS
 62
             7
100
AcDbLine
 10
26.98966682399671
 20
19.8
 11
31.13806775014021
 21
19.8
  0
LINE
  5
316
100
AcDbEntity
  8
1
  6
CONTINUOUS
 62
             7
100
AcDbLine
 10
25.16524240524484
 20
20.34729635533387
 11
26.06813448992574
 21
25.4678518202613
  0
LINE
  5
315
100
AcDbEntity
  8
1
  6
CONTINUOUS
 62
             7
100
AcDbLine
 10
27.08848658878014
 20
20.8887692584446
 11
25.33260487817302
 21
19.13288754783746
  0
LINE
  5
314
100
AcDbEntity
  8
1
  6
CONTINUOUS
 62
             7
100
AcDbLine
 10
27.88884385499912
 20
25.42782087155121
 11
27.08848658878014
 21
20.8887692584446
  0
LINE
  5
313
100
AcDbEntity
  8
1
  6
CONTINUOUS
 62
             7
100
AcDbLine
 10
27.20776563030856
 20
26.60748296064411
 11
27.88884385499912
 21
25.42782087155121
  0
LINE
  5
312
100
AcDbEntity
  8
1
  6
CONTINUOUS
 62
             7
100
AcDbLine
 10
26.06813448992574
 20
25.4678518202613
 11
27.20776563030856
 21
26.60748296064411
  0
LINE
  5
311
100
AcDbEntity
  8
1
  6
CONTINUOUS
 62
             7
100
AcDbLine
 10
33.59223436969145
 20
27.39251703935591
 11
32.91115614500089
 21
28.57217912844879
  0
LINE
  5
310
100
AcDbEntity
  8
1
  6
CONTINUOUS
 62
             7
100
AcDbLine
 10
34.73186551007427
 20
28.53214817973873
 11
33.59223436969145
 21
27.39251703935591
  0
LINE
  5
30F
100
AcDbEntity
  8
1
  6
CONTINUOUS
 62
             7
100
AcDbLine
 10
35.63475759475517
 20
33.65270364466615
 11
34.73186551007427
 21
28.53214817973873
  0
LINE
  5
30E
100
AcDbEntity
  8
1
  6
CONTINUOUS
 62
             7
100
AcDbLine
 10
33.71151341121987
 20
33.11123074155542
 11
35.467395121827
 21
34.86711245216256
  0
LINE
  5
30D
100
AcDbEntity
  8
1
  6
CONTINUOUS
 62
             7
100
AcDbLine
 10
32.91115614500089
 20
28.57217912844879
 11
33.71151341121987
 21
33.11123074155542
  0
LINE
  5
30C
100
AcDbEntity
  8
1
  6
CONTINUOUS
 62
             7
100
AcDbLine
 10
28.30905143111104
 20
26.10000000000001
 11
27.72020119560676
 21
27.11991852594233
  0
LINE
  5
30B
100
AcDbEntity
  8
1
  6
CONTINUOUS
 62
             7
100
AcDbLine
 10
32.29971733033557
 20
26.10000000000001
 11
28.30905143111104
 21
26.10000000000001
  0
LINE
  5
30A
100
AcDbEntity
  8
1
  6
CONTINUOUS
 62
             7
100
AcDbLine
 10
33.07979880439325
 20
26.88008147405768
 11
32.29971733033557
 21
26.10000000000001
  0
LINE
  5
309
100
AcDbEntity
  8
1
  6
CONTINUOUS
 62
             7
100
AcDbLine
 10
32.49094856888897
 20
27.90000000000001
 11
33.07979880439325
 21
26.88008147405768
  0
LINE
  5
308
100
AcDbEntity
  8
1
  6
CONTINUOUS
 62
             7
100
AcDbLine
 10
28.50028266966444
 20
27.90000000000001
 11
32.49094856888897
 21
27.90000000000001
  0
LINE
  5
307
100
AcDbEntity
  8
1
  6
CONTINUOUS
 62
             7
100
AcDbLine
 10
27.72020119560676
 20
27.11991852594233
 11
28.50028266966444
 21
27.90000000000001
  0
LINE
  5
306
100
AcDbEntity
  8
1
  6
CONTINUOUS
 62
             7
100
AcDbLine
 10
26.6777964360659
 20
28.92541653151874
 11
27.5609660742459
 21
33.93412044416734
  0
LINE
  5
305
100
AcDbEntity
  8
1
  6
CONTINUOUS
 62
             7
100
AcDbLine
 10
27.35785453246322
 20
27.74752135645996
 11
26.6777964360659
 21
28.92541653151874
  0
LINE
  5
304
100
AcDbEntity
  8
1
  6
CONTINUOUS
 62
             7
100
AcDbLine
 10
28.49910243444788
 20
28.8887692584446
 11
27.35785453246322
 21
27.74752135645996
  0
LINE
  5
303
100
AcDbEntity
  8
1
  6
CONTINUOUS
 62
             7
100
AcDbLine
 10
29.29945970066683
 20
33.42782087155121
 11
28.49910243444788
 21
28.8887692584446
  0
LINE
  5
302
100
AcDbEntity
  8
1
  6
CONTINUOUS
 62
             7
100
AcDbLine
 10
28.24380105491849
 20
35.25627528143669
 11
29.29945970066683
 21
33.42782087155121
  0
LINE
  5
301
100
AcDbEntity
  8
1
  6
CONTINUOUS
 62
             7
100
AcDbLine
 10
33.81033317600327
 20
34.20000000000001
 11
29.6619322498598
 21
34.20000000000001
  0
LINE
  5
300
100
AcDbEntity
  8
1
  6
CONTINUOUS
 62
             7
100
AcDbLine
 10
35.05168564971822
 20
35.44135247371495
 11
33.81033317600327
 21
34.20000000000001
  0
LINE
  5
2FF
100
AcDbEntity
  8
1
  6
CONTINUOUS
 62
             7
100
AcDbLine
 10
30.02298545677641
 20
36.00000000000001
 11
33.66514208873073
 21
36.00000000000001
  0
LINE
  5
2FE
100
AcDbEntity
  8
1
  6
CONTINUOUS
 62
             7
100
AcDbLine
 10
29.6619322498598
 20
34.20000000000001
 11
28.80544371958803
 21
35.68348165053071
  0
LINE
  5
2FD
100
AcDbEntity
  8
1
  6
CONTINUOUS
 62
             7
100
AcDbLine
 10
-1.76769185634751
 20
8.41282276026145
 11
-1.37409786610695
 21
7.85071228763369
  0
LINE
  5
2FC
100
AcDbEntity
  8
1
  6
CONTINUOUS
 62
             7
100
AcDbLine
 10
-1.37409786610695
 20
7.85071228763369
 11
-0.24635906420306
 21
8.97845108953759
  0
LINE
  5
2FB
100
AcDbEntity
  8
1
  6
CONTINUOUS
 62
             7
100
AcDbLine
 10
0.23635780975926
 20
11.71607452086263
 11
-0.24635906420306
 21
8.97845108953759
  0
LINE
  5
2FA
100
AcDbEntity
  8
1
  6
CONTINUOUS
 62
             7
100
AcDbLine
 10
3.37518984625939
 20
12.60000000000003
 11
0.47196873818464
 21
12.60000000000003
  0
LINE
  5
2F9
100
AcDbEntity
  8
1
  6
CONTINUOUS
 62
             7
100
AcDbLine
 10
3.00397137642071
 20
8.98392547913742
 11
3.66901105205511
 21
8.0341503919757
  0
LINE
  5
2F8
100
AcDbEntity
  8
1
  6
CONTINUOUS
 62
             7
100
AcDbLine
 10
3.00397137642071
 20
8.98392547913742
 11
3.48668825038297
 21
11.72154891046245
  0
LINE
  5
2F7
100
AcDbEntity
  8
1
  6
CONTINUOUS
 62
             7
100
AcDbLine
 10
3.66901105205511
 20
8.0341503919757
 11
4.38420578799654
 21
8.74934512791711
  0
LINE
  5
2F6
100
AcDbEntity
  8
1
  6
CONTINUOUS
 62
             7
100
AcDbLine
 10
-0.13486066007943
 20
8.10000000000002
 11
-0.96640052191194
 21
7.26846013816753
  0
LINE
  5
2F5
100
AcDbEntity
  8
1
  6
CONTINUOUS
 62
             7
100
AcDbLine
 10
-0.13486066007943
 20
8.10000000000002
 11
2.76836044799532
 21
8.10000000000002
  0
LINE
  5
2F4
100
AcDbEntity
  8
1
  6
CONTINUOUS
 62
             7
100
AcDbLine
 10
-0.96640052191194
 20
7.26846013816753
 11
-0.5683604479953
 21
6.70000000000002
  0
LINE
  5
2F3
100
AcDbEntity
  8
1
  6
CONTINUOUS
 62
             7
100
AcDbLine
 10
2.33486066007944
 20
6.70000000000002
 11
3.16640052191193
 21
7.53153986183251
  0
LINE
  5
2F2
100
AcDbEntity
  8
1
  6
CONTINUOUS
 62
             7
100
AcDbLine
 10
2.33486066007944
 20
6.70000000000002
 11
-0.5683604479953
 21
6.70000000000002
  0
LINE
  5
2F1
100
AcDbEntity
  8
1
  6
CONTINUOUS
 62
             7
100
AcDbLine
 10
3.16640052191193
 20
7.53153986183251
 11
2.76836044799532
 21
8.10000000000002
  0
LINE
  5
2F0
100
AcDbEntity
  8
1
  6
CONTINUOUS
 62
             7
100
AcDbLine
 10
2.44635906420305
 20
5.82154891046245
 11
3.57409786610694
 21
6.94928771236635
  0
LINE
  5
2EF
100
AcDbEntity
  8
1
  6
CONTINUOUS
 62
             7
100
AcDbLine
 10
3.57409786610694
 20
6.94928771236635
 11
3.96769185634753
 21
6.38717723973859
  0
LINE
  5
2EE
100
AcDbEntity
  8
1
  6
CONTINUOUS
 62
             7
100
AcDbLine
 10
1.96364219024076
 20
3.08392547913742
 11
2.44635906420305
 21
5.82154891046245
  0
LINE
  5
2ED
100
AcDbEntity
  8
1
  6
CONTINUOUS
 62
             7
100
AcDbLine
 10
-2.18420578799652
 20
6.05065487208293
 11
-1.46901105205512
 21
6.76584960802435
  0
LINE
  5
2EC
100
AcDbEntity
  8
1
  6
CONTINUOUS
 62
             7
100
AcDbLine
 10
-1.46901105205512
 20
6.76584960802435
 11
-0.80397137642069
 21
5.81607452086263
  0
LINE
  5
2EB
100
AcDbEntity
  8
1
  6
CONTINUOUS
 62
             7
100
AcDbLine
 10
-0.80397137642069
 20
5.81607452086263
 11
-1.28668825038298
 21
3.07845108953759
  0
LINE
  5
2EA
100
AcDbEntity
  8
1
  6
CONTINUOUS
 62
             7
100
AcDbLine
 10
-1.1751898462594
 20
2.20000000000002
 11
1.72803126181537
 21
2.20000000000002
  0
LINE
  5
2E9
100
AcDbEntity
  8
1
  6
CONTINUOUS
 62
             7
100
AcDbLine
 10
-2.79961914896009
 20
2.56047226650042
 11
-2.18420578799652
 21
6.05065487208293
  0
LINE
  5
2E8
100
AcDbEntity
  8
1
  6
CONTINUOUS
 62
             7
100
AcDbLine
 10
-2.68729613234683
 20
1.67784320757375
 11
-1.28668825038298
 21
3.07845108953759
  0
LINE
  5
2E7
100
AcDbEntity
  8
1
  6
CONTINUOUS
 62
             7
100
AcDbLine
 10
-1.1751898462594
 20
2.20000000000002
 11
-2.25223157369678
 21
1.12295827256263
  0
LINE
  5
2E6
100
AcDbEntity
  8
1
  6
CONTINUOUS
 62
             7
100
AcDbLine
 10
-1.32240751944178
 20
0.80000000000002
 11
1.3043225006268
 21
0.80000000000002
  0
LINE
  5
2E5
100
AcDbEntity
  8
1
  6
CONTINUOUS
 62
             7
100
AcDbLine
 10
2.45387919720037
 20
1.16338171788203
 11
1.72803126181537
 21
2.20000000000002
  0
LINE
  5
2E4
100
AcDbEntity
  8
1
  6
CONTINUOUS
 62
             7
100
AcDbLine
 10
1.96364219024076
 20
3.08392547913742
 11
2.95409838376853
 21
1.66940744058532
  0
LINE
  5
2E3
100
AcDbEntity
  8
1
  6
CONTINUOUS
 62
             7
100
AcDbLine
 10
3.27393800665121
 20
2.45270364466616
 11
3.96769185634753
 21
6.38717723973859
  0
LINE
  5
2E2
100
AcDbEntity
  8
1
  6
CONTINUOUS
 62
             7
100
AcDbLine
 10
4.38420578799654
 20
8.74934512791711
 11
4.99961914896011
 21
12.23952773349963
  0
LINE
  5
2E1
100
AcDbEntity
  8
1
  6
CONTINUOUS
 62
             7
100
AcDbLine
 10
4.90447627727599
 20
13.08299738302898
 11
3.48668825038297
 21
11.72154891046245
  0
LINE
  5
2E0
100
AcDbEntity
  8
1
  6
CONTINUOUS
 62
             7
100
AcDbLine
 10
3.37518984625939
 20
12.60000000000003
 11
4.45223157369676
 21
13.67704172743742
  0
LINE
  5
2DF
100
AcDbEntity
  8
1
  6
CONTINUOUS
 62
             7
100
AcDbLine
 10
-1.07393800665122
 20
12.34729635533388
 11
-1.76769185634751
 21
8.41282276026145
  0
LINE
  5
2DE
100
AcDbEntity
  8
1
  6
CONTINUOUS
 62
             7
100
AcDbLine
 10
-0.75409838376854
 20
13.13059255941473
 11
0.23635780975926
 21
11.71607452086263
  0
LINE
  5
2DD
100
AcDbEntity
  8
1
  6
CONTINUOUS
 62
             7
100
AcDbLine
 10
-0.25387919720038
 20
13.63661828211802
 11
0.47196873818464
 21
12.60000000000003
  0
LINE
  5
2DC
100
AcDbEntity
  8
1
  6
CONTINUOUS
 62
             7
100
AcDbLine
 10
0.89567749937319
 20
14.00000000000002
 11
3.52240751944177
 21
14.00000000000002
  0
LINE
  5
2DB
100
AcDbEntity
  8
1
  6
CONTINUOUS
 62
             7
100
AcDbLine
 10
8.23230814365249
 20
8.41282276026145
 11
8.62590213389305
 21
7.85071228763369
  0
LINE
  5
2DA
100
AcDbEntity
  8
1
  6
CONTINUOUS
 62
             7
100
AcDbLine
 10
8.62590213389305
 20
7.85071228763369
 11
9.75364093579694
 21
8.97845108953759
  0
LINE
  5
2D9
100
AcDbEntity
  8
1
  6
CONTINUOUS
 62
             7
100
AcDbLine
 10
10.23635780975926
 20
11.71607452086263
 11
9.75364093579694
 21
8.97845108953759
  0
LINE
  5
2D8
100
AcDbEntity
  8
1
  6
CONTINUOUS
 62
             7
100
AcDbLine
 10
13.37518984625939
 20
12.60000000000003
 11
10.47196873818464
 21
12.60000000000003
  0
LINE
  5
2D7
100
AcDbEntity
  8
1
  6
CONTINUOUS
 62
             7
100
AcDbLine
 10
13.00397137642068
 20
8.98392547913742
 11
13.66901105205511
 21
8.0341503919757
  0
LINE
  5
2D6
100
AcDbEntity
  8
1
  6
CONTINUOUS
 62
             7
100
AcDbLine
 10
13.00397137642068
 20
8.98392547913742
 11
13.48668825038297
 21
11.72154891046245
  0
LINE
  5
2D5
100
AcDbEntity
  8
1
  6
CONTINUOUS
 62
             7
100
AcDbLine
 10
13.66901105205511
 20
8.0341503919757
 11
14.38420578799654
 21
8.74934512791711
  0
LINE
  5
2D4
100
AcDbEntity
  8
1
  6
CONTINUOUS
 62
             7
100
AcDbLine
 10
9.86513933992057
 20
8.10000000000002
 11
9.03359947808806
 21
7.26846013816753
  0
LINE
  5
2D3
100
AcDbEntity
  8
1
  6
CONTINUOUS
 62
             7
100
AcDbLine
 10
9.86513933992057
 20
8.10000000000002
 11
12.76836044799532
 21
8.10000000000002
  0
LINE
  5
2D2
100
AcDbEntity
  8
1
  6
CONTINUOUS
 62
             7
100
AcDbLine
 10
9.03359947808806
 20
7.26846013816753
 11
9.4316395520047
 21
6.70000000000002
  0
LINE
  5
2D1
100
AcDbEntity
  8
1
  6
CONTINUOUS
 62
             7
100
AcDbLine
 10
12.33486066007944
 20
6.70000000000002
 11
13.16640052191193
 21
7.53153986183251
  0
LINE
  5
2D0
100
AcDbEntity
  8
1
  6
CONTINUOUS
 62
             7
100
AcDbLine
 10
12.33486066007944
 20
6.70000000000002
 11
9.4316395520047
 21
6.70000000000002
  0
LINE
  5
2CF
100
AcDbEntity
  8
1
  6
CONTINUOUS
 62
             7
100
AcDbLine
 10
13.16640052191193
 20
7.53153986183251
 11
12.76836044799532
 21
8.10000000000002
  0
LINE
  5
2CE
100
AcDbEntity
  8
1
  6
CONTINUOUS
 62
             7
100
AcDbLine
 10
12.44635906420305
 20
5.82154891046245
 11
13.57409786610694
 21
6.94928771236635
  0
LINE
  5
2CD
100
AcDbEntity
  8
1
  6
CONTINUOUS
 62
             7
100
AcDbLine
 10
13.57409786610694
 20
6.94928771236635
 11
13.96769185634753
 21
6.38717723973859
  0
LINE
  5
2CC
100
AcDbEntity
  8
1
  6
CONTINUOUS
 62
             7
100
AcDbLine
 10
11.96364219024076
 20
3.08392547913742
 11
12.44635906420305
 21
5.82154891046245
  0
LINE
  5
2CB
100
AcDbEntity
  8
1
  6
CONTINUOUS
 62
             7
100
AcDbLine
 10
7.81579421200345
 20
6.05065487208293
 11
8.53098894794488
 21
6.76584960802435
  0
LINE
  5
2CA
100
AcDbEntity
  8
1
  6
CONTINUOUS
 62
             7
100
AcDbLine
 10
8.53098894794488
 20
6.76584960802435
 11
9.19602862357931
 21
5.81607452086263
  0
LINE
  5
2C9
100
AcDbEntity
  8
1
  6
CONTINUOUS
 62
             7
100
AcDbLine
 10
9.19602862357931
 20
5.81607452086263
 11
8.71331174961702
 21
3.07845108953759
  0
LINE
  5
2C8
100
AcDbEntity
  8
1
  6
CONTINUOUS
 62
             7
100
AcDbLine
 10
8.82481015374063
 20
2.20000000000002
 11
11.72803126181535
 21
2.20000000000002
  0
LINE
  5
2C7
100
AcDbEntity
  8
1
  6
CONTINUOUS
 62
             7
100
AcDbLine
 10
7.20038085103991
 20
2.56047226650042
 11
7.81579421200345
 21
6.05065487208293
  0
LINE
  5
2C6
100
AcDbEntity
  8
1
  6
CONTINUOUS
 62
             7
100
AcDbLine
 10
7.31270386765317
 20
1.67784320757375
 11
8.71331174961702
 21
3.07845108953759
  0
LINE
  5
2C5
100
AcDbEntity
  8
1
  6
CONTINUOUS
 62
             7
100
AcDbLine
 10
8.82481015374063
 20
2.20000000000002
 11
7.74776842630322
 21
1.12295827256263
  0
LINE
  5
2C4
100
AcDbEntity
  8
1
  6
CONTINUOUS
 62
             7
100
AcDbLine
 10
8.67759248055822
 20
0.80000000000002
 11
11.3043225006268
 21
0.80000000000002
  0
LINE
  5
2C3
100
AcDbEntity
  8
1
  6
CONTINUOUS
 62
             7
100
AcDbLine
 10
12.45387919720039
 20
1.16338171788203
 11
11.72803126181535
 21
2.20000000000002
  0
LINE
  5
2C2
100
AcDbEntity
  8
1
  6
CONTINUOUS
 62
             7
100
AcDbLine
 10
11.96364219024076
 20
3.08392547913742
 11
12.95409838376855
 21
1.66940744058532
  0
LINE
  5
2C1
100
AcDbEntity
  8
1
  6
CONTINUOUS
 62
             7
100
AcDbLine
 10
13.27393800665121
 20
2.45270364466616
 11
13.96769185634753
 21
6.38717723973859
  0
LINE
  5
2C0
100
AcDbEntity
  8
1
  6
CONTINUOUS
 62
             7
100
AcDbLine
 10
14.38420578799654
 20
8.74934512791711
 11
14.99961914896011
 21
12.23952773349963
  0
LINE
  5
2BF
100
AcDbEntity
  8
1
  6
CONTINUOUS
 62
             7
100
AcDbLine
 10
14.90447627727599
 20
13.08299738302898
 11
13.48668825038297
 21
11.72154891046245
  0
LINE
  5
2BE
100
AcDbEntity
  8
1
  6
CONTINUOUS
 62
             7
100
AcDbLine
 10
13.37518984625939
 20
12.60000000000003
 11
14.45223157369676
 21
13.67704172743742
  0
LINE
  5
2BD
100
AcDbEntity
  8
1
  6
CONTINUOUS
 62
             7
100
AcDbLine
 10
8.92606199334878
 20
12.34729635533388
 11
8.23230814365249
 21
8.41282276026145
  0
LINE
  5
2BC
100
AcDbEntity
  8
1
  6
CONTINUOUS
 62
             7
100
AcDbLine
 10
9.24590161623146
 20
13.13059255941473
 11
10.23635780975926
 21
11.71607452086263
  0
LINE
  5
2BB
100
AcDbEntity
  8
1
  6
CONTINUOUS
 62
             7
100
AcDbLine
 10
9.74612080279962
 20
13.63661828211802
 11
10.47196873818464
 21
12.60000000000003
  0
LINE
  5
2BA
100
AcDbEntity
  8
1
  6
CONTINUOUS
 62
             7
100
AcDbLine
 10
10.89567749937319
 20
14.00000000000002
 11
13.52240751944177
 21
14.00000000000002
  0
LINE
  5
2B9
100
AcDbEntity
  8
1
  6
CONTINUOUS
 62
             7
100
AcDbLine
 10
18.23230814365249
 20
8.41282276026145
 11
18.62590213389305
 21
7.85071228763369
  0
LINE
  5
2B8
100
AcDbEntity
  8
1
  6
CONTINUOUS
 62
             7
100
AcDbLine
 10
18.62590213389305
 20
7.85071228763369
 11
19.75364093579694
 21
8.97845108953759
  0
LINE
  5
2B7
100
AcDbEntity
  8
1
  6
CONTINUOUS
 62
             7
100
AcDbLine
 10
20.23635780975926
 20
11.71607452086263
 11
19.75364093579694
 21
8.97845108953759
  0
LINE
  5
2B6
100
AcDbEntity
  8
1
  6
CONTINUOUS
 62
             7
100
AcDbLine
 10
23.37518984625939
 20
12.60000000000003
 11
20.47196873818464
 21
12.60000000000003
  0
LINE
  5
2B5
100
AcDbEntity
  8
1
  6
CONTINUOUS
 62
             7
100
AcDbLine
 10
23.00397137642068
 20
8.98392547913742
 11
23.66901105205511
 21
8.0341503919757
  0
LINE
  5
2B4
100
AcDbEntity
  8
1
  6
CONTINUOUS
 62
             7
100
AcDbLine
 10
23.00397137642068
 20
8.98392547913742
 11
23.48668825038297
 21
11.72154891046245
  0
LINE
  5
2B3
100
AcDbEntity
  8
1
  6
CONTINUOUS
 62
             7
100
AcDbLine
 10
23.66901105205511
 20
8.0341503919757
 11
24.38420578799654
 21
8.74934512791711
  0
LINE
  5
2B2
100
AcDbEntity
  8
1
  6
CONTINUOUS
 62
             7
100
AcDbLine
 10
19.86513933992057
 20
8.10000000000002
 11
19.03359947808806
 21
7.26846013816753
  0
LINE
  5
2B1
100
AcDbEntity
  8
1
  6
CONTINUOUS
 62
             7
100
AcDbLine
 10
19.86513933992057
 20
8.10000000000002
 11
22.76836044799532
 21
8.10000000000002
  0
LINE
  5
2B0
100
AcDbEntity
  8
1
  6
CONTINUOUS
 62
             7
100
AcDbLine
 10
19.03359947808806
 20
7.26846013816753
 11
19.4316395520047
 21
6.70000000000002
  0
LINE
  5
2AF
100
AcDbEntity
  8
1
  6
CONTINUOUS
 62
             7
100
AcDbLine
 10
22.33486066007944
 20
6.70000000000002
 11
23.16640052191193
 21
7.53153986183251
  0
LINE
  5
2AE
100
AcDbEntity
  8
1
  6
CONTINUOUS
 62
             7
100
AcDbLine
 10
22.33486066007944
 20
6.70000000000002
 11
19.4316395520047
 21
6.70000000000002
  0
LINE
  5
2AD
100
AcDbEntity
  8
1
  6
CONTINUOUS
 62
             7
100
AcDbLine
 10
23.16640052191193
 20
7.53153986183251
 11
22.76836044799532
 21
8.10000000000002
  0
LINE
  5
2AC
100
AcDbEntity
  8
1
  6
CONTINUOUS
 62
             7
100
AcDbLine
 10
22.44635906420305
 20
5.82154891046245
 11
23.57409786610694
 21
6.94928771236635
  0
LINE
  5
2AB
100
AcDbEntity
  8
1
  6
CONTINUOUS
 62
             7
100
AcDbLine
 10
23.57409786610694
 20
6.94928771236635
 11
23.96769185634753
 21
6.38717723973859
  0
LINE
  5
2AA
100
AcDbEntity
  8
1
  6
CONTINUOUS
 62
             7
100
AcDbLine
 10
21.96364219024076
 20
3.08392547913742
 11
22.44635906420305
 21
5.82154891046245
  0
LINE
  5
2A9
100
AcDbEntity
  8
1
  6
CONTINUOUS
 62
             7
100
AcDbLine
 10
17.81579421200348
 20
6.05065487208293
 11
18.53098894794488
 21
6.76584960802435
  0
LINE
  5
2A8
100
AcDbEntity
  8
1
  6
CONTINUOUS
 62
             7
100
AcDbLine
 10
18.53098894794488
 20
6.76584960802435
 11
19.19602862357931
 21
5.81607452086263
  0
LINE
  5
2A7
100
AcDbEntity
  8
1
  6
CONTINUOUS
 62
             7
100
AcDbLine
 10
19.19602862357931
 20
5.81607452086263
 11
18.71331174961702
 21
3.07845108953759
  0
LINE
  5
2A6
100
AcDbEntity
  8
1
  6
CONTINUOUS
 62
             7
100
AcDbLine
 10
18.8248101537406
 20
2.20000000000002
 11
21.72803126181535
 21
2.20000000000002
  0
LINE
  5
2A5
100
AcDbEntity
  8
1
  6
CONTINUOUS
 62
             7
100
AcDbLine
 10
17.20038085103991
 20
2.56047226650042
 11
17.81579421200348
 21
6.05065487208293
  0
LINE
  5
2A4
100
AcDbEntity
  8
1
  6
CONTINUOUS
 62
             7
100
AcDbLine
 10
17.31270386765317
 20
1.67784320757375
 11
18.71331174961702
 21
3.07845108953759
  0
LINE
  5
2A3
100
AcDbEntity
  8
1
  6
CONTINUOUS
 62
             7
100
AcDbLine
 10
18.8248101537406
 20
2.20000000000002
 11
17.74776842630322
 21
1.12295827256263
  0
LINE
  5
2A2
100
AcDbEntity
  8
1
  6
CONTINUOUS
 62
             7
100
AcDbLine
 10
18.67759248055822
 20
0.80000000000002
 11
21.3043225006268
 21
0.80000000000002
  0
LINE
  5
2A1
100
AcDbEntity
  8
1
  6
CONTINUOUS
 62
             7
100
AcDbLine
 10
22.45387919720039
 20
1.16338171788203
 11
21.72803126181535
 21
2.20000000000002
  0
LINE
  5
2A0
100
AcDbEntity
  8
1
  6
CONTINUOUS
 62
             7
100
AcDbLine
 10
21.96364219024076
 20
3.08392547913742
 11
22.95409838376853
 21
1.66940744058532
  0
LINE
  5
29F
100
AcDbEntity
  8
1
  6
CONTINUOUS
 62
             7
100
AcDbLine
 10
23.27393800665121
 20
2.45270364466616
 11
23.96769185634753
 21
6.38717723973859
  0
LINE
  5
29E
100
AcDbEntity
  8
1
  6
CONTINUOUS
 62
             7
100
AcDbLine
 10
24.38420578799654
 20
8.74934512791711
 11
24.99961914896012
 21
12.23952773349963
  0
LINE
  5
29D
100
AcDbEntity
  8
1
  6
CONTINUOUS
 62
             7
100
AcDbLine
 10
24.90447627727599
 20
13.08299738302898
 11
23.48668825038297
 21
11.72154891046245
  0
LINE
  5
29C
100
AcDbEntity
  8
1
  6
CONTINUOUS
 62
             7
100
AcDbLine
 10
23.37518984625939
 20
12.60000000000003
 11
24.45223157369676
 21
13.67704172743742
  0
LINE
  5
29B
100
AcDbEntity
  8
1
  6
CONTINUOUS
 62
             7
100
AcDbLine
 10
18.92606199334878
 20
12.34729635533388
 11
18.23230814365249
 21
8.41282276026145
  0
LINE
  5
29A
100
AcDbEntity
  8
1
  6
CONTINUOUS
 62
             7
100
AcDbLine
 10
19.24590161623146
 20
13.13059255941473
 11
20.23635780975926
 21
11.71607452086263
  0
LINE
  5
299
100
AcDbEntity
  8
1
  6
CONTINUOUS
 62
             7
100
AcDbLine
 10
19.74612080279962
 20
13.63661828211802
 11
20.47196873818464
 21
12.60000000000003
  0
LINE
  5
298
100
AcDbEntity
  8
1
  6
CONTINUOUS
 62
             7
100
AcDbLine
 10
20.89567749937319
 20
14.00000000000002
 11
23.52240751944177
 21
14.00000000000002
  0
LINE
  5
297
100
AcDbEntity
  8
1
  6
CONTINUOUS
 62
             7
100
AcDbLine
 10
30.89567749937319
 20
14.00000000000002
 11
33.52240751944177
 21
14.00000000000002
  0
LINE
  5
296
100
AcDbEntity
  8
1
  6
CONTINUOUS
 62
             7
100
AcDbLine
 10
29.74612080279962
 20
13.63661828211802
 11
30.47196873818464
 21
12.60000000000003
  0
LINE
  5
295
100
AcDbEntity
  8
1
  6
CONTINUOUS
 62
             7
100
AcDbLine
 10
29.24590161623146
 20
13.13059255941473
 11
30.23635780975926
 21
11.71607452086263
  0
LINE
  5
294
100
AcDbEntity
  8
1
  6
CONTINUOUS
 62
             7
100
AcDbLine
 10
28.92606199334878
 20
12.34729635533388
 11
28.23230814365249
 21
8.41282276026145
  0
LINE
  5
293
100
AcDbEntity
  8
1
  6
CONTINUOUS
 62
             7
100
AcDbLine
 10
33.37518984625942
 20
12.60000000000003
 11
34.45223157369676
 21
13.67704172743742
  0
LINE
  5
292
100
AcDbEntity
  8
1
  6
CONTINUOUS
 62
             7
100
AcDbLine
 10
34.90447627727599
 20
13.08299738302898
 11
33.48668825038297
 21
11.72154891046245
  0
LINE
  5
291
100
AcDbEntity
  8
1
  6
CONTINUOUS
 62
             7
100
AcDbLine
 10
34.38420578799654
 20
8.74934512791711
 11
34.99961914896011
 21
12.23952773349963
  0
LINE
  5
290
100
AcDbEntity
  8
1
  6
CONTINUOUS
 62
             7
100
AcDbLine
 10
33.27393800665121
 20
2.45270364466616
 11
33.96769185634753
 21
6.38717723973859
  0
LINE
  5
28F
100
AcDbEntity
  8
1
  6
CONTINUOUS
 62
             7
100
AcDbLine
 10
31.96364219024076
 20
3.08392547913742
 11
32.95409838376853
 21
1.66940744058532
  0
LINE
  5
28E
100
AcDbEntity
  8
1
  6
CONTINUOUS
 62
             7
100
AcDbLine
 10
32.45387919720039
 20
1.16338171788203
 11
31.72803126181535
 21
2.20000000000002
  0
LINE
  5
28D
100
AcDbEntity
  8
1
  6
CONTINUOUS
 62
             7
100
AcDbLine
 10
28.67759248055822
 20
0.80000000000002
 11
31.3043225006268
 21
0.80000000000002
  0
LINE
  5
28C
100
AcDbEntity
  8
1
  6
CONTINUOUS
 62
             7
100
AcDbLine
 10
28.8248101537406
 20
2.20000000000002
 11
27.74776842630322
 21
1.12295827256263
  0
LINE
  5
28B
100
AcDbEntity
  8
1
  6
CONTINUOUS
 62
             7
100
AcDbLine
 10
27.31270386765317
 20
1.67784320757375
 11
28.71331174961702
 21
3.07845108953759
  0
LINE
  5
28A
100
AcDbEntity
  8
1
  6
CONTINUOUS
 62
             7
100
AcDbLine
 10
27.20038085103991
 20
2.56047226650042
 11
27.81579421200348
 21
6.05065487208293
  0
LINE
  5
289
100
AcDbEntity
  8
1
  6
CONTINUOUS
 62
             7
100
AcDbLine
 10
28.8248101537406
 20
2.20000000000002
 11
31.72803126181535
 21
2.20000000000002
  0
LINE
  5
288
100
AcDbEntity
  8
1
  6
CONTINUOUS
 62
             7
100
AcDbLine
 10
29.19602862357931
 20
5.81607452086263
 11
28.71331174961702
 21
3.07845108953759
  0
LINE
  5
287
100
AcDbEntity
  8
1
  6
CONTINUOUS
 62
             7
100
AcDbLine
 10
28.53098894794488
 20
6.76584960802435
 11
29.19602862357931
 21
5.81607452086263
  0
LINE
  5
286
100
AcDbEntity
  8
1
  6
CONTINUOUS
 62
             7
100
AcDbLine
 10
27.81579421200348
 20
6.05065487208293
 11
28.53098894794488
 21
6.76584960802435
  0
LINE
  5
285
100
AcDbEntity
  8
1
  6
CONTINUOUS
 62
             7
100
AcDbLine
 10
31.96364219024076
 20
3.08392547913742
 11
32.44635906420305
 21
5.82154891046245
  0
LINE
  5
284
100
AcDbEntity
  8
1
  6
CONTINUOUS
 62
             7
100
AcDbLine
 10
33.57409786610694
 20
6.94928771236635
 11
33.96769185634753
 21
6.38717723973859
  0
LINE
  5
283
100
AcDbEntity
  8
1
  6
CONTINUOUS
 62
             7
100
AcDbLine
 10
32.44635906420305
 20
5.82154891046245
 11
33.57409786610694
 21
6.94928771236635
  0
LINE
  5
282
100
AcDbEntity
  8
1
  6
CONTINUOUS
 62
             7
100
AcDbLine
 10
33.16640052191193
 20
7.53153986183251
 11
32.76836044799532
 21
8.10000000000002
  0
LINE
  5
281
100
AcDbEntity
  8
1
  6
CONTINUOUS
 62
             7
100
AcDbLine
 10
32.33486066007944
 20
6.70000000000002
 11
29.4316395520047
 21
6.70000000000002
  0
LINE
  5
280
100
AcDbEntity
  8
1
  6
CONTINUOUS
 62
             7
100
AcDbLine
 10
32.33486066007944
 20
6.70000000000002
 11
33.16640052191193
 21
7.53153986183251
  0
LINE
  5
27F
100
AcDbEntity
  8
1
  6
CONTINUOUS
 62
             7
100
AcDbLine
 10
29.03359947808806
 20
7.26846013816753
 11
29.4316395520047
 21
6.70000000000002
  0
LINE
  5
27E
100
AcDbEntity
  8
1
  6
CONTINUOUS
 62
             7
100
AcDbLine
 10
29.86513933992057
 20
8.10000000000002
 11
32.76836044799532
 21
8.10000000000002
  0
LINE
  5
27D
100
AcDbEntity
  8
1
  6
CONTINUOUS
 62
             7
100
AcDbLine
 10
29.86513933992057
 20
8.10000000000002
 11
29.03359947808806
 21
7.26846013816753
  0
LINE
  5
27C
100
AcDbEntity
  8
1
  6
CONTINUOUS
 62
             7
100
AcDbLine
 10
33.66901105205511
 20
8.0341503919757
 11
34.38420578799654
 21
8.74934512791711
  0
LINE
  5
27B
100
AcDbEntity
  8
1
  6
CONTINUOUS
 62
             7
100
AcDbLine
 10
33.00397137642068
 20
8.98392547913742
 11
33.48668825038297
 21
11.72154891046245
  0
LINE
  5
27A
100
AcDbEntity
  8
1
  6
CONTINUOUS
 62
             7
100
AcDbLine
 10
33.00397137642068
 20
8.98392547913742
 11
33.66901105205511
 21
8.0341503919757
  0
LINE
  5
279
100
AcDbEntity
  8
1
  6
CONTINUOUS
 62
             7
100
AcDbLine
 10
33.37518984625942
 20
12.60000000000003
 11
30.47196873818464
 21
12.60000000000003
  0
LINE
  5
278
100
AcDbEntity
  8
1
  6
CONTINUOUS
 62
             7
100
AcDbLine
 10
30.23635780975926
 20
11.71607452086263
 11
29.75364093579694
 21
8.97845108953759
  0
LINE
  5
277
100
AcDbEntity
  8
1
  6
CONTINUOUS
 62
             7
100
AcDbLine
 10
28.62590213389305
 20
7.85071228763369
 11
29.75364093579694
 21
8.97845108953759
  0
LINE
  5
276
100
AcDbEntity
  8
1
  6
CONTINUOUS
 62
             7
100
AcDbLine
 10
28.23230814365249
 20
8.41282276026145
 11
28.62590213389305
 21
7.85071228763369
  0
LINE
  5
275
100
AcDbEntity
  8
1
  6
CONTINUOUS
 62
             7
100
AcDbLine
 10
33.99999999999992
 20
-11.50000000000051
 11
33.99999999999992
 21
-10.50000000000051
  0
LINE
  5
274
100
AcDbEntity
  8
1
  6
CONTINUOUS
 62
             7
100
AcDbLine
 10
33.99999999999992
 20
-5.50000000000049
 11
33.99999999999992
 21
-4.50000000000049
  0
LINE
  5
273
100
AcDbEntity
  8
1
  6
CONTINUOUS
 62
             7
100
AcDbLine
 10
28.99999999999992
 20
-10.50000000000051
 11
28.99999999999992
 21
-11.50000000000051
  0
LINE
  5
272
100
AcDbEntity
  8
1
  6
CONTINUOUS
 62
             7
100
AcDbLine
 10
28.99999999999992
 20
-4.50000000000049
 11
28.99999999999992
 21
-5.50000000000049
  0
LINE
  5
271
100
AcDbEntity
  8
1
  6
CONTINUOUS
 62
             7
100
AcDbLine
 10
15.99999999999992
 20
-5.50000000000049
 11
15.99999999999992
 21
-4.50000000000049
  0
LINE
  5
270
100
AcDbEntity
  8
1
  6
CONTINUOUS
 62
             7
100
AcDbLine
 10
15.99999999999992
 20
-11.50000000000051
 11
15.99999999999992
 21
-10.50000000000051
  0
LINE
  5
26F
100
AcDbEntity
  8
1
  6
CONTINUOUS
 62
             7
100
AcDbLine
 10
10.99999999999992
 20
-4.50000000000049
 11
10.99999999999992
 21
-5.50000000000049
  0
LINE
  5
26E
100
AcDbEntity
  8
1
  6
CONTINUOUS
 62
             7
100
AcDbLine
 10
10.99999999999992
 20
-10.50000000000051
 11
10.99999999999992
 21
-11.50000000000051
  0
LINE
  5
26D
100
AcDbEntity
  8
1
  6
CONTINUOUS
 62
             7
100
AcDbLine
 10
-2.00000000000008
 20
-11.50000000000051
 11
-2.00000000000008
 21
-10.50000000000051
  0
LINE
  5
26C
100
AcDbEntity
  8
1
  6
CONTINUOUS
 62
             7
100
AcDbLine
 10
-11.0
 20
-5.50000000000049
 11
-11.0
 21
-4.50000000000049
  0
LINE
  5
26B
100
AcDbEntity
  8
1
  6
CONTINUOUS
 62
             7
100
AcDbLine
 10
-7.00000000000009
 20
-10.50000000000051
 11
-7.00000000000009
 21
-11.50000000000051
  0
LINE
  5
26A
100
AcDbEntity
  8
1
  6
CONTINUOUS
 62
             7
100
AcDbLine
 10
-16.0
 20
-4.50000000000049
 11
-16.0
 21
-5.50000000000049
  0
LINE
  5
269
100
AcDbEntity
  8
1
  6
CONTINUOUS
 62
             7
100
AcDbLine
 10
-34.00000000000009
 20
-4.50000000000049
 11
-34.00000000000009
 21
-5.50000000000049
  0
LINE
  5
268
100
AcDbEntity
  8
1
  6
CONTINUOUS
 62
             7
100
AcDbLine
 10
29.49999999999992
 20
-12.00000000000051
 11
33.49999999999992
 21
-12.00000000000051
  0
LINE
  5
267
100
AcDbEntity
  8
1
  6
CONTINUOUS
 62
             7
100
AcDbLine
 10
11.49999999999992
 20
-12.00000000000051
 11
15.49999999999992
 21
-12.00000000000051
  0
LINE
  5
266
100
AcDbEntity
  8
1
  6
CONTINUOUS
 62
             7
100
AcDbLine
 10
-6.50000000000009
 20
-12.00000000000051
 11
-2.50000000000008
 21
-12.00000000000051
  0
LINE
  5
265
100
AcDbEntity
  8
1
  6
CONTINUOUS
 62
             7
100
AcDbLine
 10
33.49999999999992
 20
-10.00000000000051
 11
29.49999999999992
 21
-10.00000000000051
  0
LINE
  5
264
100
AcDbEntity
  8
1
  6
CONTINUOUS
 62
             7
100
AcDbLine
 10
15.49999999999992
 20
-10.00000000000051
 11
11.49999999999992
 21
-10.00000000000051
  0
LINE
  5
263
100
AcDbEntity
  8
1
  6
CONTINUOUS
 62
             7
100
AcDbLine
 10
-2.50000000000008
 20
-10.00000000000051
 11
-6.50000000000009
 21
-10.00000000000051
  0
LINE
  5
262
100
AcDbEntity
  8
1
  6
CONTINUOUS
 62
             7
100
AcDbLine
 10
11.49999999999992
 20
-6.00000000000049
 11
15.49999999999992
 21
-6.00000000000049
  0
LINE
  5
261
100
AcDbEntity
  8
1
  6
CONTINUOUS
 62
             7
100
AcDbLine
 10
29.49999999999992
 20
-6.00000000000049
 11
33.49999999999992
 21
-6.00000000000049
  0
LINE
  5
260
100
AcDbEntity
  8
1
  6
CONTINUOUS
 62
             7
100
AcDbLine
 10
-33.50000000000009
 20
-6.00000000000049
 11
-29.50000000000009
 21
-6.00000000000049
  0
LINE
  5
25F
100
AcDbEntity
  8
1
  6
CONTINUOUS
 62
             7
100
AcDbLine
 10
-15.5
 20
-6.00000000000049
 11
-11.5
 21
-6.00000000000049
  0
LINE
  5
25E
100
AcDbEntity
  8
1
  6
CONTINUOUS
 62
             7
100
AcDbLine
 10
15.49999999999992
 20
-4.00000000000049
 11
11.49999999999992
 21
-4.00000000000049
  0
LINE
  5
25D
100
AcDbEntity
  8
1
  6
CONTINUOUS
 62
             7
100
AcDbLine
 10
33.49999999999992
 20
-4.00000000000049
 11
29.49999999999992
 21
-4.00000000000049
  0
LINE
  5
25C
100
AcDbEntity
  8
1
  6
CONTINUOUS
 62
             7
100
AcDbLine
 10
-11.5
 20
-4.00000000000049
 11
-15.5
 21
-4.00000000000049
  0
LINE
  5
25B
100
AcDbEntity
  8
1
  6
CONTINUOUS
 62
             7
100
AcDbLine
 10
-29.00000000000009
 20
-5.50000000000049
 11
-29.00000000000009
 21
-4.50000000000049
  0
LINE
  5
25A
100
AcDbEntity
  8
1
  6
CONTINUOUS
 62
             7
100
AcDbLine
 10
-29.50000000000009
 20
-4.00000000000049
 11
-33.50000000000009
 21
-4.00000000000049
  0
LINE
  5
259
100
AcDbEntity
  8
1
  6
CONTINUOUS
 62
             7
100
AcDbLine
 10
-38.00000000000003
 20
-36.99999999999989
 11
37.99999999999997
 21
-36.99999999999989
  0
LINE
  5
258
100
AcDbEntity
  8
1
  6
CONTINUOUS
 62
             7
100
AcDbLine
 10
39.99999999999997
 20
-34.99999999999989
 11
39.99999999999997
 21
-30.99999999999989
  0
LINE
  5
257
100
AcDbEntity
  8
1
  6
CONTINUOUS
 62
             7
100
AcDbLine
 10
-40.00000000000003
 20
-30.99999999999989
 11
-40.00000000000003
 21
-34.99999999999989
  0
LINE
  5
256
100
AcDbEntity
  8
1
  6
CONTINUOUS
 62
             7
100
AcDbLine
 10
-38.00000000000003
 20
-25.99999999999989
 11
37.99999999999997
 21
-25.99999999999989
  0
LINE
  5
255
100
AcDbEntity
  8
1
  6
CONTINUOUS
 62
             7
100
AcDbLine
 10
39.99999999999997
 20
-23.99999999999989
 11
39.99999999999997
 21
-19.99999999999988
  0
LINE
  5
254
100
AcDbEntity
  8
1
  6
CONTINUOUS
 62
             7
100
AcDbLine
 10
37.99999999999997
 20
-17.99999999999988
 11
-38.00000000000003
 21
-17.99999999999988
  0
LINE
  5
253
100
AcDbEntity
  8
1
  6
CONTINUOUS
 62
             7
100
AcDbLine
 10
-40.00000000000003
 20
-19.99999999999988
 11
-40.00000000000003
 21
-23.99999999999989
  0
LINE
  5
252
100
AcDbEntity
  8
1
  6
CONTINUOUS
 62
             7
100
AcDbLine
 10
37.99999999999997
 20
-28.99999999999989
 11
-37.99999999999974
 21
-28.99999999999992
  0
LINE
  5
251
100
AcDbEntity
  8
1
  6
CONTINUOUS
 62
             7
100
AcDbLine
 10
40.99999999999997
 20
-15.99999999999991
 11
-41.00000000000003
 21
-15.99999999999991
  0
LINE
  5
250
100
AcDbEntity
  8
1
  6
CONTINUOUS
 62
             7
100
AcDbLine
 10
-41.00000000000003
 20
-38.99999999999992
 11
40.99999999999997
 21
-38.99999999999992
  0
LINE
  5
24F
100
AcDbEntity
  8
1
  6
CONTINUOUS
 62
             7
100
AcDbLine
 10
-43.00000000000003
 20
40.00000000000011
 11
-43.00000000000003
 21
-11.49999999999991
  0
LINE
  5
24E
100
AcDbEntity
  8
1
  6
CONTINUOUS
 62
             7
100
AcDbLine
 10
40.99999999999997
 20
42.00000000000011
 11
-41.00000000000003
 21
42.00000000000011
  0
LINE
  5
24D
100
AcDbEntity
  8
1
  6
CONTINUOUS
 62
             7
100
AcDbLine
 10
42.99999999999997
 20
-11.99999999999991
 11
42.99999999999997
 21
40.00000000000011
  0
LINE
  5
24C
100
AcDbEntity
  8
1
  6
CONTINUOUS
 62
             7
100
AcDbLine
 10
-41.00000000000003
 20
-13.99999999999991
 11
40.99999999999997
 21
-13.99999999999991
  0
LINE
  5
24B
100
AcDbEntity
  8
1
  6
CONTINUOUS
 62
             7
100
AcDbLine
 10
-43.00000000000003
 20
-17.49999999999991
 11
-43.00000000000003
 21
-36.99999999999992
  0
LINE
  5
24A
100
AcDbEntity
  8
1
  6
CONTINUOUS
 62
             7
100
AcDbLine
 10
42.99999999999997
 20
-17.99999999999991
 11
42.99999999999997
 21
-36.99999999999992
  0
LINE
  5
249
100
AcDbEntity
  8
1
  6
CONTINUOUS
 62
             7
100
AcDbLine
 10
-30.0
 20
-19.92473922221733
 11
-27.0
 21
-23.49999999999989
  0
LINE
  5
248
100
AcDbEntity
  8
1
  6
CONTINUOUS
 62
             7
100
AcDbLine
 10
-33.00000000000003
 20
-23.49999999999989
 11
-30.0
 21
-19.92473922221733
  0
LINE
  5
247
100
AcDbEntity
  8
1
  6
CONTINUOUS
 62
             7
100
AcDbLine
 10
-27.0
 20
-23.49999999999989
 11
-33.00000000000003
 21
-23.49999999999989
  0
LINE
  5
246
100
AcDbEntity
  8
1
  6
CONTINUOUS
 62
             7
100
AcDbLine
 10
-22.70000000000002
 20
-21.69999999999987
 11
-17.30000000000004
 21
-21.69999999999987
  0
LINE
  5
245
100
AcDbEntity
  8
1
  6
CONTINUOUS
 62
             7
100
AcDbLine
 10
-17.30000000000004
 20
-22.2999999999999
 11
-22.70000000000002
 21
-22.2999999999999
  0
LINE
  5
244
100
AcDbEntity
  8
1
  6
CONTINUOUS
 62
             7
100
AcDbLine
 10
-17.30000000000004
 20
-21.0999999999999
 11
-22.70000000000002
 21
-21.0999999999999
  0
LINE
  5
243
100
AcDbEntity
  8
1
  6
CONTINUOUS
 62
             7
100
AcDbLine
 10
-22.70000000000002
 20
-20.49999999999988
 11
-17.30000000000004
 21
-20.49999999999988
  0
LINE
  5
242
100
AcDbEntity
  8
1
  6
CONTINUOUS
 62
             7
100
AcDbLine
 10
-17.30000000000004
 20
-23.49999999999992
 11
-22.70000000000002
 21
-23.49999999999992
  0
LINE
  5
241
100
AcDbEntity
  8
1
  6
CONTINUOUS
 62
             7
100
AcDbLine
 10
-22.70000000000002
 20
-22.89999999999987
 11
-17.30000000000004
 21
-22.89999999999987
  0
LINE
  5
240
100
AcDbEntity
  8
1
  6
CONTINUOUS
 62
             7
100
AcDbLine
 10
-7.0
 20
-20.49999999999988
 11
-10.0
 21
-24.07526077778255
  0
LINE
  5
23F
100
AcDbEntity
  8
1
  6
CONTINUOUS
 62
             7
100
AcDbLine
 10
-10.0
 20
-24.07526077778255
 11
-13.0
 21
-20.49999999999988
  0
LINE
  5
23E
100
AcDbEntity
  8
1
  6
CONTINUOUS
 62
             7
100
AcDbLine
 10
-13.0
 20
-20.49999999999988
 11
-7.0
 21
-20.49999999999988
  0
LINE
  5
23D
100
AcDbEntity
  8
1
  6
CONTINUOUS
 62
             7
100
AcDbLine
 10
-22.70000000000002
 20
-33.89999999999985
 11
2.69999999999996
 21
-33.89999999999985
  0
LINE
  5
23C
100
AcDbEntity
  8
1
  6
CONTINUOUS
 62
             7
100
AcDbLine
 10
2.69999999999996
 20
-34.49999999999992
 11
-22.70000000000002
 21
-34.49999999999992
  0
LINE
  5
23B
100
AcDbEntity
  8
1
  6
CONTINUOUS
 62
             7
100
AcDbLine
 10
-22.70000000000002
 20
-31.49999999999985
 11
2.69999999999996
 21
-31.49999999999985
  0
LINE
  5
23A
100
AcDbEntity
  8
1
  6
CONTINUOUS
 62
             7
100
AcDbLine
 10
2.69999999999996
 20
-32.09999999999987
 11
-22.70000000000002
 21
-32.0999999999999
  0
LINE
  5
239
100
AcDbEntity
  8
1
  6
CONTINUOUS
 62
             7
100
AcDbLine
 10
2.69999999999996
 20
-33.29999999999989
 11
-22.70000000000002
 21
-33.29999999999989
  0
LINE
  5
238
100
AcDbEntity
  8
1
  6
CONTINUOUS
 62
             7
100
AcDbLine
 10
-22.70000000000002
 20
-32.69999999999988
 11
2.69999999999996
 21
-32.69999999999984
  0
LINE
  5
237
100
AcDbEntity
  8
1
  6
CONTINUOUS
 62
             7
100
AcDbLine
 10
17.29999999999998
 20
-33.89999999999985
 11
22.69999999999996
 21
-33.89999999999985
  0
LINE
  5
236
100
AcDbEntity
  8
1
  6
CONTINUOUS
 62
             7
100
AcDbLine
 10
22.69999999999996
 20
-34.49999999999992
 11
17.29999999999998
 21
-34.49999999999992
  0
LINE
  5
235
100
AcDbEntity
  8
1
  6
CONTINUOUS
 62
             7
100
AcDbLine
 10
17.29999999999998
 20
-31.49999999999985
 11
22.69999999999996
 21
-31.49999999999985
  0
LINE
  5
234
100
AcDbEntity
  8
1
  6
CONTINUOUS
 62
             7
100
AcDbLine
 10
22.69999999999996
 20
-32.0999999999999
 11
17.29999999999998
 21
-32.0999999999999
  0
LINE
  5
233
100
AcDbEntity
  8
1
  6
CONTINUOUS
 62
             7
100
AcDbLine
 10
22.69999999999996
 20
-33.29999999999989
 11
17.29999999999998
 21
-33.29999999999989
  0
LINE
  5
232
100
AcDbEntity
  8
1
  6
CONTINUOUS
 62
             7
100
AcDbLine
 10
17.29999999999998
 20
-32.69999999999988
 11
22.69999999999996
 21
-32.69999999999988
  0
LINE
  5
231
100
AcDbEntity
  8
1
  6
CONTINUOUS
 62
             7
100
AcDbLine
 10
86.00000000000011
 20
-33.49999999999998
 11
87.50000000000011
 21
-34.99999999999998
  0
LINE
  5
230
100
AcDbEntity
  8
1
  6
CONTINUOUS
 62
             7
100
AcDbLine
 10
162.50000000000011
 20
-43.99999999999998
 11
162.00000000000011
 21
-43.99999999999998
  0
LINE
  5
22F
100
AcDbEntity
  8
1
  6
CONTINUOUS
 62
             7
100
AcDbLine
 10
162.50000000000011
 20
44.00000000000001
 11
162.00000000000011
 21
44.00000000000001
  0
LINE
  5
22E
100
AcDbEntity
  8
1
  6
CONTINUOUS
 62
             7
100
AcDbLine
 10
160.50000000000011
 20
45.50000000000001
 11
160.50000000000011
 21
-45.49999999999998
  0
LINE
  5
22D
100
AcDbEntity
  8
1
  6
CONTINUOUS
 62
             7
100
AcDbLine
 10
155.31813466520541
 20
40.92852447854382
 11
153.23186533479421
 21
37.31500000000013
  0
LINE
  5
22C
100
AcDbEntity
  8
1
  6
CONTINUOUS
 62
             7
100
AcDbLine
 10
153.4137306695892
 20
37.00000000000001
 11
157.58626933040969
 21
37.00000000000001
  0
LINE
  5
22B
100
AcDbEntity
  8
1
  6
CONTINUOUS
 62
             7
100
AcDbLine
 10
157.76813466520471
 20
37.31500000000013
 11
155.6818653347942
 21
40.92852447854382
  0
LINE
  5
22A
100
AcDbEntity
  8
1
  6
CONTINUOUS
 62
             7
100
AcDbLine
 10
155.50000000000011
 20
40.75352447854381
 11
153.4743524478541
 21
37.24500000000002
  0
LINE
  5
229
100
AcDbEntity
  8
1
  6
CONTINUOUS
 62
             7
100
AcDbLine
 10
153.4743524478541
 20
37.24500000000002
 11
157.52564755214519
 21
37.24500000000002
  0
LINE
  5
228
100
AcDbEntity
  8
1
  6
CONTINUOUS
 62
             7
100
AcDbLine
 10
157.52564755214519
 20
37.24500000000002
 11
155.50000000000011
 21
40.75352447854381
  0
LINE
  5
227
100
AcDbEntity
  8
1
  6
CONTINUOUS
 62
             7
100
AcDbLine
 10
155.77805553203021
 20
39.55705882352952
 11
155.63902776601469
 21
38.38352941176483
  0
LINE
  5
226
100
AcDbEntity
  8
1
  6
CONTINUOUS
 62
             7
100
AcDbLine
 10
155.3609722339842
 20
38.38352941176483
 11
155.22194446796911
 21
39.55705882352952
  0
LINE
  5
225
100
AcDbEntity
  8
1
  6
CONTINUOUS
 62
             7
100
AcDbLine
 10
158.5000000000002
 20
42.00000000000001
 11
152.5000000000002
 21
42.00000000000001
  0
LINE
  5
224
100
AcDbEntity
  8
1
  6
CONTINUOUS
 62
             7
100
AcDbLine
 10
152.5000000000002
 20
42.00000000000001
 11
152.5000000000002
 21
36.00000000000001
  0
LINE
  5
223
100
AcDbEntity
  8
1
  6
CONTINUOUS
 62
             7
100
AcDbLine
 10
152.5000000000002
 20
36.00000000000001
 11
158.5000000000002
 21
36.00000000000001
  0
LINE
  5
222
100
AcDbEntity
  8
1
  6
CONTINUOUS
 62
             7
100
AcDbLine
 10
158.5000000000002
 20
36.00000000000001
 11
158.5000000000002
 21
42.00000000000001
  0
LINE
  5
221
100
AcDbEntity
  8
1
  6
CONTINUOUS
 62
             7
100
AcDbLine
 10
165.50000000000011
 20
34.28017974028712
 11
162.50000000000011
 21
34.33254493507143
  0
LINE
  5
220
100
AcDbEntity
  8
1
  6
CONTINUOUS
 62
             7
100
AcDbLine
 10
165.50000000000011
 20
41.31982025971293
 11
162.50000000000011
 21
41.267455064928
  0
LINE
  5
21F
100
AcDbEntity
  8
1
  6
CONTINUOUS
 62
             7
100
AcDbLine
 10
162.50000000000011
 20
41.267455064928
 11
162.50000000000011
 21
34.33254493507143
  0
LINE
  5
21E
100
AcDbEntity
  8
1
  6
CONTINUOUS
 62
             7
100
AcDbLine
 10
166.1220545085317
 20
41.3306782615479
 11
166.1220545085317
 21
34.26932173845161
  0
LINE
  5
21D
100
AcDbEntity
  8
1
  6
CONTINUOUS
 62
             7
100
AcDbLine
 10
165.50000000000011
 20
25.88017974028712
 11
162.50000000000011
 21
25.93254493507152
  0
LINE
  5
21C
100
AcDbEntity
  8
1
  6
CONTINUOUS
 62
             7
100
AcDbLine
 10
162.50000000000011
 20
32.86745506492802
 11
162.50000000000011
 21
25.93254493507152
  0
LINE
  5
21B
100
AcDbEntity
  8
1
  6
CONTINUOUS
 62
             7
100
AcDbLine
 10
165.50000000000011
 20
32.91982025971292
 11
162.50000000000011
 21
32.86745506492802
  0
LINE
  5
21A
100
AcDbEntity
  8
1
  6
CONTINUOUS
 62
             7
100
AcDbLine
 10
166.1220545085317
 20
32.93067826154793
 11
166.1220545085317
 21
25.86932173845162
  0
LINE
  5
219
100
AcDbEntity
  8
1
  6
CONTINUOUS
 62
             7
100
AcDbLine
 10
166.1220545085317
 20
24.53067826154802
 11
166.1220545085317
 21
17.46932173845161
  0
LINE
  5
218
100
AcDbEntity
  8
1
  6
CONTINUOUS
 62
             7
100
AcDbLine
 10
165.50000000000011
 20
24.51982025971282
 11
162.50000000000011
 21
24.46745506492802
  0
LINE
  5
217
100
AcDbEntity
  8
1
  6
CONTINUOUS
 62
             7
100
AcDbLine
 10
165.50000000000011
 20
17.48017974028711
 11
162.50000000000011
 21
17.53254493507151
  0
LINE
  5
216
100
AcDbEntity
  8
1
  6
CONTINUOUS
 62
             7
100
AcDbLine
 10
162.50000000000011
 20
24.46745506492802
 11
162.50000000000011
 21
17.53254493507151
  0
LINE
  5
215
100
AcDbEntity
  8
1
  6
CONTINUOUS
 62
             7
100
AcDbLine
 10
166.1220545085317
 20
16.13067826154801
 11
166.1220545085317
 21
9.06932173845162
  0
LINE
  5
214
100
AcDbEntity
  8
1
  6
CONTINUOUS
 62
             7
100
AcDbLine
 10
165.50000000000011
 20
16.11982025971281
 11
162.50000000000011
 21
16.06745506492801
  0
LINE
  5
213
100
AcDbEntity
  8
1
  6
CONTINUOUS
 62
             7
100
AcDbLine
 10
162.50000000000011
 20
16.06745506492801
 11
162.50000000000011
 21
9.13254493507151
  0
LINE
  5
212
100
AcDbEntity
  8
1
  6
CONTINUOUS
 62
             7
100
AcDbLine
 10
165.50000000000011
 20
9.08017974028711
 11
162.50000000000011
 21
9.13254493507151
  0
LINE
  5
211
100
AcDbEntity
  8
1
  6
CONTINUOUS
 62
             7
100
AcDbLine
 10
165.50000000000011
 20
0.68017974028706
 11
162.50000000000011
 21
0.73254493507156
  0
LINE
  5
210
100
AcDbEntity
  8
1
  6
CONTINUOUS
 62
             7
100
AcDbLine
 10
162.50000000000011
 20
7.66745506492802
 11
162.50000000000011
 21
0.73254493507156
  0
LINE
  5
20F
100
AcDbEntity
  8
1
  6
CONTINUOUS
 62
             7
100
AcDbLine
 10
165.50000000000011
 20
7.71982025971292
 11
162.50000000000011
 21
7.66745506492802
  0
LINE
  5
20E
100
AcDbEntity
  8
1
  6
CONTINUOUS
 62
             7
100
AcDbLine
 10
166.1220545085317
 20
7.73067826154801
 11
166.1220545085317
 21
0.66932173845167
  0
LINE
  5
20D
100
AcDbEntity
  8
1
  6
CONTINUOUS
 62
             7
100
AcDbLine
 10
165.50000000000011
 20
-7.71982025971292
 11
162.50000000000011
 21
-7.66745506492842
  0
LINE
  5
20C
100
AcDbEntity
  8
1
  6
CONTINUOUS
 62
             7
100
AcDbLine
 10
165.50000000000011
 20
-0.68017974028712
 11
162.50000000000011
 21
-0.73254493507193
  0
LINE
  5
20B
100
AcDbEntity
  8
1
  6
CONTINUOUS
 62
             7
100
AcDbLine
 10
162.50000000000011
 20
-0.73254493507193
 11
162.50000000000011
 21
-7.66745506492842
  0
LINE
  5
20A
100
AcDbEntity
  8
1
  6
CONTINUOUS
 62
             7
100
AcDbLine
 10
166.1220545085317
 20
-0.66932173845196
 11
166.1220545085317
 21
-7.73067826154831
  0
LINE
  5
209
100
AcDbEntity
  8
1
  6
CONTINUOUS
 62
             7
100
AcDbLine
 10
165.50000000000011
 20
-16.1198202597129
 11
162.50000000000011
 21
-16.0674550649284
  0
LINE
  5
208
100
AcDbEntity
  8
1
  6
CONTINUOUS
 62
             7
100
AcDbLine
 10
162.50000000000011
 20
-9.13254493507191
 11
162.50000000000011
 21
-16.0674550649284
  0
LINE
  5
207
100
AcDbEntity
  8
1
  6
CONTINUOUS
 62
             7
100
AcDbLine
 10
165.50000000000011
 20
-9.08017974028709
 11
162.50000000000011
 21
-9.13254493507191
  0
LINE
  5
206
100
AcDbEntity
  8
1
  6
CONTINUOUS
 62
             7
100
AcDbLine
 10
166.1220545085317
 20
-9.06932173845193
 11
166.1220545085317
 21
-16.13067826154828
  0
LINE
  5
205
100
AcDbEntity
  8
1
  6
CONTINUOUS
 62
             7
100
AcDbLine
 10
165.50000000000011
 20
-17.48017974028718
 11
162.50000000000011
 21
-17.53254493507188
  0
LINE
  5
204
100
AcDbEntity
  8
1
  6
CONTINUOUS
 62
             7
100
AcDbLine
 10
165.50000000000011
 20
-24.51982025971287
 11
162.50000000000011
 21
-24.46745506492837
  0
LINE
  5
203
100
AcDbEntity
  8
1
  6
CONTINUOUS
 62
             7
100
AcDbLine
 10
162.50000000000011
 20
-17.53254493507188
 11
162.50000000000011
 21
-24.46745506492837
  0
LINE
  5
202
100
AcDbEntity
  8
1
  6
CONTINUOUS
 62
             7
100
AcDbLine
 10
166.1220545085317
 20
-17.46932173845191
 11
166.1220545085317
 21
-24.53067826154826
  0
LINE
  5
201
100
AcDbEntity
  8
1
  6
CONTINUOUS
 62
             7
100
AcDbLine
 10
165.50000000000011
 20
-25.88017974028716
 11
162.50000000000011
 21
-25.93254493507186
  0
LINE
  5
200
100
AcDbEntity
  8
1
  6
CONTINUOUS
 62
             7
100
AcDbLine
 10
166.1220545085317
 20
-25.86932173845189
 11
166.1220545085317
 21
-32.93067826154825
  0
LINE
  5
1FF
100
AcDbEntity
  8
1
  6
CONTINUOUS
 62
             7
100
AcDbLine
 10
162.50000000000011
 20
-25.93254493507186
 11
162.50000000000011
 21
-32.86745506492834
  0
LINE
  5
1FE
100
AcDbEntity
  8
1
  6
CONTINUOUS
 62
             7
100
AcDbLine
 10
165.50000000000011
 20
-32.91982025971284
 11
162.50000000000011
 21
-32.86745506492834
  0
LINE
  5
1FD
100
AcDbEntity
  8
1
  6
CONTINUOUS
 62
             7
100
AcDbLine
 10
165.50000000000011
 20
-41.31982025971283
 11
162.50000000000011
 21
-41.26745506492833
  0
LINE
  5
1FC
100
AcDbEntity
  8
1
  6
CONTINUOUS
 62
             7
100
AcDbLine
 10
165.50000000000011
 20
-34.28017974028714
 11
162.50000000000011
 21
-34.33254493507184
  0
LINE
  5
1FB
100
AcDbEntity
  8
1
  6
CONTINUOUS
 62
             7
100
AcDbLine
 10
162.50000000000011
 20
-34.33254493507184
 11
162.50000000000011
 21
-41.26745506492833
  0
LINE
  5
1FA
100
AcDbEntity
  8
1
  6
CONTINUOUS
 62
             7
100
AcDbLine
 10
166.1220545085317
 20
-41.33067826154823
 11
171.00000000000011
 21
-41.41582311681802
  0
LINE
  5
1F9
100
AcDbEntity
  8
1
  6
CONTINUOUS
 62
             7
100
AcDbLine
 10
166.1220545085317
 20
-34.26932173845187
 11
165.50000000000011
 21
-34.28017974028714
  0
LINE
  5
1F8
100
AcDbEntity
  8
1
  6
CONTINUOUS
 62
             7
100
AcDbLine
 10
166.1220545085317
 20
-34.26932173845187
 11
166.1220545085317
 21
-41.33067826154823
  0
LINE
  5
1F7
100
AcDbEntity
  8
1
  6
CONTINUOUS
 62
             7
100
AcDbLine
 10
165.50000000000011
 20
-41.31982025971283
 11
166.1220545085317
 21
-41.33067826154823
  0
LINE
  5
1F6
100
AcDbEntity
  8
1
  6
CONTINUOUS
 62
             7
100
AcDbLine
 10
172.50000000000011
 20
-43.99999999999998
 11
171.00000000000011
 21
-43.99999999999998
  0
LINE
  5
1F5
100
AcDbEntity
  8
1
  6
CONTINUOUS
 62
             7
100
AcDbLine
 10
171.00000000000011
 20
-43.99999999999998
 11
171.00000000000011
 21
-41.41582311681802
  0
LINE
  5
1F4
100
AcDbEntity
  8
1
  6
CONTINUOUS
 62
             7
100
AcDbLine
 10
173.00000000000011
 20
-43.49999999999998
 11
173.00000000000011
 21
-41.4507332466745
  0
LINE
  5
1F3
100
AcDbEntity
  8
1
  6
CONTINUOUS
 62
             7
100
AcDbLine
 10
165.50000000000011
 20
-32.91982025971284
 11
171.00000000000011
 21
-33.01582311681803
  0
LINE
  5
1F2
100
AcDbEntity
  8
1
  6
CONTINUOUS
 62
             7
100
AcDbLine
 10
171.50000000000011
 20
-34.1754493507178
 11
171.00000000000011
 21
-34.18417688318195
  0
LINE
  5
1F1
100
AcDbEntity
  8
1
  6
CONTINUOUS
 62
             7
100
AcDbLine
 10
171.00000000000011
 20
-34.18417688318195
 11
171.00000000000011
 21
-33.01582311681803
  0
LINE
  5
1F0
100
AcDbEntity
  8
1
  6
CONTINUOUS
 62
             7
100
AcDbLine
 10
173.00000000000011
 20
-34.14926675332546
 11
173.00000000000011
 21
-33.05073324667453
  0
LINE
  5
1EF
100
AcDbEntity
  8
1
  6
CONTINUOUS
 62
             7
100
AcDbLine
 10
165.50000000000011
 20
-24.51982025971287
 11
171.00000000000011
 21
-24.61582311681806
  0
LINE
  5
1EE
100
AcDbEntity
  8
1
  6
CONTINUOUS
 62
             7
100
AcDbLine
 10
171.50000000000011
 20
-25.77544935071782
 11
171.00000000000011
 21
-25.78417688318197
  0
LINE
  5
1ED
100
AcDbEntity
  8
1
  6
CONTINUOUS
 62
             7
100
AcDbLine
 10
171.00000000000011
 20
-25.78417688318197
 11
171.00000000000011
 21
-24.61582311681806
  0
LINE
  5
1EC
100
AcDbEntity
  8
1
  6
CONTINUOUS
 62
             7
100
AcDbLine
 10
173.00000000000011
 20
-25.74926675332549
 11
173.00000000000011
 21
-24.65073324667455
  0
LINE
  5
1EB
100
AcDbEntity
  8
1
  6
CONTINUOUS
 62
             7
100
AcDbLine
 10
165.50000000000011
 20
-16.1198202597129
 11
171.00000000000011
 21
-16.21582311681809
  0
LINE
  5
1EA
100
AcDbEntity
  8
1
  6
CONTINUOUS
 62
             7
100
AcDbLine
 10
171.50000000000011
 20
-17.37544935071784
 11
171.00000000000011
 21
-17.38417688318188
  0
LINE
  5
1E9
100
AcDbEntity
  8
1
  6
CONTINUOUS
 62
             7
100
AcDbLine
 10
171.00000000000011
 20
-17.38417688318188
 11
171.00000000000011
 21
-16.21582311681809
  0
LINE
  5
1E8
100
AcDbEntity
  8
1
  6
CONTINUOUS
 62
             7
100
AcDbLine
 10
173.00000000000011
 20
-17.34926675332551
 11
173.00000000000011
 21
-16.25073324667446
  0
LINE
  5
1E7
100
AcDbEntity
  8
1
  6
CONTINUOUS
 62
             7
100
AcDbLine
 10
165.50000000000011
 20
-7.71982025971292
 11
171.00000000000011
 21
-7.81582311681811
  0
LINE
  5
1E6
100
AcDbEntity
  8
1
  6
CONTINUOUS
 62
             7
100
AcDbLine
 10
171.50000000000011
 20
-8.97544935071775
 11
171.00000000000011
 21
-8.9841768831819
  0
LINE
  5
1E5
100
AcDbEntity
  8
1
  6
CONTINUOUS
 62
             7
100
AcDbLine
 10
171.00000000000011
 20
-8.9841768831819
 11
171.00000000000011
 21
-7.81582311681811
  0
LINE
  5
1E4
100
AcDbEntity
  8
1
  6
CONTINUOUS
 62
             7
100
AcDbLine
 10
173.00000000000011
 20
-8.94926675332553
 11
173.00000000000011
 21
-7.85073324667448
  0
LINE
  5
1E3
100
AcDbEntity
  8
1
  6
CONTINUOUS
 62
             7
100
AcDbLine
 10
165.50000000000011
 20
0.68017974028706
 11
171.00000000000011
 21
0.58417688318198
  0
LINE
  5
1E2
100
AcDbEntity
  8
1
  6
CONTINUOUS
 62
             7
100
AcDbLine
 10
171.50000000000011
 20
-0.57544935071778
 11
171.00000000000011
 21
-0.58417688318193
  0
LINE
  5
1E1
100
AcDbEntity
  8
1
  6
CONTINUOUS
 62
             7
100
AcDbLine
 10
171.00000000000011
 20
-0.58417688318193
 11
171.00000000000011
 21
0.58417688318198
  0
LINE
  5
1E0
100
AcDbEntity
  8
1
  6
CONTINUOUS
 62
             7
100
AcDbLine
 10
173.00000000000011
 20
-0.54926675332555
 11
173.00000000000011
 21
0.5492667533255
  0
LINE
  5
1DF
100
AcDbEntity
  8
1
  6
CONTINUOUS
 62
             7
100
AcDbLine
 10
165.50000000000011
 20
9.08017974028711
 11
171.00000000000011
 21
8.98417688318202
  0
LINE
  5
1DE
100
AcDbEntity
  8
1
  6
CONTINUOUS
 62
             7
100
AcDbLine
 10
171.50000000000011
 20
7.82455064928222
 11
171.00000000000011
 21
7.81582311681801
  0
LINE
  5
1DD
100
AcDbEntity
  8
1
  6
CONTINUOUS
 62
             7
100
AcDbLine
 10
171.00000000000011
 20
7.81582311681801
 11
171.00000000000011
 21
8.98417688318202
  0
LINE
  5
1DC
100
AcDbEntity
  8
1
  6
CONTINUOUS
 62
             7
100
AcDbLine
 10
173.00000000000011
 20
7.85073324667451
 11
173.00000000000011
 21
8.94926675332552
  0
LINE
  5
1DB
100
AcDbEntity
  8
1
  6
CONTINUOUS
 62
             7
100
AcDbLine
 10
165.50000000000011
 20
17.48017974028711
 11
171.00000000000011
 21
17.38417688318191
  0
LINE
  5
1DA
100
AcDbEntity
  8
1
  6
CONTINUOUS
 62
             7
100
AcDbLine
 10
171.50000000000011
 20
16.22455064928221
 11
171.00000000000011
 21
16.21582311681802
  0
LINE
  5
1D9
100
AcDbEntity
  8
1
  6
CONTINUOUS
 62
             7
100
AcDbLine
 10
171.00000000000011
 20
16.21582311681802
 11
171.00000000000011
 21
17.38417688318191
  0
LINE
  5
1D8
100
AcDbEntity
  8
1
  6
CONTINUOUS
 62
             7
100
AcDbLine
 10
173.00000000000011
 20
16.25073324667451
 11
173.00000000000011
 21
17.34926675332541
  0
LINE
  5
1D7
100
AcDbEntity
  8
1
  6
CONTINUOUS
 62
             7
100
AcDbLine
 10
165.50000000000011
 20
25.88017974028712
 11
171.00000000000011
 21
25.78417688318191
  0
LINE
  5
1D6
100
AcDbEntity
  8
1
  6
CONTINUOUS
 62
             7
100
AcDbLine
 10
171.50000000000011
 20
24.62455064928211
 11
171.00000000000011
 21
24.61582311681812
  0
LINE
  5
1D5
100
AcDbEntity
  8
1
  6
CONTINUOUS
 62
             7
100
AcDbLine
 10
171.00000000000011
 20
24.61582311681812
 11
171.00000000000011
 21
25.78417688318191
  0
LINE
  5
1D4
100
AcDbEntity
  8
1
  6
CONTINUOUS
 62
             7
100
AcDbLine
 10
173.00000000000011
 20
24.65073324667452
 11
173.00000000000011
 21
25.74926675332542
  0
LINE
  5
1D3
100
AcDbEntity
  8
1
  6
CONTINUOUS
 62
             7
100
AcDbLine
 10
165.50000000000011
 20
34.28017974028712
 11
171.00000000000011
 21
34.18417688318191
  0
LINE
  5
1D2
100
AcDbEntity
  8
1
  6
CONTINUOUS
 62
             7
100
AcDbLine
 10
171.50000000000011
 20
33.02455064928221
 11
171.00000000000011
 21
33.01582311681811
  0
LINE
  5
1D1
100
AcDbEntity
  8
1
  6
CONTINUOUS
 62
             7
100
AcDbLine
 10
171.00000000000011
 20
33.01582311681811
 11
171.00000000000011
 21
34.18417688318191
  0
LINE
  5
1D0
100
AcDbEntity
  8
1
  6
CONTINUOUS
 62
             7
100
AcDbLine
 10
173.00000000000011
 20
33.05073324667443
 11
173.00000000000011
 21
34.14926675332551
  0
LINE
  5
1CF
100
AcDbEntity
  8
1
  6
CONTINUOUS
 62
             7
100
AcDbLine
 10
171.50000000000011
 20
41.42455064928221
 11
171.00000000000011
 21
41.41582311681812
  0
LINE
  5
1CE
100
AcDbEntity
  8
1
  6
CONTINUOUS
 62
             7
100
AcDbLine
 10
172.50000000000011
 20
44.00000000000001
 11
171.00000000000011
 21
44.00000000000001
  0
LINE
  5
1CD
100
AcDbEntity
  8
1
  6
CONTINUOUS
 62
             7
100
AcDbLine
 10
171.00000000000011
 20
41.41582311681812
 11
171.00000000000011
 21
44.00000000000001
  0
LINE
  5
1CC
100
AcDbEntity
  8
1
  6
CONTINUOUS
 62
             7
100
AcDbLine
 10
173.00000000000011
 20
41.4507332466744
 11
173.00000000000011
 21
43.50000000000001
  0
LINE
  5
1CB
100
AcDbEntity
  8
1
  6
CONTINUOUS
 62
             7
100
AcDbLine
 10
173.00000000000011
 20
41.4507332466744
 11
171.50000000000011
 21
41.42455064928221
  0
LINE
  5
1CA
100
AcDbEntity
  8
1
  6
CONTINUOUS
 62
             7
100
AcDbLine
 10
171.00000000000011
 20
34.18417688318191
 11
171.50000000000011
 21
34.17544935071781
  0
LINE
  5
1C9
100
AcDbEntity
  8
1
  6
CONTINUOUS
 62
             7
100
AcDbLine
 10
171.00000000000011
 20
41.41582311681812
 11
165.50000000000011
 21
41.31982025971293
  0
LINE
  5
1C8
100
AcDbEntity
  8
1
  6
CONTINUOUS
 62
             7
100
AcDbLine
 10
171.50000000000011
 20
34.17544935071781
 11
173.00000000000011
 21
34.14926675332551
  0
LINE
  5
1C7
100
AcDbEntity
  8
1
  6
CONTINUOUS
 62
             7
100
AcDbLine
 10
171.50000000000011
 20
25.77544935071782
 11
173.00000000000011
 21
25.74926675332542
  0
LINE
  5
1C6
100
AcDbEntity
  8
1
  6
CONTINUOUS
 62
             7
100
AcDbLine
 10
171.00000000000011
 20
33.01582311681811
 11
165.50000000000011
 21
32.91982025971292
  0
LINE
  5
1C5
100
AcDbEntity
  8
1
  6
CONTINUOUS
 62
             7
100
AcDbLine
 10
171.00000000000011
 20
25.78417688318191
 11
171.50000000000011
 21
25.77544935071782
  0
LINE
  5
1C4
100
AcDbEntity
  8
1
  6
CONTINUOUS
 62
             7
100
AcDbLine
 10
173.00000000000011
 20
33.05073324667443
 11
171.50000000000011
 21
33.02455064928221
  0
LINE
  5
1C3
100
AcDbEntity
  8
1
  6
CONTINUOUS
 62
             7
100
AcDbLine
 10
173.00000000000011
 20
24.65073324667452
 11
171.50000000000011
 21
24.62455064928211
  0
LINE
  5
1C2
100
AcDbEntity
  8
1
  6
CONTINUOUS
 62
             7
100
AcDbLine
 10
171.00000000000011
 20
17.38417688318191
 11
171.50000000000011
 21
17.37544935071782
  0
LINE
  5
1C1
100
AcDbEntity
  8
1
  6
CONTINUOUS
 62
             7
100
AcDbLine
 10
171.00000000000011
 20
24.61582311681812
 11
165.50000000000011
 21
24.51982025971282
  0
LINE
  5
1C0
100
AcDbEntity
  8
1
  6
CONTINUOUS
 62
             7
100
AcDbLine
 10
171.50000000000011
 20
17.37544935071782
 11
173.00000000000011
 21
17.34926675332541
  0
LINE
  5
1BF
100
AcDbEntity
  8
1
  6
CONTINUOUS
 62
             7
100
AcDbLine
 10
171.50000000000011
 20
8.97544935071781
 11
173.00000000000011
 21
8.94926675332552
  0
LINE
  5
1BE
100
AcDbEntity
  8
1
  6
CONTINUOUS
 62
             7
100
AcDbLine
 10
171.00000000000011
 20
16.21582311681802
 11
165.50000000000011
 21
16.11982025971281
  0
LINE
  5
1BD
100
AcDbEntity
  8
1
  6
CONTINUOUS
 62
             7
100
AcDbLine
 10
171.00000000000011
 20
8.98417688318202
 11
171.50000000000011
 21
8.97544935071781
  0
LINE
  5
1BC
100
AcDbEntity
  8
1
  6
CONTINUOUS
 62
             7
100
AcDbLine
 10
173.00000000000011
 20
16.25073324667451
 11
171.50000000000011
 21
16.22455064928221
  0
LINE
  5
1BB
100
AcDbEntity
  8
1
  6
CONTINUOUS
 62
             7
100
AcDbLine
 10
173.00000000000011
 20
7.85073324667451
 11
171.50000000000011
 21
7.82455064928222
  0
LINE
  5
1BA
100
AcDbEntity
  8
1
  6
CONTINUOUS
 62
             7
100
AcDbLine
 10
171.00000000000011
 20
0.58417688318198
 11
171.50000000000011
 21
0.57544935071783
  0
LINE
  5
1B9
100
AcDbEntity
  8
1
  6
CONTINUOUS
 62
             7
100
AcDbLine
 10
171.00000000000011
 20
7.81582311681801
 11
165.50000000000011
 21
7.71982025971292
  0
LINE
  5
1B8
100
AcDbEntity
  8
1
  6
CONTINUOUS
 62
             7
100
AcDbLine
 10
171.50000000000011
 20
0.57544935071783
 11
173.00000000000011
 21
0.5492667533255
  0
LINE
  5
1B7
100
AcDbEntity
  8
1
  6
CONTINUOUS
 62
             7
100
AcDbLine
 10
171.50000000000011
 20
-7.82455064928214
 11
173.00000000000011
 21
-7.85073324667448
  0
LINE
  5
1B6
100
AcDbEntity
  8
1
  6
CONTINUOUS
 62
             7
100
AcDbLine
 10
171.00000000000011
 20
-0.58417688318193
 11
165.50000000000011
 21
-0.68017974028712
  0
LINE
  5
1B5
100
AcDbEntity
  8
1
  6
CONTINUOUS
 62
             7
100
AcDbLine
 10
171.00000000000011
 20
-7.81582311681811
 11
171.50000000000011
 21
-7.82455064928214
  0
LINE
  5
1B4
100
AcDbEntity
  8
1
  6
CONTINUOUS
 62
             7
100
AcDbLine
 10
173.00000000000011
 20
-0.54926675332555
 11
171.50000000000011
 21
-0.57544935071778
  0
LINE
  5
1B3
100
AcDbEntity
  8
1
  6
CONTINUOUS
 62
             7
100
AcDbLine
 10
173.00000000000011
 20
-8.94926675332553
 11
171.50000000000011
 21
-8.97544935071775
  0
LINE
  5
1B2
100
AcDbEntity
  8
1
  6
CONTINUOUS
 62
             7
100
AcDbLine
 10
171.00000000000011
 20
-16.21582311681809
 11
171.50000000000011
 21
-16.22455064928224
  0
LINE
  5
1B1
100
AcDbEntity
  8
1
  6
CONTINUOUS
 62
             7
100
AcDbLine
 10
171.00000000000011
 20
-8.9841768831819
 11
165.50000000000011
 21
-9.08017974028709
  0
LINE
  5
1B0
100
AcDbEntity
  8
1
  6
CONTINUOUS
 62
             7
100
AcDbLine
 10
171.50000000000011
 20
-16.22455064928224
 11
173.00000000000011
 21
-16.25073324667446
  0
LINE
  5
1AF
100
AcDbEntity
  8
1
  6
CONTINUOUS
 62
             7
100
AcDbLine
 10
171.50000000000011
 20
-24.62455064928221
 11
173.00000000000011
 21
-24.65073324667455
  0
LINE
  5
1AE
100
AcDbEntity
  8
1
  6
CONTINUOUS
 62
             7
100
AcDbLine
 10
171.00000000000011
 20
-17.38417688318188
 11
165.50000000000011
 21
-17.48017974028718
  0
LINE
  5
1AD
100
AcDbEntity
  8
1
  6
CONTINUOUS
 62
             7
100
AcDbLine
 10
171.00000000000011
 20
-24.61582311681806
 11
171.50000000000011
 21
-24.62455064928221
  0
LINE
  5
1AC
100
AcDbEntity
  8
1
  6
CONTINUOUS
 62
             7
100
AcDbLine
 10
173.00000000000011
 20
-17.34926675332551
 11
171.50000000000011
 21
-17.37544935071784
  0
LINE
  5
1AB
100
AcDbEntity
  8
1
  6
CONTINUOUS
 62
             7
100
AcDbLine
 10
173.00000000000011
 20
-25.74926675332549
 11
171.50000000000011
 21
-25.77544935071782
  0
LINE
  5
1AA
100
AcDbEntity
  8
1
  6
CONTINUOUS
 62
             7
100
AcDbLine
 10
171.00000000000011
 20
-33.01582311681803
 11
171.50000000000011
 21
-33.02455064928218
  0
LINE
  5
1A9
100
AcDbEntity
  8
1
  6
CONTINUOUS
 62
             7
100
AcDbLine
 10
171.00000000000011
 20
-25.78417688318197
 11
165.50000000000011
 21
-25.88017974028716
  0
LINE
  5
1A8
100
AcDbEntity
  8
1
  6
CONTINUOUS
 62
             7
100
AcDbLine
 10
171.50000000000011
 20
-33.02455064928218
 11
173.00000000000011
 21
-33.05073324667453
  0
LINE
  5
1A7
100
AcDbEntity
  8
1
  6
CONTINUOUS
 62
             7
100
AcDbLine
 10
171.50000000000011
 20
-41.42455064928217
 11
173.00000000000011
 21
-41.4507332466745
  0
LINE
  5
1A6
100
AcDbEntity
  8
1
  6
CONTINUOUS
 62
             7
100
AcDbLine
 10
171.00000000000011
 20
-34.18417688318195
 11
166.1220545085317
 21
-34.26932173845187
  0
LINE
  5
1A5
100
AcDbEntity
  8
1
  6
CONTINUOUS
 62
             7
100
AcDbLine
 10
160.50000000000011
 20
-45.49999999999998
 11
172.50000000000011
 21
-45.49999999999998
  0
LINE
  5
1A4
100
AcDbEntity
  8
1
  6
CONTINUOUS
 62
             7
100
AcDbLine
 10
172.50000000000011
 20
-45.49999999999998
 11
173.00000000000011
 21
-44.99999999999998
  0
LINE
  5
1A3
100
AcDbEntity
  8
1
  6
CONTINUOUS
 62
             7
100
AcDbLine
 10
173.00000000000011
 20
-44.99999999999998
 11
173.00000000000011
 21
-43.49999999999998
  0
LINE
  5
1A2
100
AcDbEntity
  8
1
  6
CONTINUOUS
 62
             7
100
AcDbLine
 10
173.00000000000011
 20
43.50000000000001
 11
173.00000000000011
 21
45.00000000000001
  0
LINE
  5
1A1
100
AcDbEntity
  8
1
  6
CONTINUOUS
 62
             7
100
AcDbLine
 10
173.00000000000011
 20
45.00000000000001
 11
172.50000000000011
 21
45.50000000000001
  0
LINE
  5
1A0
100
AcDbEntity
  8
1
  6
CONTINUOUS
 62
             7
100
AcDbLine
 10
172.50000000000011
 20
45.50000000000001
 11
160.50000000000011
 21
45.50000000000001
  0
LINE
  5
19F
100
AcDbEntity
  8
1
  6
CONTINUOUS
 62
             7
100
AcDbLine
 10
171.00000000000011
 20
-41.41582311681802
 11
171.50000000000011
 21
-41.42455064928217
  0
LINE
  5
19E
100
AcDbEntity
  8
1
  6
CONTINUOUS
 62
             7
100
AcDbLine
 10
171.00000000000011
 20
-43.99999999999998
 11
162.50000000000011
 21
-43.99999999999998
  0
LINE
  5
19D
100
AcDbEntity
  8
1
  6
CONTINUOUS
 62
             7
100
AcDbLine
 10
173.00000000000011
 20
-34.14926675332546
 11
171.50000000000011
 21
-34.1754493507178
  0
LINE
  5
19C
100
AcDbEntity
  8
1
  6
CONTINUOUS
 62
             7
100
AcDbLine
 10
171.00000000000011
 20
44.00000000000001
 11
162.50000000000011
 21
44.00000000000001
  0
LINE
  5
19B
100
AcDbEntity
  8
1
  6
CONTINUOUS
 62
             7
100
AcDbLine
 10
86.00000000000011
 20
35.00000000000001
 11
86.00000000000011
 21
-33.49999999999998
  0
LINE
  5
19A
100
AcDbEntity
  8
1
  6
CONTINUOUS
 62
             7
100
AcDbLine
 10
158.00000000000011
 20
-34.99999999999998
 11
158.00000000000011
 21
35.00000000000001
  0
LINE
  5
199
100
AcDbEntity
  8
1
  6
CONTINUOUS
 62
             7
100
AcDbLine
 10
87.50000000000011
 20
-34.99999999999998
 11
158.00000000000011
 21
-34.99999999999998
  0
LINE
  5
198
100
AcDbEntity
  8
1
  6
CONTINUOUS
 62
             7
100
AcDbLine
 10
86.00000000000011
 20
35.00000000000001
 11
158.00000000000011
 21
35.00000000000001
  0
LINE
  5
197
100
AcDbEntity
  8
1
  6
CONTINUOUS
 62
             7
100
AcDbLine
 10
144.00000000000011
 20
-41.49999999999998
 11
131.50000000000011
 21
-41.49999999999998
  0
LINE
  5
196
100
AcDbEntity
  8
1
  6
CONTINUOUS
 62
             7
100
AcDbLine
 10
131.50000000000011
 20
-39.49999999999998
 11
144.00000000000011
 21
-39.49999999999998
  0
LINE
  5
195
100
AcDbEntity
  8
1
  6
CONTINUOUS
 62
             7
100
AcDbLine
 10
105.0000000000001
 20
-41.49999999999998
 11
92.50000000000011
 21
-41.49999999999998
  0
LINE
  5
194
100
AcDbEntity
  8
1
  6
CONTINUOUS
 62
             7
100
AcDbLine
 10
92.50000000000011
 20
-39.49999999999998
 11
105.0000000000001
 21
-39.49999999999998
  0
LINE
  5
193
100
AcDbEntity
  8
1
  6
CONTINUOUS
 62
             7
100
AcDbLine
 10
131.50000000000011
 20
-35.99999999999998
 11
144.00000000000011
 21
-35.99999999999998
  0
LINE
  5
192
100
AcDbEntity
  8
1
  6
CONTINUOUS
 62
             7
100
AcDbLine
 10
144.00000000000011
 20
-37.99999999999998
 11
131.50000000000011
 21
-37.99999999999998
  0
LINE
  5
191
100
AcDbEntity
  8
1
  6
CONTINUOUS
 62
             7
100
AcDbLine
 10
124.5000000000001
 20
-37.99999999999998
 11
112.0000000000001
 21
-37.99999999999998
  0
LINE
  5
190
100
AcDbEntity
  8
1
  6
CONTINUOUS
 62
             7
100
AcDbLine
 10
112.0000000000001
 20
-35.99999999999998
 11
124.5000000000001
 21
-35.99999999999998
  0
LINE
  5
18F
100
AcDbEntity
  8
1
  6
CONTINUOUS
 62
             7
100
AcDbLine
 10
112.0000000000001
 20
-39.49999999999998
 11
124.5000000000001
 21
-39.49999999999998
  0
LINE
  5
18E
100
AcDbEntity
  8
1
  6
CONTINUOUS
 62
             7
100
AcDbLine
 10
124.5000000000001
 20
-41.49999999999998
 11
112.0000000000001
 21
-41.49999999999998
  0
LINE
  5
18D
100
AcDbEntity
  8
1
  6
CONTINUOUS
 62
             7
100
AcDbLine
 10
92.50000000000011
 20
-35.99999999999998
 11
105.0000000000001
 21
-35.99999999999998
  0
LINE
  5
18C
100
AcDbEntity
  8
1
  6
CONTINUOUS
 62
             7
100
AcDbLine
 10
105.0000000000001
 20
-37.99999999999998
 11
92.50000000000011
 21
-37.99999999999998
  0
LINE
  5
18B
100
AcDbEntity
  8
1
  6
CONTINUOUS
 62
             7
100
AcDbLine
 10
173.00000000000011
 20
43.50000000000001
 11
172.50000000000011
 21
44.00000000000001
  0
LINE
  5
18A
100
AcDbEntity
  8
1
  6
CONTINUOUS
 62
             7
100
AcDbLine
 10
173.00000000000011
 20
-43.49999999999998
 11
172.50000000000011
 21
-43.99999999999998
  0
LINE
  5
189
100
AcDbEntity
  8
1
  6
CONTINUOUS
 62
             7
100
AcDbLine
 10
160.50000000000011
 20
-45.49999999999998
 11
162.00000000000011
 21
-43.99999999999998
  0
LINE
  5
188
100
AcDbEntity
  8
1
  6
CONTINUOUS
 62
             7
100
AcDbLine
 10
162.00000000000011
 20
44.00000000000001
 11
160.50000000000011
 21
45.50000000000001
  0
LINE
  5
187
100
AcDbEntity
  8
1
  6
CONTINUOUS
 62
             7
100
AcDbLine
 10
160.50000000000011
 20
-45.49999999999998
 11
74.50000000000013
 21
-45.49999999999998
  0
LINE
  5
186
100
AcDbEntity
  8
1
  6
CONTINUOUS
 62
             7
100
AcDbLine
 10
74.50000000000013
 20
45.50000000000001
 11
75.00000000000013
 21
45.50000000000001
  0
LINE
  5
185
100
AcDbEntity
  8
1
  6
CONTINUOUS
 62
             7
100
AcDbLine
 10
73.00000000000013
 20
-47.99999999999998
 11
73.00000000000013
 21
-45.79999999999993
  0
LINE
  5
184
100
AcDbEntity
  8
1
  6
CONTINUOUS
 62
             7
100
AcDbLine
 10
73.00000000000013
 20
-45.79999999999993
 11
73.00000000000013
 21
48.00000000000001
  0
LINE
  5
183
100
AcDbEntity
  8
1
  6
CONTINUOUS
 62
             7
100
AcDbLine
 10
62.69999999999993
 20
47.00000000000001
 11
63.00000000000013
 21
46.70000000000012
  0
LINE
  5
182
100
AcDbEntity
  8
1
  6
CONTINUOUS
 62
             7
100
AcDbLine
 10
62.69999999999993
 20
-46.99999999999998
 11
63.00000000000013
 21
-46.70000000000002
  0
LINE
  5
181
100
AcDbEntity
  8
1
  6
CONTINUOUS
 62
             7
100
AcDbLine
 10
62.69999999999993
 20
-47.99999999999998
 11
68.00000000000013
 21
-47.99999999999998
  0
LINE
  5
180
100
AcDbEntity
  8
1
  6
CONTINUOUS
 62
             7
100
AcDbLine
 10
62.69999999999993
 20
48.00000000000001
 11
68.00000000000013
 21
48.00000000000001
  0
LINE
  5
17F
100
AcDbEntity
  8
1
  6
CONTINUOUS
 62
             7
100
AcDbLine
 10
68.00000000000013
 20
-47.99999999999998
 11
68.00000000000013
 21
48.00000000000001
  0
LINE
  5
17E
100
AcDbEntity
  8
1
  6
CONTINUOUS
 62
             7
100
AcDbLine
 10
62.69999999999993
 20
-46.99999999999998
 11
62.69999999999993
 21
-47.99999999999998
  0
LINE
  5
17D
100
AcDbEntity
  8
1
  6
CONTINUOUS
 62
             7
100
AcDbLine
 10
68.00000000000013
 20
-47.99999999999998
 11
73.00000000000013
 21
-47.99999999999998
  0
LINE
  5
17C
100
AcDbEntity
  8
1
  6
CONTINUOUS
 62
             7
100
AcDbLine
 10
62.69999999999993
 20
47.00000000000001
 11
62.69999999999993
 21
48.00000000000001
  0
LINE
  5
17B
100
AcDbEntity
  8
1
  6
CONTINUOUS
 62
             7
100
AcDbLine
 10
68.00000000000013
 20
48.00000000000001
 11
73.00000000000013
 21
48.00000000000001
  0
LINE
  5
17A
100
AcDbEntity
  8
1
  6
CONTINUOUS
 62
             7
100
AcDbLine
 10
165.50000000000011
 20
41.31982025971293
 11
165.50000000000011
 21
34.28017974028712
  0
LINE
  5
179
100
AcDbEntity
  8
1
  6
CONTINUOUS
 62
             7
100
AcDbLine
 10
165.50000000000011
 20
32.91982025971292
 11
165.50000000000011
 21
25.88017974028712
  0
LINE
  5
178
100
AcDbEntity
  8
1
  6
CONTINUOUS
 62
             7
100
AcDbLine
 10
165.50000000000011
 20
24.51982025971282
 11
165.50000000000011
 21
17.48017974028711
  0
LINE
  5
177
100
AcDbEntity
  8
1
  6
CONTINUOUS
 62
             7
100
AcDbLine
 10
165.50000000000011
 20
16.11982025971281
 11
165.50000000000011
 21
9.08017974028711
  0
LINE
  5
176
100
AcDbEntity
  8
1
  6
CONTINUOUS
 62
             7
100
AcDbLine
 10
165.50000000000011
 20
7.71982025971292
 11
165.50000000000011
 21
0.68017974028706
  0
LINE
  5
175
100
AcDbEntity
  8
1
  6
CONTINUOUS
 62
             7
100
AcDbLine
 10
165.50000000000011
 20
-0.68017974028712
 11
165.50000000000011
 21
-7.71982025971292
  0
LINE
  5
174
100
AcDbEntity
  8
1
  6
CONTINUOUS
 62
             7
100
AcDbLine
 10
165.50000000000011
 20
-9.08017974028709
 11
165.50000000000011
 21
-16.1198202597129
  0
LINE
  5
173
100
AcDbEntity
  8
1
  6
CONTINUOUS
 62
             7
100
AcDbLine
 10
165.50000000000011
 20
-17.48017974028718
 11
165.50000000000011
 21
-24.51982025971287
  0
LINE
  5
172
100
AcDbEntity
  8
1
  6
CONTINUOUS
 62
             7
100
AcDbLine
 10
165.50000000000011
 20
-25.88017974028716
 11
165.50000000000011
 21
-32.91982025971284
  0
LINE
  5
171
100
AcDbEntity
  8
1
  6
CONTINUOUS
 62
             7
100
AcDbLine
 10
165.50000000000011
 20
-34.28017974028714
 11
165.50000000000011
 21
-41.31982025971283
  0
LINE
  5
170
100
AcDbEntity
  8
1
  6
CONTINUOUS
 62
             7
100
AcDbLine
 10
75.00000000000013
 20
45.00000000000001
 11
75.00000000000013
 21
45.50000000000001
  0
LINE
  5
16F
100
AcDbEntity
  8
1
  6
CONTINUOUS
 62
             7
100
AcDbLine
 10
75.00000000000013
 20
45.50000000000001
 11
86.00000000000011
 21
45.50000000000001
  0
LINE
  5
16E
100
AcDbEntity
  8
1
  6
CONTINUOUS
 62
             7
100
AcDbLine
 10
75.00000000000013
 20
45.00000000000001
 11
86.00000000000011
 21
45.00000000000001
  0
LINE
  5
16D
100
AcDbEntity
  8
1
  6
CONTINUOUS
 62
             7
100
AcDbLine
 10
86.00000000000011
 20
45.00000000000001
 11
86.00000000000011
 21
45.50000000000001
  0
LINE
  5
16C
100
AcDbEntity
  8
1
  6
CONTINUOUS
 62
             7
100
AcDbLine
 10
86.00000000000011
 20
45.50000000000001
 11
160.50000000000011
 21
45.50000000000001
  0
LINE
  5
16B
100
AcDbEntity
  8
1
  6
CONTINUOUS
 62
             7
100
AcDbLine
 10
67.80000000000003
 20
-46.60000000000001
 11
67.80000000000003
 21
46.60000000000003
  0
LINE
  5
16A
100
AcDbEntity
  8
1
  6
CONTINUOUS
 62
             7
100
AcDbLine
 10
67.80000000000003
 20
46.60000000000003
 11
67.80000000000003
 21
48.00000000000001
  0
LINE
  5
169
100
AcDbEntity
  8
1
  6
CONTINUOUS
 62
             7
100
AcDbLine
 10
67.80000000000003
 20
-47.99999999999999
 11
67.80000000000003
 21
-46.60000000000001
  0
LINE
  5
168
100
AcDbEntity
  8
1
  6
CONTINUOUS
 62
             7
100
AcDbLine
 10
63.00000000000003
 20
47.19809375960234
 11
63.00000000000003
 21
-47.19809375960232
  0
LINE
  5
167
100
AcDbEntity
  8
1
  6
CONTINUOUS
 62
             7
100
AcDbLine
 10
67.80000000000003
 20
-47.99999999999999
 11
63.46512176312793
 21
-47.69687578473223
  0
LINE
  5
166
100
AcDbEntity
  8
1
  6
CONTINUOUS
 62
             7
100
AcDbLine
 10
63.46512176312793
 20
47.69687578473225
 11
67.80000000000003
 21
48.00000000000001
  0
LINE
  5
165
100
AcDbEntity
  8
1
  6
CONTINUOUS
 62
             7
100
AcDbLine
 10
-45.99999999999999
 20
-44.49999999999999
 11
-45.99999999999999
 21
44.50000000000001
  0
LINE
  5
164
100
AcDbEntity
  8
1
  6
CONTINUOUS
 62
             7
100
AcDbLine
 10
46.00000000000003
 20
-44.49999999999999
 11
-45.99999999999999
 21
-44.49999999999999
  0
LINE
  5
163
100
AcDbEntity
  8
1
  6
CONTINUOUS
 62
             7
100
AcDbLine
 10
46.00000000000003
 20
44.50000000000001
 11
46.00000000000003
 21
-44.49999999999999
  0
LINE
  5
162
100
AcDbEntity
  8
1
  6
CONTINUOUS
 62
             7
100
AcDbLine
 10
-45.99999999999999
 20
44.50000000000001
 11
46.00000000000003
 21
44.50000000000001
  0
LINE
  5
161
100
AcDbEntity
  8
1
  6
CONTINUOUS
 62
             7
100
AcDbLine
 10
48.00000000000003
 20
47.00000000000001
 11
48.00000000000003
 21
-47.0
  0
LINE
  5
160
100
AcDbEntity
  8
1
  6
CONTINUOUS
 62
             7
100
AcDbLine
 10
-47.99999999999999
 20
-46.99999999999999
 11
-47.99999999999999
 21
47.00000000000001
  0
LINE
  5
15F
100
AcDbEntity
  8
1
  6
CONTINUOUS
 62
             7
100
AcDbLine
 10
47.00000000000003
 20
-48.0
 11
5.50000000000001
 21
-47.99999999999999
  0
LINE
  5
15E
100
AcDbEntity
  8
1
  6
CONTINUOUS
 62
             7
100
AcDbLine
 10
-46.99999999999999
 20
48.00000000000001
 11
-5.49999999999999
 21
48.00000000000001
  0
LINE
  5
15D
100
AcDbEntity
  8
1
  6
CONTINUOUS
 62
             7
100
AcDbLine
 10
-5.49999999999999
 20
46.60000000000003
 11
-2.49999999999999
 21
46.60000000000003
  0
LINE
  5
15C
100
AcDbEntity
  8
1
  6
CONTINUOUS
 62
             7
100
AcDbLine
 10
5.50000000000001
 20
46.60000000000003
 11
5.50000000000001
 21
48.00000000000001
  0
LINE
  5
15B
100
AcDbEntity
  8
1
  6
CONTINUOUS
 62
             7
100
AcDbLine
 10
-5.49999999999999
 20
46.60000000000003
 11
-5.49999999999999
 21
48.00000000000001
  0
LINE
  5
15A
100
AcDbEntity
  8
1
  6
CONTINUOUS
 62
             7
100
AcDbLine
 10
-2.49999999999999
 20
46.60000000000003
 11
2.50000000000001
 21
46.60000000000003
  0
LINE
  5
159
100
AcDbEntity
  8
1
  6
CONTINUOUS
 62
             7
100
AcDbLine
 10
2.50000000000001
 20
46.60000000000003
 11
5.50000000000001
 21
46.60000000000003
  0
LINE
  5
158
100
AcDbEntity
  8
1
  6
CONTINUOUS
 62
             7
100
AcDbLine
 10
5.50000000000001
 20
-46.60000000000001
 11
2.50000000000001
 21
-46.60000000000001
  0
LINE
  5
157
100
AcDbEntity
  8
1
  6
CONTINUOUS
 62
             7
100
AcDbLine
 10
2.50000000000001
 20
-46.60000000000001
 11
-2.49999999999999
 21
-46.60000000000001
  0
LINE
  5
156
100
AcDbEntity
  8
1
  6
CONTINUOUS
 62
             7
100
AcDbLine
 10
-5.49999999999999
 20
-47.99999999999999
 11
-5.49999999999999
 21
-46.60000000000001
  0
LINE
  5
155
100
AcDbEntity
  8
1
  6
CONTINUOUS
 62
             7
100
AcDbLine
 10
5.50000000000001
 20
-47.99999999999999
 11
5.50000000000001
 21
-46.60000000000001
  0
LINE
  5
154
100
AcDbEntity
  8
1
  6
CONTINUOUS
 62
             7
100
AcDbLine
 10
-2.49999999999999
 20
-46.60000000000001
 11
-5.49999999999999
 21
-46.60000000000001
  0
LINE
  5
153
100
AcDbEntity
  8
1
  6
CONTINUOUS
 62
             7
100
AcDbLine
 10
5.50000000000001
 20
48.00000000000001
 11
47.00000000000003
 21
48.00000000000001
  0
LINE
  5
152
100
AcDbEntity
  8
1
  6
CONTINUOUS
 62
             7
100
AcDbLine
 10
-5.49999999999999
 20
-47.99999999999999
 11
-46.99999999999999
 21
-48.0
  0
LINE
  5
151
100
AcDbEntity
  8
1
  6
CONTINUOUS
 62
             7
100
AcDbLine
 10
-5.49999999999999
 20
48.00000000000001
 11
5.50000000000001
 21
48.00000000000001
  0
LINE
  5
150
100
AcDbEntity
  8
1
  6
CONTINUOUS
 62
             7
100
AcDbLine
 10
-5.49999999999999
 20
-47.99999999999999
 11
5.50000000000001
 21
-47.99999999999999
  0
LINE
  5
14F
100
AcDbEntity
  8
1
  6
CONTINUOUS
 62
             7
100
AcDbLine
 10
73.00000000000013
 20
-47.99999999999998
 11
74.50000000000013
 21
-47.99999999999998
  0
LINE
  5
14E
100
AcDbEntity
  8
1
  6
CONTINUOUS
 62
             7
100
AcDbLine
 10
73.00000000000013
 20
48.00000000000001
 11
74.50000000000013
 21
48.00000000000001
  0
LINE
  5
14D
100
AcDbEntity
  8
1
  6
CONTINUOUS
 62
             7
100
AcDbLine
 10
74.50000000000013
 20
-47.99999999999998
 11
74.50000000000013
 21
48.00000000000001
  0
LINE
  5
14C
100
AcDbEntity
  8
1
  6
CONTINUOUS
 62
             7
100
AcDbLine
 10
75.50000000000011
 20
-45.5
 11
75.50000000000011
 21
-48.5
  0
LINE
  5
14B
100
AcDbEntity
  8
1
  6
CONTINUOUS
 62
             7
100
AcDbLine
 10
166.40000000000009
 20
-46.09999999999997
 11
166.40000000000009
 21
-45.5
  0
LINE
  5
14A
100
AcDbEntity
  8
1
  6
CONTINUOUS
 62
             7
100
AcDbLine
 10
166.90000000000009
 20
-47.49999999999999
 11
166.90000000000009
 21
-47.99999999999999
  0
LINE
  5
149
100
AcDbEntity
  8
1
  6
CONTINUOUS
 62
             7
100
AcDbLine
 10
166.40000000000009
 20
-48.5
 11
166.40000000000009
 21
-47.99999999999999
  0
LINE
  5
148
100
AcDbEntity
  8
1
  6
CONTINUOUS
 62
             2
100
AcDbLine
 10
166.90000000000009
 20
-47.99999999999999
 11
166.40000000000009
 21
-47.99999999999999
  0
LINE
  5
147
100
AcDbEntity
  8
1
  6
CONTINUOUS
 62
             7
100
AcDbLine
 10
166.90000000000009
 20
-47.99999999999999
 11
166.90000000000009
 21
-49.99999999999999
  0
LINE
  5
146
100
AcDbEntity
  8
1
  6
CONTINUOUS
 62
             7
100
AcDbLine
 10
160.8000000000001
 20
-48.5
 11
160.8000000000001
 21
-49.99999999999999
  0
LINE
  5
145
100
AcDbEntity
  8
1
  6
CONTINUOUS
 62
             7
100
AcDbLine
 10
160.8000000000001
 20
-48.5
 11
160.8000000000001
 21
-49.99999999999999
  0
LINE
  5
144
100
AcDbEntity
  8
1
  6
CONTINUOUS
 62
             2
100
AcDbLine
 10
166.90000000000009
 20
-49.99999999999999
 11
160.8000000000001
 21
-49.99999999999999
  0
LINE
  5
143
100
AcDbEntity
  8
1
  6
CONTINUOUS
 62
             7
100
AcDbLine
 10
159.60000000000011
 20
-48.5
 11
159.60000000000011
 21
-49.99999999999999
  0
LINE
  5
142
100
AcDbEntity
  8
1
  6
CONTINUOUS
 62
             7
100
AcDbLine
 10
147.50000000000011
 20
-48.5
 11
147.50000000000011
 21
-50.0
  0
LINE
  5
141
100
AcDbEntity
  8
1
  6
CONTINUOUS
 62
             2
100
AcDbLine
 10
159.60000000000011
 20
-49.99999999999999
 11
147.50000000000011
 21
-50.0
  0
LINE
  5
140
100
AcDbEntity
  8
1
  6
CONTINUOUS
 62
             7
100
AcDbLine
 10
166.40000000000009
 20
-47.99999999999999
 11
166.40000000000009
 21
-47.49999999999999
  0
LINE
  5
13F
100
AcDbEntity
  8
1
  6
CONTINUOUS
 62
             7
100
AcDbLine
 10
166.90000000000009
 20
-46.09999999999998
 11
166.90000000000009
 21
-47.49999999999999
  0
LINE
  5
13E
100
AcDbEntity
  8
1
  6
CONTINUOUS
 62
             7
100
AcDbLine
 10
166.40000000000009
 20
-47.49999999999999
 11
166.90000000000009
 21
-47.49999999999999
  0
LINE
  5
13D
100
AcDbEntity
  8
1
  6
CONTINUOUS
 62
             7
100
AcDbLine
 10
137.2000000000001
 20
-48.5
 11
147.50000000000011
 21
-48.5
  0
LINE
  5
13C
100
AcDbEntity
  8
1
  6
CONTINUOUS
 62
             7
100
AcDbLine
 10
147.50000000000011
 20
-50.0
 11
147.50000000000011
 21
-50.5
  0
LINE
  5
13B
100
AcDbEntity
  8
1
  6
CONTINUOUS
 62
             7
100
AcDbLine
 10
159.60000000000011
 20
-49.99999999999999
 11
159.60000000000011
 21
-50.49999999999999
  0
LINE
  5
13A
100
AcDbEntity
  8
1
  6
CONTINUOUS
 62
             7
100
AcDbLine
 10
147.50000000000011
 20
-50.5
 11
159.60000000000011
 21
-50.49999999999999
  0
LINE
  5
139
100
AcDbEntity
  8
1
  6
CONTINUOUS
 62
             7
100
AcDbLine
 10
160.8000000000001
 20
-49.99999999999999
 11
160.8000000000001
 21
-50.49999999999999
  0
LINE
  5
138
100
AcDbEntity
  8
1
  6
CONTINUOUS
 62
             7
100
AcDbLine
 10
160.8000000000001
 20
-49.99999999999999
 11
160.8000000000001
 21
-50.49999999999999
  0
LINE
  5
137
100
AcDbEntity
  8
1
  6
CONTINUOUS
 62
             7
100
AcDbLine
 10
166.90000000000009
 20
-49.99999999999999
 11
166.90000000000009
 21
-50.49999999999999
  0
LINE
  5
136
100
AcDbEntity
  8
1
  6
CONTINUOUS
 62
             7
100
AcDbLine
 10
160.8000000000001
 20
-50.49999999999999
 11
166.90000000000009
 21
-50.49999999999999
  0
LINE
  5
135
100
AcDbEntity
  8
1
  6
CONTINUOUS
 62
             7
100
AcDbLine
 10
167.50000000000011
 20
-52.5
 11
167.50000000000011
 21
-51.74999999999999
  0
LINE
  5
134
100
AcDbEntity
  8
1
  6
CONTINUOUS
 62
             7
100
AcDbLine
 10
167.50000000000011
 20
-51.74999999999999
 11
168.50000000000011
 21
-51.75
  0
LINE
  5
133
100
AcDbEntity
  8
1
  6
CONTINUOUS
 62
             7
100
AcDbLine
 10
169.50000000000011
 20
-50.75
 11
169.50000000000011
 21
-47.25
  0
LINE
  5
132
100
AcDbEntity
  8
1
  6
CONTINUOUS
 62
             7
100
AcDbLine
 10
167.50000000000011
 20
-51.74999999999999
 11
167.50000000000011
 21
-46.25
  0
LINE
  5
131
100
AcDbEntity
  8
1
  6
CONTINUOUS
 62
             7
100
AcDbLine
 10
168.50000000000011
 20
-46.25
 11
167.50000000000011
 21
-46.25
  0
LINE
  5
130
100
AcDbEntity
  8
1
  6
CONTINUOUS
 62
             7
100
AcDbLine
 10
147.50000000000011
 20
-48.5
 11
159.60000000000011
 21
-48.5
  0
LINE
  5
12F
100
AcDbEntity
  8
1
  6
CONTINUOUS
 62
             7
100
AcDbLine
 10
159.60000000000011
 20
-50.49999999999999
 11
159.60000000000011
 21
-51.89999999999998
  0
LINE
  5
12E
100
AcDbEntity
  8
1
  6
CONTINUOUS
 62
             7
100
AcDbLine
 10
159.60000000000011
 20
-48.5
 11
160.8000000000001
 21
-48.5
  0
LINE
  5
12D
100
AcDbEntity
  8
1
  6
CONTINUOUS
 62
             7
100
AcDbLine
 10
160.8000000000001
 20
-50.49999999999999
 11
160.8000000000001
 21
-51.89999999999998
  0
LINE
  5
12C
100
AcDbEntity
  8
1
  6
CONTINUOUS
 62
             7
100
AcDbLine
 10
159.60000000000011
 20
-51.89999999999998
 11
136.00000000000011
 21
-51.89999999999998
  0
LINE
  5
12B
100
AcDbEntity
  8
1
  6
CONTINUOUS
 62
             7
100
AcDbLine
 10
136.00000000000011
 20
-48.5
 11
137.2000000000001
 21
-48.5
  0
LINE
  5
12A
100
AcDbEntity
  8
1
  6
CONTINUOUS
 62
             7
100
AcDbLine
 10
136.00000000000011
 20
-51.89999999999998
 11
136.00000000000011
 21
-48.5
  0
LINE
  5
129
100
AcDbEntity
  8
1
  6
CONTINUOUS
 62
             7
100
AcDbLine
 10
160.8000000000001
 20
-48.5
 11
162.00000000000011
 21
-48.5
  0
LINE
  5
128
100
AcDbEntity
  8
1
  6
CONTINUOUS
 62
             7
100
AcDbLine
 10
160.8000000000001
 20
-50.49999999999999
 11
160.8000000000001
 21
-51.89999999999998
  0
LINE
  5
127
100
AcDbEntity
  8
1
  6
CONTINUOUS
 62
             7
100
AcDbLine
 10
159.60000000000011
 20
-53.09999999999998
 11
136.00000000000011
 21
-53.09999999999998
  0
LINE
  5
126
100
AcDbEntity
  8
1
  6
CONTINUOUS
 62
             7
100
AcDbLine
 10
75.50000000000011
 20
-48.5
 11
136.00000000000011
 21
-48.5
  0
LINE
  5
125
100
AcDbEntity
  8
1
  6
CONTINUOUS
 62
             7
100
AcDbLine
 10
134.8000000000001
 20
-51.89999999999998
 11
134.8000000000001
 21
-48.5
  0
LINE
  5
124
100
AcDbEntity
  8
1
  6
CONTINUOUS
 62
             7
100
AcDbLine
 10
162.00000000000011
 20
-48.5
 11
166.40000000000009
 21
-48.5
  0
LINE
  5
123
100
AcDbEntity
  8
1
  6
CONTINUOUS
 62
             7
100
AcDbLine
 10
166.40000000000009
 20
-47.49999999999999
 11
166.40000000000009
 21
-46.09999999999997
  0
LINE
  5
122
100
AcDbEntity
  8
1
  6
CONTINUOUS
 62
             7
100
AcDbLine
 10
166.40000000000009
 20
-46.09999999999997
 11
166.90000000000009
 21
-46.09999999999998
  0
LINE
  5
121
100
AcDbEntity
  8
1
  6
CONTINUOUS
 62
             7
100
AcDbLine
 10
166.90000000000009
 20
-50.49999999999999
 11
166.90000000000009
 21
-52.5
  0
LINE
  5
120
100
AcDbEntity
  8
1
  6
CONTINUOUS
 62
             7
100
AcDbLine
 10
166.90000000000009
 20
-52.5
 11
167.50000000000011
 21
-52.5
  0
LINE
  5
11F
100
AcDbEntity
  8
1
  6
CONTINUOUS
 62
             7
100
AcDbLine
 10
167.50000000000011
 20
-46.25
 11
167.50000000000011
 21
-46.09999999999997
  0
LINE
  5
11E
100
AcDbEntity
  8
1
  6
CONTINUOUS
 62
             7
100
AcDbLine
 10
166.90000000000009
 20
48.0
 11
166.90000000000009
 21
47.5
  0
LINE
  5
11D
100
AcDbEntity
  8
1
  6
CONTINUOUS
 62
             7
100
AcDbLine
 10
166.40000000000009
 20
48.0
 11
166.40000000000009
 21
48.50000000000001
  0
LINE
  5
11C
100
AcDbEntity
  8
1
  6
CONTINUOUS
 62
             2
100
AcDbLine
 10
166.40000000000009
 20
48.0
 11
166.90000000000009
 21
48.0
  0
LINE
  5
11B
100
AcDbEntity
  8
1
  6
CONTINUOUS
 62
             7
100
AcDbLine
 10
166.90000000000009
 20
50.0
 11
166.90000000000009
 21
48.0
  0
LINE
  5
11A
100
AcDbEntity
  8
1
  6
CONTINUOUS
 62
             7
100
AcDbLine
 10
160.8000000000001
 20
50.0
 11
160.8000000000001
 21
48.50000000000001
  0
LINE
  5
119
100
AcDbEntity
  8
1
  6
CONTINUOUS
 62
             7
100
AcDbLine
 10
160.8000000000001
 20
50.0
 11
160.8000000000001
 21
48.50000000000001
  0
LINE
  5
118
100
AcDbEntity
  8
1
  6
CONTINUOUS
 62
             2
100
AcDbLine
 10
160.8000000000001
 20
50.0
 11
166.90000000000009
 21
50.0
  0
LINE
  5
117
100
AcDbEntity
  8
1
  6
CONTINUOUS
 62
             7
100
AcDbLine
 10
159.60000000000011
 20
50.0
 11
159.60000000000011
 21
48.50000000000001
  0
LINE
  5
116
100
AcDbEntity
  8
1
  6
CONTINUOUS
 62
             7
100
AcDbLine
 10
147.50000000000011
 20
50.00000000000001
 11
147.50000000000011
 21
48.50000000000001
  0
LINE
  5
115
100
AcDbEntity
  8
1
  6
CONTINUOUS
 62
             2
100
AcDbLine
 10
147.50000000000011
 20
50.00000000000001
 11
159.60000000000011
 21
50.0
  0
LINE
  5
114
100
AcDbEntity
  8
1
  6
CONTINUOUS
 62
             7
100
AcDbLine
 10
166.40000000000009
 20
47.5
 11
166.40000000000009
 21
48.0
  0
LINE
  5
113
100
AcDbEntity
  8
1
  6
CONTINUOUS
 62
             7
100
AcDbLine
 10
166.90000000000009
 20
47.5
 11
166.90000000000009
 21
46.09999999999999
  0
LINE
  5
112
100
AcDbEntity
  8
1
  6
CONTINUOUS
 62
             7
100
AcDbLine
 10
166.90000000000009
 20
47.5
 11
166.40000000000009
 21
47.5
  0
LINE
  5
111
100
AcDbEntity
  8
1
  6
CONTINUOUS
 62
             7
100
AcDbLine
 10
147.50000000000011
 20
48.50000000000001
 11
137.2000000000001
 21
48.50000000000001
  0
LINE
  5
110
100
AcDbEntity
  8
1
  6
CONTINUOUS
 62
             7
100
AcDbLine
 10
147.50000000000011
 20
50.50000000000001
 11
147.50000000000011
 21
50.00000000000001
  0
LINE
  5
10F
100
AcDbEntity
  8
1
  6
CONTINUOUS
 62
             7
100
AcDbLine
 10
159.60000000000011
 20
50.5
 11
159.60000000000011
 21
50.0
  0
LINE
  5
10E
100
AcDbEntity
  8
1
  6
CONTINUOUS
 62
             7
100
AcDbLine
 10
159.60000000000011
 20
50.5
 11
147.50000000000011
 21
50.50000000000001
  0
LINE
  5
10D
100
AcDbEntity
  8
1
  6
CONTINUOUS
 62
             7
100
AcDbLine
 10
160.8000000000001
 20
50.5
 11
160.8000000000001
 21
50.0
  0
LINE
  5
10C
100
AcDbEntity
  8
1
  6
CONTINUOUS
 62
             7
100
AcDbLine
 10
160.8000000000001
 20
50.5
 11
160.8000000000001
 21
50.0
  0
LINE
  5
10B
100
AcDbEntity
  8
1
  6
CONTINUOUS
 62
             7
100
AcDbLine
 10
166.90000000000009
 20
50.5
 11
166.90000000000009
 21
50.0
  0
LINE
  5
10A
100
AcDbEntity
  8
1
  6
CONTINUOUS
 62
             7
100
AcDbLine
 10
166.90000000000009
 20
50.5
 11
160.8000000000001
 21
50.5
  0
LINE
  5
109
100
AcDbEntity
  8
1
  6
CONTINUOUS
 62
             7
100
AcDbLine
 10
167.50000000000011
 20
51.75
 11
167.50000000000011
 21
52.50000000000001
  0
LINE
  5
108
100
AcDbEntity
  8
1
  6
CONTINUOUS
 62
             7
100
AcDbLine
 10
168.50000000000011
 20
51.75000000000001
 11
167.50000000000011
 21
51.75
  0
LINE
  5
107
100
AcDbEntity
  8
1
  6
CONTINUOUS
 62
             7
100
AcDbLine
 10
169.50000000000011
 20
47.25000000000001
 11
169.50000000000011
 21
50.75000000000001
  0
LINE
  5
106
100
AcDbEntity
  8
1
  6
CONTINUOUS
 62
             7
100
AcDbLine
 10
167.50000000000011
 20
46.25000000000001
 11
167.50000000000011
 21
51.75
  0
LINE
  5
105
100
AcDbEntity
  8
1
  6
CONTINUOUS
 62
             7
100
AcDbLine
 10
167.50000000000011
 20
46.25000000000001
 11
168.50000000000011
 21
46.25000000000001
  0
LINE
  5
104
100
AcDbEntity
  8
1
  6
CONTINUOUS
 62
             7
100
AcDbLine
 10
159.60000000000011
 20
48.50000000000001
 11
147.50000000000011
 21
48.50000000000001
  0
LINE
  5
103
100
AcDbEntity
  8
1
  6
CONTINUOUS
 62
             7
100
AcDbLine
 10
159.60000000000011
 20
51.90000000000001
 11
159.60000000000011
 21
50.5
  0
LINE
  5
102
100
AcDbEntity
  8
1
  6
CONTINUOUS
 62
             7
100
AcDbLine
 10
160.8000000000001
 20
48.50000000000001
 11
159.60000000000011
 21
48.50000000000001
  0
LINE
  5
101
100
AcDbEntity
  8
1
  6
CONTINUOUS
 62
             7
100
AcDbLine
 10
160.8000000000001
 20
51.90000000000001
 11
160.8000000000001
 21
50.5
  0
LINE
  5
100
100
AcDbEntity
  8
1
  6
CONTINUOUS
 62
             7
100
AcDbLine
 10
137.2000000000001
 20
48.50000000000001
 11
136.00000000000011
 21
48.50000000000001
  0
LINE
  5
FF
100
AcDbEntity
  8
1
  6
CONTINUOUS
 62
             7
100
AcDbLine
 10
136.00000000000011
 20
48.50000000000001
 11
136.00000000000011
 21
51.90000000000001
  0
LINE
  5
FE
100
AcDbEntity
  8
1
  6
CONTINUOUS
 62
             7
100
AcDbLine
 10
162.00000000000011
 20
48.50000000000001
 11
160.8000000000001
 21
48.50000000000001
  0
LINE
  5
FD
100
AcDbEntity
  8
1
  6
CONTINUOUS
 62
             7
100
AcDbLine
 10
160.8000000000001
 20
51.90000000000001
 11
160.8000000000001
 21
50.5
  0
LINE
  5
FC
100
AcDbEntity
  8
1
  6
CONTINUOUS
 62
             7
100
AcDbLine
 10
136.00000000000011
 20
53.10000000000001
 11
159.60000000000011
 21
53.10000000000001
  0
LINE
  5
FB
100
AcDbEntity
  8
1
  6
CONTINUOUS
 62
             7
100
AcDbLine
 10
136.00000000000011
 20
48.50000000000001
 11
75.5000000000001
 21
48.50000000000001
  0
LINE
  5
FA
100
AcDbEntity
  8
1
  6
CONTINUOUS
 62
             7
100
AcDbLine
 10
134.8000000000001
 20
48.50000000000001
 11
134.8000000000001
 21
51.90000000000001
  0
LINE
  5
F9
100
AcDbEntity
  8
1
  6
CONTINUOUS
 62
             7
100
AcDbLine
 10
75.5000000000001
 20
48.50000000000001
 11
75.50000000000011
 21
45.50000000000001
  0
LINE
  5
F8
100
AcDbEntity
  8
1
  6
CONTINUOUS
 62
             7
100
AcDbLine
 10
166.40000000000009
 20
48.50000000000001
 11
162.00000000000011
 21
48.50000000000001
  0
LINE
  5
F7
100
AcDbEntity
  8
1
  6
CONTINUOUS
 62
             7
100
AcDbLine
 10
166.40000000000009
 20
46.09999999999999
 11
166.40000000000009
 21
47.5
  0
LINE
  5
F6
100
AcDbEntity
  8
1
  6
CONTINUOUS
 62
             7
100
AcDbLine
 10
166.40000000000009
 20
45.50000000000001
 11
166.40000000000009
 21
46.09999999999999
  0
LINE
  5
F5
100
AcDbEntity
  8
1
  6
CONTINUOUS
 62
             7
100
AcDbLine
 10
166.90000000000009
 20
46.09999999999999
 11
166.40000000000009
 21
46.09999999999999
  0
LINE
  5
F4
100
AcDbEntity
  8
1
  6
CONTINUOUS
 62
             7
100
AcDbLine
 10
166.90000000000009
 20
52.50000000000001
 11
166.90000000000009
 21
50.5
  0
LINE
  5
F3
100
AcDbEntity
  8
1
  6
CONTINUOUS
 62
             7
100
AcDbLine
 10
167.50000000000011
 20
52.50000000000001
 11
166.90000000000009
 21
52.50000000000001
  0
LINE
  5
F2
100
AcDbEntity
  8
1
  6
CONTINUOUS
 62
             7
100
AcDbLine
 10
167.50000000000011
 20
46.09999999999999
 11
167.50000000000011
 21
46.25000000000001
  0
LINE
  5
F1
100
AcDbEntity
  8
1
  6
CONTINUOUS
 62
             7
100
AcDbLine
 10
166.90000000000009
 20
45.50000000000001
 11
166.40000000000009
 21
45.50000000000001
  0
LINE
  5
F0
100
AcDbEntity
  8
1
  6
CONTINUOUS
 62
             7
100
AcDbLine
 10
136.00000000000011
 20
51.90000000000001
 11
159.60000000000011
 21
51.90000000000001
  0
LINE
  5
EF
100
AcDbEntity
  8
0
  6
CONTINUOUS
 62
             7
100
AcDbLine
 10
167.52205450853171
 20
38.68860009363267
 11
167.52205450853171
 21
36.91139990636682
  0
LINE
  5
EE
100
AcDbEntity
  8
0
  6
CONTINUOUS
 62
             7
100
AcDbLine
 10
167.52205450853171
 20
40.54999999999974
 11
168.26117465015619
 21
40.54999999999974
  0
LINE
  5
ED
100
AcDbEntity
  8
0
  6
CONTINUOUS
 62
             7
100
AcDbLine
 10
168.26117465015619
 20
35.04999999999974
 11
167.52205450853171
 21
35.04999999999974
  0
LINE
  5
EC
100
AcDbEntity
  8
0
  6
CONTINUOUS
 62
             7
100
AcDbLine
 10
167.1220545085317
 20
41.19999999999975
 11
166.1220545085317
 21
41.19999999999975
  0
LINE
  5
EB
100
AcDbEntity
  8
0
  6
CONTINUOUS
 62
             7
100
AcDbLine
 10
167.1220545085317
 20
34.39999999999975
 11
166.1220545085317
 21
34.39999999999975
  0
LINE
  5
EA
100
AcDbEntity
  8
0
  6
CONTINUOUS
 62
             7
100
AcDbLine
 10
167.1220545085317
 20
41.19999999999975
 11
167.52205450853171
 21
39.54999999999974
  0
LINE
  5
E9
100
AcDbEntity
  8
0
  6
CONTINUOUS
 62
             7
100
AcDbLine
 10
166.1220545085317
 20
41.19999999999975
 11
166.52205450853171
 21
39.54999999999974
  0
LINE
  5
E8
100
AcDbEntity
  8
0
  6
CONTINUOUS
 62
             7
100
AcDbLine
 10
167.1220545085317
 20
38.39999999999975
 11
167.3922791968495
 21
38.5013342581189
  0
LINE
  5
E7
100
AcDbEntity
  8
0
  6
CONTINUOUS
 62
             7
100
AcDbLine
 10
167.1220545085317
 20
38.39999999999975
 11
167.1220545085317
 21
37.19999999999975
  0
LINE
  5
E6
100
AcDbEntity
  8
0
  6
CONTINUOUS
 62
             7
100
AcDbLine
 10
167.1220545085317
 20
37.19999999999975
 11
167.3922791968495
 21
37.09866574188062
  0
LINE
  5
E5
100
AcDbEntity
  8
0
  6
CONTINUOUS
 62
             7
100
AcDbLine
 10
166.1220545085317
 20
38.39999999999975
 11
166.3922791968495
 21
38.5013342581189
  0
LINE
  5
E4
100
AcDbEntity
  8
0
  6
CONTINUOUS
 62
             7
100
AcDbLine
 10
166.1220545085317
 20
37.19999999999975
 11
166.3922791968495
 21
37.09866574188062
  0
LINE
  5
E3
100
AcDbEntity
  8
0
  6
CONTINUOUS
 62
             7
100
AcDbLine
 10
167.52205450853171
 20
41.19999999999975
 11
167.52205450853171
 21
38.68860009363267
  0
LINE
  5
E2
100
AcDbEntity
  8
0
  6
CONTINUOUS
 62
             7
100
AcDbLine
 10
167.52205450853171
 20
36.04999999999974
 11
167.1220545085317
 21
34.39999999999975
  0
LINE
  5
E1
100
AcDbEntity
  8
0
  6
CONTINUOUS
 62
             7
100
AcDbLine
 10
166.52205450853171
 20
36.04999999999974
 11
166.1220545085317
 21
34.39999999999975
  0
LINE
  5
E0
100
AcDbEntity
  8
0
  6
CONTINUOUS
 62
             7
100
AcDbLine
 10
167.52205450853171
 20
41.19999999999975
 11
167.1220545085317
 21
41.19999999999975
  0
LINE
  5
DF
100
AcDbEntity
  8
0
  6
CONTINUOUS
 62
             7
100
AcDbLine
 10
167.52205450853171
 20
34.39999999999975
 11
167.1220545085317
 21
34.39999999999975
  0
LINE
  5
DE
100
AcDbEntity
  8
0
  6
CONTINUOUS
 62
             7
100
AcDbLine
 10
166.52205450853171
 20
38.68860009363267
 11
166.52205450853171
 21
39.54999999999974
  0
LINE
  5
DD
100
AcDbEntity
  8
0
  6
CONTINUOUS
 62
             7
100
AcDbLine
 10
166.52205450853171
 20
36.04999999999974
 11
166.52205450853171
 21
36.91139990636682
  0
LINE
  5
DC
100
AcDbEntity
  8
0
  6
CONTINUOUS
 62
             7
100
AcDbLine
 10
167.52205450853171
 20
34.39999999999975
 11
167.52205450853171
 21
36.91139990636682
  0
LINE
  5
DB
100
AcDbEntity
  8
0
  6
CONTINUOUS
 62
             7
100
AcDbLine
 10
167.52205450853171
 20
30.28860009363271
 11
167.52205450853171
 21
28.51139990636684
  0
LINE
  5
DA
100
AcDbEntity
  8
0
  6
CONTINUOUS
 62
             7
100
AcDbLine
 10
167.52205450853171
 20
32.14999999999978
 11
168.26117465015619
 21
32.14999999999978
  0
LINE
  5
D9
100
AcDbEntity
  8
0
  6
CONTINUOUS
 62
             7
100
AcDbLine
 10
168.26117465015619
 20
26.64999999999978
 11
167.52205450853171
 21
26.64999999999978
  0
LINE
  5
D8
100
AcDbEntity
  8
0
  6
CONTINUOUS
 62
             7
100
AcDbLine
 10
167.1220545085317
 20
32.79999999999978
 11
166.1220545085317
 21
32.79999999999978
  0
LINE
  5
D7
100
AcDbEntity
  8
0
  6
CONTINUOUS
 62
             7
100
AcDbLine
 10
167.1220545085317
 20
25.99999999999977
 11
166.1220545085317
 21
25.99999999999977
  0
LINE
  5
D6
100
AcDbEntity
  8
0
  6
CONTINUOUS
 62
             7
100
AcDbLine
 10
167.1220545085317
 20
32.79999999999978
 11
167.52205450853171
 21
31.14999999999978
  0
LINE
  5
D5
100
AcDbEntity
  8
0
  6
CONTINUOUS
 62
             7
100
AcDbLine
 10
166.1220545085317
 20
32.79999999999978
 11
166.52205450853171
 21
31.14999999999978
  0
LINE
  5
D4
100
AcDbEntity
  8
0
  6
CONTINUOUS
 62
             7
100
AcDbLine
 10
167.1220545085317
 20
29.99999999999977
 11
167.3922791968495
 21
30.10133425811891
  0
LINE
  5
D3
100
AcDbEntity
  8
0
  6
CONTINUOUS
 62
             7
100
AcDbLine
 10
167.1220545085317
 20
29.99999999999977
 11
167.1220545085317
 21
28.79999999999978
  0
LINE
  5
D2
100
AcDbEntity
  8
0
  6
CONTINUOUS
 62
             7
100
AcDbLine
 10
167.1220545085317
 20
28.79999999999978
 11
167.3922791968495
 21
28.69866574188066
  0
LINE
  5
D1
100
AcDbEntity
  8
0
  6
CONTINUOUS
 62
             7
100
AcDbLine
 10
166.1220545085317
 20
29.99999999999977
 11
166.3922791968495
 21
30.10133425811891
  0
LINE
  5
D0
100
AcDbEntity
  8
0
  6
CONTINUOUS
 62
             7
100
AcDbLine
 10
166.1220545085317
 20
28.79999999999978
 11
166.3922791968495
 21
28.69866574188066
  0
LINE
  5
CF
100
AcDbEntity
  8
0
  6
CONTINUOUS
 62
             7
100
AcDbLine
 10
167.52205450853171
 20
32.79999999999978
 11
167.52205450853171
 21
30.28860009363271
  0
LINE
  5
CE
100
AcDbEntity
  8
0
  6
CONTINUOUS
 62
             7
100
AcDbLine
 10
167.52205450853171
 20
27.64999999999978
 11
167.1220545085317
 21
25.99999999999977
  0
LINE
  5
CD
100
AcDbEntity
  8
0
  6
CONTINUOUS
 62
             7
100
AcDbLine
 10
166.52205450853171
 20
27.64999999999978
 11
166.1220545085317
 21
25.99999999999977
  0
LINE
  5
CC
100
AcDbEntity
  8
0
  6
CONTINUOUS
 62
             7
100
AcDbLine
 10
167.52205450853171
 20
32.79999999999978
 11
167.1220545085317
 21
32.79999999999978
  0
LINE
  5
CB
100
AcDbEntity
  8
0
  6
CONTINUOUS
 62
             7
100
AcDbLine
 10
167.52205450853171
 20
25.99999999999977
 11
167.1220545085317
 21
25.99999999999977
  0
LINE
  5
CA
100
AcDbEntity
  8
0
  6
CONTINUOUS
 62
             7
100
AcDbLine
 10
166.52205450853171
 20
30.28860009363271
 11
166.52205450853171
 21
31.14999999999978
  0
LINE
  5
C9
100
AcDbEntity
  8
0
  6
CONTINUOUS
 62
             7
100
AcDbLine
 10
166.52205450853171
 20
27.64999999999978
 11
166.52205450853171
 21
28.51139990636684
  0
LINE
  5
C8
100
AcDbEntity
  8
0
  6
CONTINUOUS
 62
             7
100
AcDbLine
 10
167.52205450853171
 20
25.99999999999977
 11
167.52205450853171
 21
28.51139990636684
  0
LINE
  5
C7
100
AcDbEntity
  8
0
  6
CONTINUOUS
 62
             7
100
AcDbLine
 10
167.52205450853171
 20
21.8886000936327
 11
167.52205450853171
 21
20.11139990636687
  0
LINE
  5
C6
100
AcDbEntity
  8
0
  6
CONTINUOUS
 62
             7
100
AcDbLine
 10
167.52205450853171
 20
23.74999999999978
 11
168.26117465015619
 21
23.74999999999978
  0
LINE
  5
C5
100
AcDbEntity
  8
0
  6
CONTINUOUS
 62
             7
100
AcDbLine
 10
168.26117465015619
 20
18.24999999999979
 11
167.52205450853171
 21
18.24999999999979
  0
LINE
  5
C4
100
AcDbEntity
  8
0
  6
CONTINUOUS
 62
             7
100
AcDbLine
 10
167.1220545085317
 20
24.3999999999998
 11
166.1220545085317
 21
24.3999999999998
  0
LINE
  5
C3
100
AcDbEntity
  8
0
  6
CONTINUOUS
 62
             7
100
AcDbLine
 10
167.1220545085317
 20
17.59999999999979
 11
166.1220545085317
 21
17.59999999999979
  0
LINE
  5
C2
100
AcDbEntity
  8
0
  6
CONTINUOUS
 62
             7
100
AcDbLine
 10
167.1220545085317
 20
24.3999999999998
 11
167.52205450853171
 21
22.74999999999978
  0
LINE
  5
C1
100
AcDbEntity
  8
0
  6
CONTINUOUS
 62
             7
100
AcDbLine
 10
166.1220545085317
 20
24.3999999999998
 11
166.52205450853171
 21
22.74999999999978
  0
LINE
  5
C0
100
AcDbEntity
  8
0
  6
CONTINUOUS
 62
             7
100
AcDbLine
 10
167.1220545085317
 20
21.59999999999979
 11
167.3922791968495
 21
21.70133425811893
  0
LINE
  5
BF
100
AcDbEntity
  8
0
  6
CONTINUOUS
 62
             7
100
AcDbLine
 10
167.1220545085317
 20
21.59999999999979
 11
167.1220545085317
 21
20.3999999999998
  0
LINE
  5
BE
100
AcDbEntity
  8
0
  6
CONTINUOUS
 62
             7
100
AcDbLine
 10
167.1220545085317
 20
20.3999999999998
 11
167.3922791968495
 21
20.29866574188067
  0
LINE
  5
BD
100
AcDbEntity
  8
0
  6
CONTINUOUS
 62
             7
100
AcDbLine
 10
166.1220545085317
 20
21.59999999999979
 11
166.3922791968495
 21
21.70133425811893
  0
LINE
  5
BC
100
AcDbEntity
  8
0
  6
CONTINUOUS
 62
             7
100
AcDbLine
 10
166.1220545085317
 20
20.3999999999998
 11
166.3922791968495
 21
20.29866574188067
  0
LINE
  5
BB
100
AcDbEntity
  8
0
  6
CONTINUOUS
 62
             7
100
AcDbLine
 10
167.52205450853171
 20
24.3999999999998
 11
167.52205450853171
 21
21.8886000936327
  0
LINE
  5
BA
100
AcDbEntity
  8
0
  6
CONTINUOUS
 62
             7
100
AcDbLine
 10
167.52205450853171
 20
19.24999999999978
 11
167.1220545085317
 21
17.59999999999979
  0
LINE
  5
B9
100
AcDbEntity
  8
0
  6
CONTINUOUS
 62
             7
100
AcDbLine
 10
166.52205450853171
 20
19.24999999999978
 11
166.1220545085317
 21
17.59999999999979
  0
LINE
  5
B8
100
AcDbEntity
  8
0
  6
CONTINUOUS
 62
             7
100
AcDbLine
 10
167.52205450853171
 20
24.3999999999998
 11
167.1220545085317
 21
24.3999999999998
  0
LINE
  5
B7
100
AcDbEntity
  8
0
  6
CONTINUOUS
 62
             7
100
AcDbLine
 10
167.52205450853171
 20
17.59999999999979
 11
167.1220545085317
 21
17.59999999999979
  0
LINE
  5
B6
100
AcDbEntity
  8
0
  6
CONTINUOUS
 62
             7
100
AcDbLine
 10
166.52205450853171
 20
21.8886000936327
 11
166.52205450853171
 21
22.74999999999978
  0
LINE
  5
B5
100
AcDbEntity
  8
0
  6
CONTINUOUS
 62
             7
100
AcDbLine
 10
166.52205450853171
 20
19.24999999999978
 11
166.52205450853171
 21
20.11139990636687
  0
LINE
  5
B4
100
AcDbEntity
  8
0
  6
CONTINUOUS
 62
             7
100
AcDbLine
 10
167.52205450853171
 20
17.59999999999979
 11
167.52205450853171
 21
20.11139990636687
  0
LINE
  5
B3
100
AcDbEntity
  8
0
  6
CONTINUOUS
 62
             7
100
AcDbLine
 10
167.52205450853171
 20
13.48860009363273
 11
167.52205450853171
 21
11.71139990636687
  0
LINE
  5
B2
100
AcDbEntity
  8
0
  6
CONTINUOUS
 62
             7
100
AcDbLine
 10
167.52205450853171
 20
15.3499999999998
 11
168.26117465015619
 21
15.3499999999998
  0
LINE
  5
B1
100
AcDbEntity
  8
0
  6
CONTINUOUS
 62
             7
100
AcDbLine
 10
168.26117465015619
 20
9.8499999999998
 11
167.52205450853171
 21
9.8499999999998
  0
LINE
  5
B0
100
AcDbEntity
  8
0
  6
CONTINUOUS
 62
             7
100
AcDbLine
 10
167.1220545085317
 20
15.99999999999981
 11
166.1220545085317
 21
15.99999999999981
  0
LINE
  5
AF
100
AcDbEntity
  8
0
  6
CONTINUOUS
 62
             7
100
AcDbLine
 10
167.1220545085317
 20
9.1999999999998
 11
166.1220545085317
 21
9.1999999999998
  0
LINE
  5
AE
100
AcDbEntity
  8
0
  6
CONTINUOUS
 62
             7
100
AcDbLine
 10
167.1220545085317
 20
15.99999999999981
 11
167.52205450853171
 21
14.3499999999998
  0
LINE
  5
AD
100
AcDbEntity
  8
0
  6
CONTINUOUS
 62
             7
100
AcDbLine
 10
166.1220545085317
 20
15.99999999999981
 11
166.52205450853171
 21
14.3499999999998
  0
LINE
  5
AC
100
AcDbEntity
  8
0
  6
CONTINUOUS
 62
             7
100
AcDbLine
 10
167.1220545085317
 20
13.1999999999998
 11
167.3922791968495
 21
13.30133425811895
  0
LINE
  5
AB
100
AcDbEntity
  8
0
  6
CONTINUOUS
 62
             7
100
AcDbLine
 10
167.1220545085317
 20
13.1999999999998
 11
167.1220545085317
 21
11.99999999999981
  0
LINE
  5
AA
100
AcDbEntity
  8
0
  6
CONTINUOUS
 62
             7
100
AcDbLine
 10
167.1220545085317
 20
11.99999999999981
 11
167.3922791968495
 21
11.89866574188068
  0
LINE
  5
A9
100
AcDbEntity
  8
0
  6
CONTINUOUS
 62
             7
100
AcDbLine
 10
166.1220545085317
 20
13.1999999999998
 11
166.3922791968495
 21
13.30133425811895
  0
LINE
  5
A8
100
AcDbEntity
  8
0
  6
CONTINUOUS
 62
             7
100
AcDbLine
 10
166.1220545085317
 20
11.99999999999981
 11
166.3922791968495
 21
11.89866574188068
  0
LINE
  5
A7
100
AcDbEntity
  8
0
  6
CONTINUOUS
 62
             7
100
AcDbLine
 10
167.52205450853171
 20
15.99999999999981
 11
167.52205450853171
 21
13.48860009363273
  0
LINE
  5
A6
100
AcDbEntity
  8
0
  6
CONTINUOUS
 62
             7
100
AcDbLine
 10
167.52205450853171
 20
10.8499999999998
 11
167.1220545085317
 21
9.1999999999998
  0
LINE
  5
A5
100
AcDbEntity
  8
0
  6
CONTINUOUS
 62
             7
100
AcDbLine
 10
166.52205450853171
 20
10.8499999999998
 11
166.1220545085317
 21
9.1999999999998
  0
LINE
  5
A4
100
AcDbEntity
  8
0
  6
CONTINUOUS
 62
             7
100
AcDbLine
 10
167.52205450853171
 20
15.99999999999981
 11
167.1220545085317
 21
15.99999999999981
  0
LINE
  5
A3
100
AcDbEntity
  8
0
  6
CONTINUOUS
 62
             7
100
AcDbLine
 10
167.52205450853171
 20
9.1999999999998
 11
167.1220545085317
 21
9.1999999999998
  0
LINE
  5
A2
100
AcDbEntity
  8
0
  6
CONTINUOUS
 62
             7
100
AcDbLine
 10
166.52205450853171
 20
13.48860009363273
 11
166.52205450853171
 21
14.3499999999998
  0
LINE
  5
A1
100
AcDbEntity
  8
0
  6
CONTINUOUS
 62
             7
100
AcDbLine
 10
166.52205450853171
 20
10.8499999999998
 11
166.52205450853171
 21
11.71139990636687
  0
LINE
  5
A0
100
AcDbEntity
  8
0
  6
CONTINUOUS
 62
             7
100
AcDbLine
 10
167.52205450853171
 20
9.1999999999998
 11
167.52205450853171
 21
11.71139990636687
  0
LINE
  5
9F
100
AcDbEntity
  8
0
  6
CONTINUOUS
 62
             7
100
AcDbLine
 10
167.52205450853171
 20
5.08860009363276
 11
167.52205450853171
 21
3.31139990636689
  0
LINE
  5
9E
100
AcDbEntity
  8
0
  6
CONTINUOUS
 62
             7
100
AcDbLine
 10
167.52205450853171
 20
6.94999999999983
 11
168.26117465015619
 21
6.94999999999983
  0
LINE
  5
9D
100
AcDbEntity
  8
0
  6
CONTINUOUS
 62
             7
100
AcDbLine
 10
168.26117465015619
 20
1.44999999999983
 11
167.52205450853171
 21
1.44999999999983
  0
LINE
  5
9C
100
AcDbEntity
  8
0
  6
CONTINUOUS
 62
             7
100
AcDbLine
 10
167.1220545085317
 20
7.59999999999983
 11
166.1220545085317
 21
7.59999999999983
  0
LINE
  5
9B
100
AcDbEntity
  8
0
  6
CONTINUOUS
 62
             7
100
AcDbLine
 10
167.1220545085317
 20
0.79999999999982
 11
166.1220545085317
 21
0.79999999999982
  0
LINE
  5
9A
100
AcDbEntity
  8
0
  6
CONTINUOUS
 62
             7
100
AcDbLine
 10
167.1220545085317
 20
7.59999999999983
 11
167.52205450853171
 21
5.94999999999983
  0
LINE
  5
99
100
AcDbEntity
  8
0
  6
CONTINUOUS
 62
             7
100
AcDbLine
 10
166.1220545085317
 20
7.59999999999983
 11
166.52205450853171
 21
5.94999999999983
  0
LINE
  5
98
100
AcDbEntity
  8
0
  6
CONTINUOUS
 62
             7
100
AcDbLine
 10
167.1220545085317
 20
4.79999999999982
 11
167.3922791968495
 21
4.90133425811897
  0
LINE
  5
97
100
AcDbEntity
  8
0
  6
CONTINUOUS
 62
             7
100
AcDbLine
 10
167.1220545085317
 20
4.79999999999982
 11
167.1220545085317
 21
3.59999999999983
  0
LINE
  5
96
100
AcDbEntity
  8
0
  6
CONTINUOUS
 62
             7
100
AcDbLine
 10
167.1220545085317
 20
3.59999999999983
 11
167.3922791968495
 21
3.49866574188071
  0
LINE
  5
95
100
AcDbEntity
  8
0
  6
CONTINUOUS
 62
             7
100
AcDbLine
 10
166.1220545085317
 20
4.79999999999982
 11
166.3922791968495
 21
4.90133425811897
  0
LINE
  5
94
100
AcDbEntity
  8
0
  6
CONTINUOUS
 62
             7
100
AcDbLine
 10
166.1220545085317
 20
3.59999999999983
 11
166.3922791968495
 21
3.49866574188071
  0
LINE
  5
93
100
AcDbEntity
  8
0
  6
CONTINUOUS
 62
             7
100
AcDbLine
 10
167.52205450853171
 20
7.59999999999983
 11
167.52205450853171
 21
5.08860009363276
  0
LINE
  5
92
100
AcDbEntity
  8
0
  6
CONTINUOUS
 62
             7
100
AcDbLine
 10
167.52205450853171
 20
2.44999999999983
 11
167.1220545085317
 21
0.79999999999982
  0
LINE
  5
91
100
AcDbEntity
  8
0
  6
CONTINUOUS
 62
             7
100
AcDbLine
 10
166.52205450853171
 20
2.44999999999983
 11
166.1220545085317
 21
0.79999999999982
  0
LINE
  5
90
100
AcDbEntity
  8
0
  6
CONTINUOUS
 62
             7
100
AcDbLine
 10
167.52205450853171
 20
7.59999999999983
 11
167.1220545085317
 21
7.59999999999983
  0
LINE
  5
8F
100
AcDbEntity
  8
0
  6
CONTINUOUS
 62
             7
100
AcDbLine
 10
167.52205450853171
 20
0.79999999999982
 11
167.1220545085317
 21
0.79999999999982
  0
LINE
  5
8E
100
AcDbEntity
  8
0
  6
CONTINUOUS
 62
             7
100
AcDbLine
 10
166.52205450853171
 20
5.08860009363276
 11
166.52205450853171
 21
5.94999999999983
  0
LINE
  5
8D
100
AcDbEntity
  8
0
  6
CONTINUOUS
 62
             7
100
AcDbLine
 10
166.52205450853171
 20
2.44999999999983
 11
166.52205450853171
 21
3.31139990636689
  0
LINE
  5
8C
100
AcDbEntity
  8
0
  6
CONTINUOUS
 62
             7
100
AcDbLine
 10
167.52205450853171
 20
0.79999999999982
 11
167.52205450853171
 21
3.31139990636689
  0
LINE
  5
8B
100
AcDbEntity
  8
0
  6
CONTINUOUS
 62
             7
100
AcDbLine
 10
167.52205450853171
 20
-3.31139990636723
 11
167.52205450853171
 21
-5.08860009363308
  0
LINE
  5
8A
100
AcDbEntity
  8
0
  6
CONTINUOUS
 62
             7
100
AcDbLine
 10
167.52205450853171
 20
-1.45000000000015
 11
168.26117465015619
 21
-1.45000000000015
  0
LINE
  5
89
100
AcDbEntity
  8
0
  6
CONTINUOUS
 62
             7
100
AcDbLine
 10
168.26117465015619
 20
-6.95000000000015
 11
167.52205450853171
 21
-6.95000000000015
  0
LINE
  5
88
100
AcDbEntity
  8
0
  6
CONTINUOUS
 62
             7
100
AcDbLine
 10
167.1220545085317
 20
-0.80000000000015
 11
166.1220545085317
 21
-0.80000000000015
  0
LINE
  5
87
100
AcDbEntity
  8
0
  6
CONTINUOUS
 62
             7
100
AcDbLine
 10
167.1220545085317
 20
-7.60000000000015
 11
166.1220545085317
 21
-7.60000000000015
  0
LINE
  5
86
100
AcDbEntity
  8
0
  6
CONTINUOUS
 62
             7
100
AcDbLine
 10
167.1220545085317
 20
-0.80000000000015
 11
167.52205450853171
 21
-2.45000000000015
  0
LINE
  5
85
100
AcDbEntity
  8
0
  6
CONTINUOUS
 62
             7
100
AcDbLine
 10
166.1220545085317
 20
-0.80000000000015
 11
166.52205450853171
 21
-2.45000000000015
  0
LINE
  5
84
100
AcDbEntity
  8
0
  6
CONTINUOUS
 62
             7
100
AcDbLine
 10
167.1220545085317
 20
-3.60000000000015
 11
167.3922791968495
 21
-3.49866574188101
  0
LINE
  5
83
100
AcDbEntity
  8
0
  6
CONTINUOUS
 62
             7
100
AcDbLine
 10
167.1220545085317
 20
-3.60000000000015
 11
167.1220545085317
 21
-4.80000000000015
  0
LINE
  5
82
100
AcDbEntity
  8
0
  6
CONTINUOUS
 62
             7
100
AcDbLine
 10
167.1220545085317
 20
-4.80000000000015
 11
167.3922791968495
 21
-4.90133425811928
  0
LINE
  5
81
100
AcDbEntity
  8
0
  6
CONTINUOUS
 62
             7
100
AcDbLine
 10
166.1220545085317
 20
-3.60000000000015
 11
166.3922791968495
 21
-3.49866574188101
  0
LINE
  5
80
100
AcDbEntity
  8
0
  6
CONTINUOUS
 62
             7
100
AcDbLine
 10
166.1220545085317
 20
-4.80000000000015
 11
166.3922791968495
 21
-4.90133425811928
  0
LINE
  5
7F
100
AcDbEntity
  8
0
  6
CONTINUOUS
 62
             7
100
AcDbLine
 10
167.52205450853171
 20
-0.80000000000015
 11
167.52205450853171
 21
-3.31139990636723
  0
LINE
  5
7E
100
AcDbEntity
  8
0
  6
CONTINUOUS
 62
             7
100
AcDbLine
 10
167.52205450853171
 20
-5.95000000000015
 11
167.1220545085317
 21
-7.60000000000015
  0
LINE
  5
7D
100
AcDbEntity
  8
0
  6
CONTINUOUS
 62
             7
100
AcDbLine
 10
166.52205450853171
 20
-5.95000000000015
 11
166.1220545085317
 21
-7.60000000000015
  0
LINE
  5
7C
100
AcDbEntity
  8
0
  6
CONTINUOUS
 62
             7
100
AcDbLine
 10
167.52205450853171
 20
-0.80000000000015
 11
167.1220545085317
 21
-0.80000000000015
  0
LINE
  5
7B
100
AcDbEntity
  8
0
  6
CONTINUOUS
 62
             7
100
AcDbLine
 10
167.52205450853171
 20
-7.60000000000015
 11
167.1220545085317
 21
-7.60000000000015
  0
LINE
  5
7A
100
AcDbEntity
  8
0
  6
CONTINUOUS
 62
             7
100
AcDbLine
 10
166.52205450853171
 20
-3.31139990636723
 11
166.52205450853171
 21
-2.45000000000015
  0
LINE
  5
79
100
AcDbEntity
  8
0
  6
CONTINUOUS
 62
             7
100
AcDbLine
 10
166.52205450853171
 20
-5.95000000000015
 11
166.52205450853171
 21
-5.08860009363308
  0
LINE
  5
78
100
AcDbEntity
  8
0
  6
CONTINUOUS
 62
             7
100
AcDbLine
 10
167.52205450853171
 20
-7.60000000000015
 11
167.52205450853171
 21
-5.08860009363308
  0
LINE
  5
77
100
AcDbEntity
  8
0
  6
CONTINUOUS
 62
             7
100
AcDbLine
 10
167.52205450853171
 20
-11.71139990636719
 11
167.52205450853171
 21
-13.48860009363307
  0
LINE
  5
76
100
AcDbEntity
  8
0
  6
CONTINUOUS
 62
             7
100
AcDbLine
 10
167.52205450853171
 20
-9.85000000000014
 11
168.26117465015619
 21
-9.85000000000014
  0
LINE
  5
75
100
AcDbEntity
  8
0
  6
CONTINUOUS
 62
             7
100
AcDbLine
 10
168.26117465015619
 20
-15.35000000000014
 11
167.52205450853171
 21
-15.35000000000014
  0
LINE
  5
74
100
AcDbEntity
  8
0
  6
CONTINUOUS
 62
             7
100
AcDbLine
 10
167.1220545085317
 20
-9.20000000000012
 11
166.1220545085317
 21
-9.20000000000012
  0
LINE
  5
73
100
AcDbEntity
  8
0
  6
CONTINUOUS
 62
             7
100
AcDbLine
 10
167.1220545085317
 20
-16.00000000000014
 11
166.1220545085317
 21
-16.00000000000014
  0
LINE
  5
72
100
AcDbEntity
  8
0
  6
CONTINUOUS
 62
             7
100
AcDbLine
 10
167.1220545085317
 20
-9.20000000000012
 11
167.52205450853171
 21
-10.85000000000014
  0
LINE
  5
71
100
AcDbEntity
  8
0
  6
CONTINUOUS
 62
             7
100
AcDbLine
 10
166.1220545085317
 20
-9.20000000000012
 11
166.52205450853171
 21
-10.85000000000014
  0
LINE
  5
70
100
AcDbEntity
  8
0
  6
CONTINUOUS
 62
             7
100
AcDbLine
 10
167.1220545085317
 20
-12.00000000000014
 11
167.3922791968495
 21
-11.89866574188098
  0
LINE
  5
6F
100
AcDbEntity
  8
0
  6
CONTINUOUS
 62
             7
100
AcDbLine
 10
167.1220545085317
 20
-12.00000000000014
 11
167.1220545085317
 21
-13.20000000000012
  0
LINE
  5
6E
100
AcDbEntity
  8
0
  6
CONTINUOUS
 62
             7
100
AcDbLine
 10
167.1220545085317
 20
-13.20000000000012
 11
167.3922791968495
 21
-13.30133425811924
  0
LINE
  5
6D
100
AcDbEntity
  8
0
  6
CONTINUOUS
 62
             7
100
AcDbLine
 10
166.1220545085317
 20
-12.00000000000014
 11
166.3922791968495
 21
-11.89866574188098
  0
LINE
  5
6C
100
AcDbEntity
  8
0
  6
CONTINUOUS
 62
             7
100
AcDbLine
 10
166.1220545085317
 20
-13.20000000000012
 11
166.3922791968495
 21
-13.30133425811924
  0
LINE
  5
6B
100
AcDbEntity
  8
0
  6
CONTINUOUS
 62
             7
100
AcDbLine
 10
167.52205450853171
 20
-9.20000000000012
 11
167.52205450853171
 21
-11.71139990636719
  0
LINE
  5
6A
100
AcDbEntity
  8
0
  6
CONTINUOUS
 62
             7
100
AcDbLine
 10
167.52205450853171
 20
-14.35000000000014
 11
167.1220545085317
 21
-16.00000000000014
  0
LINE
  5
69
100
AcDbEntity
  8
0
  6
CONTINUOUS
 62
             7
100
AcDbLine
 10
166.52205450853171
 20
-14.35000000000014
 11
166.1220545085317
 21
-16.00000000000014
  0
LINE
  5
68
100
AcDbEntity
  8
0
  6
CONTINUOUS
 62
             7
100
AcDbLine
 10
167.52205450853171
 20
-9.20000000000012
 11
167.1220545085317
 21
-9.20000000000012
  0
LINE
  5
67
100
AcDbEntity
  8
0
  6
CONTINUOUS
 62
             7
100
AcDbLine
 10
167.52205450853171
 20
-16.00000000000014
 11
167.1220545085317
 21
-16.00000000000014
  0
LINE
  5
66
100
AcDbEntity
  8
0
  6
CONTINUOUS
 62
             7
100
AcDbLine
 10
166.52205450853171
 20
-11.71139990636719
 11
166.52205450853171
 21
-10.85000000000014
  0
LINE
  5
65
100
AcDbEntity
  8
0
  6
CONTINUOUS
 62
             7
100
AcDbLine
 10
166.52205450853171
 20
-14.35000000000014
 11
166.52205450853171
 21
-13.48860009363307
  0
LINE
  5
64
100
AcDbEntity
  8
0
  6
CONTINUOUS
 62
             7
100
AcDbLine
 10
167.52205450853171
 20
-16.00000000000014
 11
167.52205450853171
 21
-13.48860009363307
  0
LINE
  5
63
100
AcDbEntity
  8
0
  6
CONTINUOUS
 62
             7
100
AcDbLine
 10
167.52205450853171
 20
-20.11139990636717
 11
167.52205450853171
 21
-21.88860009363302
  0
LINE
  5
62
100
AcDbEntity
  8
0
  6
CONTINUOUS
 62
             7
100
AcDbLine
 10
167.52205450853171
 20
-18.2500000000001
 11
168.26117465015619
 21
-18.2500000000001
  0
LINE
  5
61
100
AcDbEntity
  8
0
  6
CONTINUOUS
 62
             7
100
AcDbLine
 10
168.26117465015619
 20
-23.7500000000001
 11
167.52205450853171
 21
-23.7500000000001
  0
LINE
  5
60
100
AcDbEntity
  8
0
  6
CONTINUOUS
 62
             7
100
AcDbLine
 10
167.1220545085317
 20
-17.60000000000011
 11
166.1220545085317
 21
-17.60000000000011
  0
LINE
  5
5F
100
AcDbEntity
  8
0
  6
CONTINUOUS
 62
             7
100
AcDbLine
 10
167.1220545085317
 20
-24.40000000000013
 11
166.1220545085317
 21
-24.40000000000013
  0
LINE
  5
5E
100
AcDbEntity
  8
0
  6
CONTINUOUS
 62
             7
100
AcDbLine
 10
167.1220545085317
 20
-17.60000000000011
 11
167.52205450853171
 21
-19.2500000000001
  0
LINE
  5
5D
100
AcDbEntity
  8
0
  6
CONTINUOUS
 62
             7
100
AcDbLine
 10
166.1220545085317
 20
-17.60000000000011
 11
166.52205450853171
 21
-19.2500000000001
  0
LINE
  5
5C
100
AcDbEntity
  8
0
  6
CONTINUOUS
 62
             7
100
AcDbLine
 10
167.1220545085317
 20
-20.40000000000012
 11
167.3922791968495
 21
-20.29866574188097
  0
LINE
  5
5B
100
AcDbEntity
  8
0
  6
CONTINUOUS
 62
             7
100
AcDbLine
 10
167.1220545085317
 20
-20.40000000000012
 11
167.1220545085317
 21
-21.60000000000012
  0
LINE
  5
5A
100
AcDbEntity
  8
0
  6
CONTINUOUS
 62
             7
100
AcDbLine
 10
167.1220545085317
 20
-21.60000000000012
 11
167.3922791968495
 21
-21.70133425811922
  0
LINE
  5
59
100
AcDbEntity
  8
0
  6
CONTINUOUS
 62
             7
100
AcDbLine
 10
166.1220545085317
 20
-20.40000000000012
 11
166.3922791968495
 21
-20.29866574188097
  0
LINE
  5
58
100
AcDbEntity
  8
0
  6
CONTINUOUS
 62
             7
100
AcDbLine
 10
166.1220545085317
 20
-21.60000000000012
 11
166.3922791968495
 21
-21.70133425811922
  0
LINE
  5
57
100
AcDbEntity
  8
0
  6
CONTINUOUS
 62
             7
100
AcDbLine
 10
167.52205450853171
 20
-17.60000000000011
 11
167.52205450853171
 21
-20.11139990636717
  0
LINE
  5
56
100
AcDbEntity
  8
0
  6
CONTINUOUS
 62
             7
100
AcDbLine
 10
167.52205450853171
 20
-22.7500000000001
 11
167.1220545085317
 21
-24.40000000000013
  0
LINE
  5
55
100
AcDbEntity
  8
0
  6
CONTINUOUS
 62
             7
100
AcDbLine
 10
166.52205450853171
 20
-22.7500000000001
 11
166.1220545085317
 21
-24.40000000000013
  0
LINE
  5
54
100
AcDbEntity
  8
0
  6
CONTINUOUS
 62
             7
100
AcDbLine
 10
167.52205450853171
 20
-17.60000000000011
 11
167.1220545085317
 21
-17.60000000000011
  0
LINE
  5
53
100
AcDbEntity
  8
0
  6
CONTINUOUS
 62
             7
100
AcDbLine
 10
167.52205450853171
 20
-24.40000000000013
 11
167.1220545085317
 21
-24.40000000000013
  0
LINE
  5
52
100
AcDbEntity
  8
0
  6
CONTINUOUS
 62
             7
100
AcDbLine
 10
166.52205450853171
 20
-20.11139990636717
 11
166.52205450853171
 21
-19.2500000000001
  0
LINE
  5
51
100
AcDbEntity
  8
0
  6
CONTINUOUS
 62
             7
100
AcDbLine
 10
166.52205450853171
 20
-22.7500000000001
 11
166.52205450853171
 21
-21.88860009363302
  0
LINE
  5
50
100
AcDbEntity
  8
0
  6
CONTINUOUS
 62
             7
100
AcDbLine
 10
167.52205450853171
 20
-24.40000000000013
 11
167.52205450853171
 21
-21.88860009363302
  0
LINE
  5
4F
100
AcDbEntity
  8
0
  6
CONTINUOUS
 62
             7
100
AcDbLine
 10
167.52205450853171
 20
-28.51139990636713
 11
167.52205450853171
 21
-30.28860009363301
  0
LINE
  5
4E
100
AcDbEntity
  8
0
  6
CONTINUOUS
 62
             7
100
AcDbLine
 10
167.52205450853171
 20
-26.65000000000008
 11
168.26117465015619
 21
-26.65000000000008
  0
LINE
  5
4D
100
AcDbEntity
  8
0
  6
CONTINUOUS
 62
             7
100
AcDbLine
 10
168.26117465015619
 20
-32.15000000000008
 11
167.52205450853171
 21
-32.15000000000008
  0
LINE
  5
4C
100
AcDbEntity
  8
0
  6
CONTINUOUS
 62
             7
100
AcDbLine
 10
167.1220545085317
 20
-26.00000000000007
 11
166.1220545085317
 21
-26.00000000000007
  0
LINE
  5
4B
100
AcDbEntity
  8
0
  6
CONTINUOUS
 62
             7
100
AcDbLine
 10
167.1220545085317
 20
-32.80000000000011
 11
166.1220545085317
 21
-32.80000000000011
  0
LINE
  5
4A
100
AcDbEntity
  8
0
  6
CONTINUOUS
 62
             7
100
AcDbLine
 10
167.1220545085317
 20
-26.00000000000007
 11
167.52205450853171
 21
-27.65000000000008
  0
LINE
  5
49
100
AcDbEntity
  8
0
  6
CONTINUOUS
 62
             7
100
AcDbLine
 10
166.1220545085317
 20
-26.00000000000007
 11
166.52205450853171
 21
-27.65000000000008
  0
LINE
  5
48
100
AcDbEntity
  8
0
  6
CONTINUOUS
 62
             7
100
AcDbLine
 10
167.1220545085317
 20
-28.80000000000011
 11
167.3922791968495
 21
-28.69866574188096
  0
LINE
  5
47
100
AcDbEntity
  8
0
  6
CONTINUOUS
 62
             7
100
AcDbLine
 10
167.1220545085317
 20
-28.80000000000011
 11
167.1220545085317
 21
-30.00000000000007
  0
LINE
  5
46
100
AcDbEntity
  8
0
  6
CONTINUOUS
 62
             7
100
AcDbLine
 10
167.1220545085317
 20
-30.00000000000007
 11
167.3922791968495
 21
-30.10133425811918
  0
LINE
  5
45
100
AcDbEntity
  8
0
  6
CONTINUOUS
 62
             7
100
AcDbLine
 10
166.1220545085317
 20
-28.80000000000011
 11
166.3922791968495
 21
-28.69866574188096
  0
LINE
  5
44
100
AcDbEntity
  8
0
  6
CONTINUOUS
 62
             7
100
AcDbLine
 10
166.1220545085317
 20
-30.00000000000007
 11
166.3922791968495
 21
-30.10133425811918
  0
LINE
  5
43
100
AcDbEntity
  8
0
  6
CONTINUOUS
 62
             7
100
AcDbLine
 10
167.52205450853171
 20
-26.00000000000007
 11
167.52205450853171
 21
-28.51139990636713
  0
LINE
  5
42
100
AcDbEntity
  8
0
  6
CONTINUOUS
 62
             7
100
AcDbLine
 10
167.52205450853171
 20
-31.15000000000008
 11
167.1220545085317
 21
-32.80000000000011
  0
LINE
  5
41
100
AcDbEntity
  8
0
  6
CONTINUOUS
 62
             7
100
AcDbLine
 10
166.52205450853171
 20
-31.15000000000008
 11
166.1220545085317
 21
-32.80000000000011
  0
LINE
  5
40
100
AcDbEntity
  8
0
  6
CONTINUOUS
 62
             7
100
AcDbLine
 10
167.52205450853171
 20
-26.00000000000007
 11
167.1220545085317
 21
-26.00000000000007
  0
LINE
  5
3F
100
AcDbEntity
  8
0
  6
CONTINUOUS
 62
             7
100
AcDbLine
 10
167.52205450853171
 20
-32.80000000000011
 11
167.1220545085317
 21
-32.80000000000011
  0
LINE
  5
3E
100
AcDbEntity
  8
0
  6
CONTINUOUS
 62
             7
100
AcDbLine
 10
166.52205450853171
 20
-28.51139990636713
 11
166.52205450853171
 21
-27.65000000000008
  0
LINE
  5
3D
100
AcDbEntity
  8
0
  6
CONTINUOUS
 62
             7
100
AcDbLine
 10
166.52205450853171
 20
-31.15000000000008
 11
166.52205450853171
 21
-30.28860009363301
  0
LINE
  5
3C
100
AcDbEntity
  8
0
  6
CONTINUOUS
 62
             7
100
AcDbLine
 10
167.52205450853171
 20
-32.80000000000011
 11
167.52205450853171
 21
-30.28860009363301
  0
LINE
  5
3B
100
AcDbEntity
  8
0
  6
CONTINUOUS
 62
             7
100
AcDbLine
 10
167.52205450853171
 20
-36.91139990636715
 11
167.52205450853171
 21
-38.68860009363297
  0
LINE
  5
3A
100
AcDbEntity
  8
0
  6
CONTINUOUS
 62
             7
100
AcDbLine
 10
167.52205450853171
 20
-35.05000000000005
 11
168.26117465015619
 21
-35.05000000000005
  0
LINE
  5
39
100
AcDbEntity
  8
0
  6
CONTINUOUS
 62
             7
100
AcDbLine
 10
168.26117465015619
 20
-40.55000000000005
 11
167.52205450853171
 21
-40.55000000000005
  0
LINE
  5
38
100
AcDbEntity
  8
0
  6
CONTINUOUS
 62
             7
100
AcDbLine
 10
167.1220545085317
 20
-34.40000000000008
 11
166.1220545085317
 21
-34.40000000000008
  0
LINE
  5
37
100
AcDbEntity
  8
0
  6
CONTINUOUS
 62
             7
100
AcDbLine
 10
167.1220545085317
 20
-41.20000000000009
 11
166.1220545085317
 21
-41.20000000000009
  0
LINE
  5
36
100
AcDbEntity
  8
0
  6
CONTINUOUS
 62
             7
100
AcDbLine
 10
167.1220545085317
 20
-34.40000000000008
 11
167.52205450853171
 21
-36.05000000000005
  0
LINE
  5
35
100
AcDbEntity
  8
0
  6
CONTINUOUS
 62
             7
100
AcDbLine
 10
166.1220545085317
 20
-34.40000000000008
 11
166.52205450853171
 21
-36.05000000000005
  0
LINE
  5
34
100
AcDbEntity
  8
0
  6
CONTINUOUS
 62
             7
100
AcDbLine
 10
167.1220545085317
 20
-37.20000000000009
 11
167.3922791968495
 21
-37.09866574188092
  0
LINE
  5
33
100
AcDbEntity
  8
0
  6
CONTINUOUS
 62
             7
100
AcDbLine
 10
167.1220545085317
 20
-37.20000000000009
 11
167.1220545085317
 21
-38.40000000000008
  0
LINE
  5
32
100
AcDbEntity
  8
0
  6
CONTINUOUS
 62
             7
100
AcDbLine
 10
167.1220545085317
 20
-38.40000000000008
 11
167.3922791968495
 21
-38.5013342581192
  0
LINE
  5
31
100
AcDbEntity
  8
0
  6
CONTINUOUS
 62
             7
100
AcDbLine
 10
166.1220545085317
 20
-37.20000000000009
 11
166.3922791968495
 21
-37.09866574188092
  0
LINE
  5
30
100
AcDbEntity
  8
0
  6
CONTINUOUS
 62
             7
100
AcDbLine
 10
166.1220545085317
 20
-38.40000000000008
 11
166.3922791968495
 21
-38.5013342581192
  0
LINE
  5
2F
100
AcDbEntity
  8
0
  6
CONTINUOUS
 62
             7
100
AcDbLine
 10
167.52205450853171
 20
-34.40000000000008
 11
167.52205450853171
 21
-36.91139990636715
  0
LINE
  5
2E
100
AcDbEntity
  8
0
  6
CONTINUOUS
 62
             7
100
AcDbLine
 10
167.52205450853171
 20
-39.55000000000005
 11
167.1220545085317
 21
-41.20000000000009
  0
LINE
  5
2D
100
AcDbEntity
  8
0
  6
CONTINUOUS
 62
             7
100
AcDbLine
 10
166.52205450853171
 20
-39.55000000000005
 11
166.1220545085317
 21
-41.20000000000009
  0
LINE
  5
2C
100
AcDbEntity
  8
0
  6
CONTINUOUS
 62
             7
100
AcDbLine
 10
167.52205450853171
 20
-34.40000000000008
 11
167.1220545085317
 21
-34.40000000000008
  0
LINE
  5
2B
100
AcDbEntity
  8
0
  6
CONTINUOUS
 62
             7
100
AcDbLine
 10
167.52205450853171
 20
-41.20000000000009
 11
167.1220545085317
 21
-41.20000000000009
  0
LINE
  5
2A
100
AcDbEntity
  8
0
  6
CONTINUOUS
 62
             7
100
AcDbLine
 10
166.52205450853171
 20
-36.91139990636715
 11
166.52205450853171
 21
-36.05000000000005
  0
LINE
  5
29
100
AcDbEntity
  8
0
  6
CONTINUOUS
 62
             7
100
AcDbLine
 10
166.52205450853171
 20
-39.55000000000005
 11
166.52205450853171
 21
-38.68860009363297
  0
LINE
  5
28
100
AcDbEntity
  8
0
  6
CONTINUOUS
 62
             7
100
AcDbLine
 10
167.52205450853171
 20
-41.20000000000009
 11
167.52205450853171
 21
-38.68860009363297
  0
ENDSEC
  0
SECTION
  2
OBJECTS
  0
DICTIONARY
  5
19
100
AcDbDictionary
  3
ACAD_GROUP
350
1A
  3
ACAD_MLINESTYLE
350
1B
  0
DICTIONARY
  5
1A
102
{ACAD_REACTORS
330
19
102
}
100
AcDbDictionary
  0
DICTIONARY
  5
1B
102
{ACAD_REACTORS
330
19
102
}
100
AcDbDictionary
  3
STANDARD
350
1C
  0
MLINESTYLE
  5
1C
102
{ACAD_REACTORS
330
1B
102
}
100
AcDbMlineStyle
  2
STANDARD
 70
             0
  3

 62
             0
 51
90.0
 52
90.0
 71
             2
 49
0.5
 62
           256
  6
BYLAYER
 49
-0.5
 62
           256
  6
BYLAYER
  0
ENDSEC
  0
EOF
