  0
SECTION
  2
HEADER
  9
$ACADVER
  1
AC1009
  9
$DWGCODEPAGE
  3
ansi_932
  9
$INSBASE
 10
0.0
 20
0.0
 30
0.0
  9
$EXTMIN
 10
14.39970529037969
 20
118.2516296454
 30
0.0
  9
$EXTMAX
 10
169.6397376444
 20
224.751629407
 30
0.0
  9
$LIMMIN
 10
0.0
 20
0.0
  9
$LIMMAX
 10
12.0
 20
9.0
  9
$ORTHOMODE
 70
     0
  9
$REGENMODE
 70
     1
  9
$FILLMODE
 70
     1
  9
$QTEXTMODE
 70
     0
  9
$MIRRTEXT
 70
     1
  9
$DRAGMODE
 70
     2
  9
$LTSCALE
 40
1.0
  9
$OSMODE
 70
    37
  9
$ATTMODE
 70
     1
  9
$TEXTSIZE
 40
0.2
  9
$TRACEWID
 40
0.05
  9
$TEXTSTYLE
  7
STANDARD
  9
$CLAYER
  8
0
  9
$CELTYPE
  6
BYLAYER
  9
$CECOLOR
 62
   256
  9
$DIMSCALE
 40
1.0
  9
$DIMASZ
 40
0.18
  9
$DIMEXO
 40
0.0625
  9
$DIMDLI
 40
0.38
  9
$DIMRND
 40
0.0
  9
$DIMDLE
 40
0.0
  9
$DIMEXE
 40
0.18
  9
$DIMTP
 40
0.0
  9
$DIMTM
 40
0.0
  9
$DIMTXT
 40
0.18
  9
$DIMCEN
 40
0.09
  9
$DIMTSZ
 40
0.0
  9
$DIMTOL
 70
     0
  9
$DIMLIM
 70
     0
  9
$DIMTIH
 70
     1
  9
$DIMTOH
 70
     1
  9
$DIMSE1
 70
     0
  9
$DIMSE2
 70
     0
  9
$DIMTAD
 70
     0
  9
$DIMZIN
 70
     0
  9
$DIMBLK
  1

  9
$DIMASO
 70
     1
  9
$DIMSHO
 70
     1
  9
$DIMPOST
  1

  9
$DIMAPOST
  1

  9
$DIMALT
 70
     0
  9
$DIMALTD
 70
     2
  9
$DIMALTF
 40
25.4
  9
$DIMLFAC
 40
1.0
  9
$DIMTOFL
 70
     0
  9
$DIMTVP
 40
0.0
  9
$DIMTIX
 70
     0
  9
$DIMSOXD
 70
     0
  9
$DIMSAH
 70
     0
  9
$DIMBLK1
  1

  9
$DIMBLK2
  1

  9
$DIMSTYLE
  2
STANDARD
  9
$DIMCLRD
 70
     0
  9
$DIMCLRE
 70
     0
  9
$DIMCLRT
 70
     0
  9
$DIMTFAC
 40
1.0
  9
$DIMGAP
 40
0.09
  9
$LUNITS
 70
     2
  9
$LUPREC
 70
     4
  9
$SKETCHINC
 40
0.1
  9
$FILLETRAD
 40
0.5
  9
$AUNITS
 70
     0
  9
$AUPREC
 70
     0
  9
$MENU
  1
.
  9
$ELEVATION
 40
0.0
  9
$PELEVATION
 40
0.0
  9
$THICKNESS
 40
0.0
  9
$LIMCHECK
 70
     0
  9
$CHAMFERA
 40
0.0
  9
$CHAMFERB
 40
0.0
  9
$SKPOLY
 70
     0
  9
$TDCREATE
 40
2460077.487260116
  9
$TDUPDATE
 40
2460077.487260382
  9
$TDINDWG
 40
0.0000000116
  9
$TDUSRTIMER
 40
0.0000000116
  9
$USRTIMER
 70
     1
  9
$ANGBASE
 50
0.0
  9
$ANGDIR
 70
     0
  9
$PDMODE
 70
     0
  9
$PDSIZE
 40
0.0
  9
$PLINEWID
 40
0.0
  9
$COORDS
 70
     1
  9
$SPLFRAME
 70
     0
  9
$SPLINETYPE
 70
     6
  9
$SPLINESEGS
 70
     8
  9
$ATTDIA
 70
     0
  9
$ATTREQ
 70
     1
  9
$HANDLING
 70
     1
  9
$HANDSEED
  5
9FA
  9
$SURFTAB1
 70
     6
  9
$SURFTAB2
 70
     6
  9
$SURFTYPE
 70
     6
  9
$SURFU
 70
     6
  9
$SURFV
 70
     6
  9
$UCSNAME
  2

  9
$UCSORG
 10
0.0
 20
0.0
 30
0.0
  9
$UCSXDIR
 10
1.0
 20
0.0
 30
0.0
  9
$UCSYDIR
 10
0.0
 20
1.0
 30
0.0
  9
$PUCSNAME
  2

  9
$PUCSORG
 10
0.0
 20
0.0
 30
0.0
  9
$PUCSXDIR
 10
1.0
 20
0.0
 30
0.0
  9
$PUCSYDIR
 10
0.0
 20
1.0
 30
0.0
  9
$USERI1
 70
     0
  9
$USERI2
 70
     0
  9
$USERI3
 70
     0
  9
$USERI4
 70
     0
  9
$USERI5
 70
     0
  9
$USERR1
 40
20.0
  9
$USERR2
 40
0.0
  9
$USERR3
 40
0.0
  9
$USERR4
 40
0.0
  9
$USERR5
 40
0.0
  9
$WORLDVIEW
 70
     1
  9
$SHADEDGE
 70
     3
  9
$SHADEDIF
 70
    70
  9
$TILEMODE
 70
     1
  9
$MAXACTVP
 70
    64
  9
$PLIMCHECK
 70
     0
  9
$PEXTMIN
 10
1.00000000000000E+20
 20
1.00000000000000E+20
 30
1.00000000000000E+20
  9
$PEXTMAX
 10
-1.00000000000000E+20
 20
-1.00000000000000E+20
 30
-1.00000000000000E+20
  9
$PLIMMIN
 10
0.0
 20
0.0
  9
$PLIMMAX
 10
12.0
 20
9.0
  9
$UNITMODE
 70
     0
  9
$VISRETAIN
 70
     1
  9
$PLINEGEN
 70
     0
  9
$PSLTSCALE
 70
     1
  0
ENDSEC
  0
SECTION
  2
TABLES
  0
TABLE
  2
VPORT
 70
     1
  0
VPORT
  2
*ACTIVE
 70
     0
 10
0.0
 20
0.0
 11
1.0
 21
1.0
 12
92.01972146738984
 22
171.5016295262
 13
0.0
 23
0.0
 14
0.5
 24
0.5
 15
0.5
 25
0.5
 16
0.0
 26
0.0
 36
1.0
 17
0.0
 27
0.0
 37
0.0
 40
117.14999973776
 41
1.60267857142857
 42
50.0
 43
0.0
 44
0.0
 50
0.0
 51
0.0
 71
     0
 72
   100
 73
     1
 74
     3
 75
     0
 76
     0
 77
     0
 78
     0
  0
ENDTAB
  0
TABLE
  2
LTYPE
 70
     8
  0
LTYPE
  2
CONTINUOUS
 70
     0
  3
Solid line
 72
    65
 73
     0
 40
0.0
  0
LTYPE
  2
DASHED
 70
     0
  3
Dashed
 72
    65
 73
     2
 40
15.0
 49
7.0
 49
-8.0
  0
LTYPE
  2
DOTTED
 70
     0
  3
Dotted
 72
    65
 73
     2
 40
1.0
 49
0.0
 49
-1.0
  0
LTYPE
  2
DOT_CENTER
 70
     0
  3
Dot_Center
 72
    65
 73
     4
 40
14.0
 49
12.0
 49
-1.0
 49
0.0
 49
-1.0
  0
LTYPE
  2
LONG_DASHED
 70
     0
  3
Long_Dashed
 72
    65
 73
     2
 40
15.0
 49
10.0
 49
-5.0
  0
LTYPE
  2
DASH_CENTER
 70
     0
  3
Dash_Center
 72
    65
 73
     4
 40
14.0
 49
11.0
 49
-1.0
 49
1.0
 49
-1.0
  0
LTYPE
  2
PHANTOM
 70
     0
  3
Phantom
 72
    65
 73
     6
 40
13.0
 49
10.0
 49
-1.0
 49
0.0
 49
-1.0
 49
0.0
 49
-1.0
  0
LTYPE
  2
CENTER_DASH_DASH
 70
     0
  3
Center_Dash_Dash
 72
    65
 73
     6
 40
14.0
 49
9.0
 49
-1.0
 49
1.0
 49
-1.0
 49
1.0
 49
-1.0
  0
ENDTAB
  0
TABLE
  2
LAYER
 70
     2
  0
LAYER
  2
0
 70
     0
 62
     7
  6
CONTINUOUS
  0
LAYER
  2
1
 70
     0
 62
     7
  6
CONTINUOUS
  0
ENDTAB
  0
TABLE
  2
STYLE
 70
     1
  0
STYLE
  2
STANDARD
 70
     0
 40
0.0
 41
1.0
 50
0.0
 71
     0
 42
0.2
  3
txt
  4

  0
ENDTAB
  0
TABLE
  2
VIEW
 70
     0
  0
ENDTAB
  0
TABLE
  2
UCS
 70
     0
  0
ENDTAB
  0
TABLE
  2
APPID
 70
     1
  0
APPID
  2
ACAD
 70
     0
  0
ENDTAB
  0
TABLE
  2
DIMSTYLE
 70
     1
  0
DIMSTYLE
  2
STANDARD
 70
     0
  3

  4

  5

  6

  7

 40
1.0
 41
0.18
 42
0.0625
 43
0.38
 44
0.18
 45
0.0
 46
0.0
 47
0.0
 48
0.0
140
0.18
141
0.09
142
0.0
143
25.4
144
1.0
145
0.0
146
1.0
147
0.09
 71
     0
 72
     0
 73
     1
 74
     1
 75
     0
 76
     0
 77
     0
 78
     0
170
     0
171
     2
172
     0
173
     0
174
     0
175
     0
176
     0
177
     0
178
     0
  0
ENDTAB
  0
ENDSEC
  0
SECTION
  2
BLOCKS
  0
BLOCK
  8
0
  2
$MODEL_SPACE
 70
     0
 10
0.0
 20
0.0
 30
0.0
  3
$MODEL_SPACE
  1

  0
ENDBLK
  5
21
  8
0
  0
BLOCK
 67
     1
  8
0
  2
$PAPER_SPACE
 70
     0
 10
0.0
 20
0.0
 30
0.0
  3
$PAPER_SPACE
  1

  0
ENDBLK
  5
1D
 67
     1
  8
0
  0
ENDSEC
  0
SECTION
  2
ENTITIES
  0
LINE
  5
76
  8
0
  6
CONTINUOUS
 62
     7
 10
36.28973603348
 20
200.9017583973494
 30
0.0
 11
37.78973581369989
 21
200.9017583974244
 31
0.0
  0
LINE
  5
77
  8
0
  6
CONTINUOUS
 62
     7
 10
36.289736033458
 20
203.5017595686284
 30
0.0
 11
37.78973581369989
 21
203.5017595686244
 31
0.0
  0
LINE
  5
78
  8
0
  6
CONTINUOUS
 62
     7
 10
36.28973603346601
 20
206.1017570145374
 30
0.0
 11
37.78973581369989
 21
206.1017570145244
 31
0.0
  0
LINE
  5
79
  8
0
  6
CONTINUOUS
 62
     7
 10
36.289736033501
 20
208.7017600483904
 30
0.0
 11
37.78973581369989
 21
208.7017600484244
 31
0.0
  0
LINE
  5
7A
  8
0
  6
CONTINUOUS
 62
     7
 10
36.28973603348
 20
211.3017593570474
 30
0.0
 11
37.78973581369989
 21
211.3017593570244
 31
0.0
  0
LINE
  5
7B
  8
0
  6
CONTINUOUS
 62
     7
 10
38.289735895633
 20
211.8016299850924
 30
0.0
 11
38.28973589570002
 21
212.3016309984244
 31
0.0
  0
LINE
  5
7C
  8
0
  6
CONTINUOUS
 62
     7
 10
36.28973603349802
 20
211.3016326971784
 30
0.0
 11
37.78973581369989
 21
211.3016326971244
 31
0.0
  0
LINE
  5
7D
  8
0
  6
CONTINUOUS
 62
     7
 10
35.78973595151
 20
212.3016309984324
 30
0.0
 11
35.78973595160001
 21
211.8016299851244
 31
0.0
  0
LINE
  5
7E
  8
0
  6
CONTINUOUS
 62
     7
 10
37.78973581369989
 20
212.8016320117244
 30
0.0
 11
36.28973603350001
 21
212.8016320117244
 31
0.0
  0
LINE
  5
7F
  8
0
  6
CONTINUOUS
 62
     7
 10
38.28973589563002
 20
209.2016306765034
 30
0.0
 11
38.28973589570002
 21
209.7016316898244
 31
0.0
  0
LINE
  5
80
  8
0
  6
CONTINUOUS
 62
     7
 10
36.289736033501
 20
208.7016333885904
 30
0.0
 11
37.78973581369989
 21
208.7016333885244
 31
0.0
  0
LINE
  5
81
  8
0
  6
CONTINUOUS
 62
     7
 10
35.78973595151
 20
209.7016316898324
 30
0.0
 11
35.78973595160001
 21
209.2016306765244
 31
0.0
  0
LINE
  5
82
  8
0
  6
CONTINUOUS
 62
     7
 10
37.78973581369989
 20
210.2016327031244
 30
0.0
 11
36.28973603350001
 21
210.2016327031244
 31
0.0
  0
LINE
  5
83
  8
0
  6
CONTINUOUS
 62
     7
 10
38.28973589567302
 20
206.6016313679344
 30
0.0
 11
38.28973589570002
 21
207.1016323812244
 31
0.0
  0
LINE
  5
84
  8
0
  6
CONTINUOUS
 62
     7
 10
36.28973603346601
 20
206.1016303546374
 30
0.0
 11
37.78973581369989
 21
206.1016303547244
 31
0.0
  0
LINE
  5
85
  8
0
  6
CONTINUOUS
 62
     7
 10
35.78973595151
 20
207.1016323812324
 30
0.0
 11
35.78973595160001
 21
206.6016313679244
 31
0.0
  0
LINE
  5
86
  8
0
  6
CONTINUOUS
 62
     7
 10
37.78973581369989
 20
207.6016333945244
 30
0.0
 11
36.28973603350001
 21
207.6016333945244
 31
0.0
  0
LINE
  5
87
  8
0
  6
CONTINUOUS
 62
     7
 10
38.28973589567302
 20
204.0016320593344
 30
0.0
 11
38.28973589570002
 21
204.5016330726244
 31
0.0
  0
LINE
  5
88
  8
0
  6
CONTINUOUS
 62
     7
 10
36.28973603346601
 20
203.5016310461374
 30
0.0
 11
37.78973581369989
 21
203.5016310461244
 31
0.0
  0
LINE
  5
89
  8
0
  6
CONTINUOUS
 62
     7
 10
35.78973595154501
 20
204.5016330726704
 30
0.0
 11
35.78973595160001
 21
204.0016320593244
 31
0.0
  0
LINE
  5
8A
  8
0
  6
CONTINUOUS
 62
     7
 10
37.78973581369989
 20
205.0016303606244
 30
0.0
 11
36.28973603350001
 21
205.0016303606244
 31
0.0
  0
LINE
  5
8B
  8
0
  6
CONTINUOUS
 62
     7
 10
38.28973589565401
 20
201.4016327507504
 30
0.0
 11
38.28973589570002
 21
201.9016319014244
 31
0.0
  0
LINE
  5
8C
  8
0
  6
CONTINUOUS
 62
     7
 10
36.28973603348
 20
200.9016317375494
 30
0.0
 11
37.78973581369989
 21
200.9016317375244
 31
0.0
  0
LINE
  5
8D
  8
0
  6
CONTINUOUS
 62
     7
 10
35.78973595150499
 20
201.9016319013814
 30
0.0
 11
35.78973595160001
 21
201.4016327508244
 31
0.0
  0
LINE
  5
8E
  8
0
  6
CONTINUOUS
 62
     7
 10
37.78973581369989
 20
202.4016310520244
 30
0.0
 11
36.28973603350001
 21
202.4016310520244
 31
0.0
  0
LINE
  5
8F
  8
0
  6
CONTINUOUS
 62
     7
 10
35.78973595159999
 20
217.5016296156
 30
0.0
 11
35.78973595159999
 21
217.0016323276
 31
0.0
  0
LINE
  5
90
  8
0
  6
CONTINUOUS
 62
     7
 10
36.28973603349999
 20
216.5016313143
 30
0.0
 11
37.78973581369999
 21
216.5016313143
 31
0.0
  0
LINE
  5
91
  8
0
  6
CONTINUOUS
 62
     7
 10
38.28973589570001
 20
217.0016323276
 30
0.0
 11
38.28973589570001
 21
217.5016296156
 31
0.0
  0
LINE
  5
92
  8
0
  6
CONTINUOUS
 62
     7
 10
37.78973581369999
 20
218.0016306288
 30
0.0
 11
36.28973603349999
 21
218.0016306288
 31
0.0
  0
LINE
  5
93
  8
0
  6
CONTINUOUS
 62
     7
 10
35.78973595159999
 20
214.901630307
 30
0.0
 11
35.78973595159999
 21
214.4016292937
 31
0.0
  0
LINE
  5
94
  8
0
  6
CONTINUOUS
 62
     7
 10
36.28973603349999
 20
213.9016320057
 30
0.0
 11
37.78973581369999
 21
213.9016320057
 31
0.0
  0
LINE
  5
95
  8
0
  6
CONTINUOUS
 62
     7
 10
38.28973589570001
 20
214.4016292937
 30
0.0
 11
38.28973589570001
 21
214.901630307
 31
0.0
  0
LINE
  5
96
  8
0
  6
CONTINUOUS
 62
     7
 10
37.78973581369999
 20
215.4016313203
 30
0.0
 11
36.28973603349999
 21
215.4016313203
 31
0.0
  0
LINE
  5
97
  8
0
  6
CONTINUOUS
 62
     7
 10
159.6397374022999
 20
132.9167229183
 30
0.0
 11
159.5397375721999
 21
132.9158512004
 31
0.0
  0
LINE
  5
98
  8
0
  6
CONTINUOUS
 62
     7
 10
159.6397374022999
 20
135.2219586321
 30
0.0
 11
159.5397375721999
 21
135.2202114709
 31
0.0
  0
LINE
  5
99
  8
0
  6
CONTINUOUS
 62
     7
 10
159.5397375721999
 20
134.2830513664001
 30
0.0
 11
159.6397374022999
 21
134.2813042053
 31
0.0
  0
LINE
  5
9A
  8
0
  6
CONTINUOUS
 62
     7
 10
159.5397375721999
 20
124.2516306289001
 30
0.0
 11
159.5397375721999
 21
153.8516306378
 31
0.0
  0
LINE
  5
9B
  8
0
  6
CONTINUOUS
 62
     7
 10
158.9397376601
 20
122.2516303011
 30
0.0
 11
159.5397375721999
 21
124.2516306289001
 31
0.0
  0
LINE
  5
9C
  8
0
  6
CONTINUOUS
 62
     7
 10
169.6397376444
 20
118.2865393408
 30
0.0
 11
165.6397374543999
 21
118.2516296454
 31
0.0
  0
LINE
  5
9D
  8
0
  6
CONTINUOUS
 62
     7
 10
165.6397374543999
 20
119.251631672
 30
0.0
 11
169.6397376444
 21
119.2660895236
 31
0.0
  0
LINE
  5
9E
  8
0
  6
CONTINUOUS
 62
     7
 10
169.6397376444
 20
119.2660895236
 30
0.0
 11
169.6397376444
 21
118.2865393408
 31
0.0
  0
LINE
  5
9F
  8
0
  6
CONTINUOUS
 62
     7
 10
165.6397374543999
 20
118.2516296454
 30
0.0
 11
165.6397374543999
 21
119.251631672
 31
0.0
  0
LINE
  5
A0
  8
0
  6
CONTINUOUS
 62
     7
 10
167.0397374045
 20
154.7516309716
 30
0.0
 11
165.6397374543999
 21
154.7394138821001
 31
0.0
  0
LINE
  5
A1
  8
0
  6
CONTINUOUS
 62
     7
 10
167.0397374045
 20
154.7516309716
 30
0.0
 11
167.0397374045
 21
156.7516312994001
 31
0.0
  0
LINE
  5
A2
  8
0
  6
CONTINUOUS
 62
     7
 10
167.0397374045
 20
156.7516312994001
 30
0.0
 11
167.7430694188999
 21
156.7454929524
 31
0.0
  0
LINE
  5
A3
  8
0
  6
CONTINUOUS
 62
     7
 10
167.7430694188999
 20
156.7454929524
 30
0.0
 11
169.2834874346999
 21
153.9078806587
 31
0.0
  0
LINE
  5
A4
  8
0
  6
CONTINUOUS
 62
     7
 10
169.6397376444
 20
119.2660895236
 30
0.0
 11
169.6397376444
 21
122.391261632
 31
0.0
  0
LINE
  5
A5
  8
0
  6
CONTINUOUS
 62
     7
 10
169.6397376444
 20
127.2167232879
 30
0.0
 11
169.6397376444
 21
129.5724813886
 31
0.0
  0
LINE
  5
A6
  8
0
  6
CONTINUOUS
 62
     7
 10
165.6397374543999
 20
119.251631672
 30
0.0
 11
165.6397374543999
 21
122.3563519366001
 31
0.0
  0
LINE
  5
A7
  8
0
  6
CONTINUOUS
 62
     7
 10
169.6397376444
 20
129.5724813886
 30
0.0
 11
165.6397374543999
 21
129.5375754185
 31
0.0
  0
LINE
  5
A8
  8
0
  6
CONTINUOUS
 62
     7
 10
159.6397374022999
 20
127.9298779615
 30
0.0
 11
165.6397374543999
 21
129.5375754185
 31
0.0
  0
LINE
  5
A9
  8
0
  6
CONTINUOUS
 62
     7
 10
159.6397374022999
 20
127.9298779615
 30
0.0
 11
159.6397374022999
 21
154.6237026401
 31
0.0
  0
LINE
  5
AA
  8
0
  6
CONTINUOUS
 62
     7
 10
161.2397374782999
 20
154.6516311415001
 30
0.0
 11
159.6397374022999
 21
154.6237026401
 31
0.0
  0
LINE
  5
AB
  8
0
  6
CONTINUOUS
 62
     7
 10
166.1397374781999
 20
158.2472673677
 30
0.0
 11
165.6397374543999
 21
158.251630614
 31
0.0
  0
LINE
  5
AC
  8
0
  6
CONTINUOUS
 62
     7
 10
166.1397374781999
 20
158.2472673677
 30
0.0
 11
166.1397374781999
 21
155.2559942998
 31
0.0
  0
LINE
  5
AD
  8
0
  6
CONTINUOUS
 62
     7
 10
166.1397374781999
 20
155.2559942998
 30
0.0
 11
165.6397374543999
 21
155.2516301223001
 31
0.0
  0
LINE
  5
AE
  8
0
  6
CONTINUOUS
 62
     7
 10
165.6397374543999
 20
154.5516313114
 30
0.0
 11
165.6397374543999
 21
155.2516301223001
 31
0.0
  0
LINE
  5
AF
  8
0
  6
CONTINUOUS
 62
     7
 10
168.6661486245999
 20
154.5252208658001
 30
0.0
 11
165.6397374543999
 21
154.5516313114
 31
0.0
  0
LINE
  5
B0
  8
0
  6
CONTINUOUS
 62
     7
 10
169.6397376444
 20
153.5516311475
 30
0.0
 11
168.6661486245999
 21
154.5252208658001
 31
0.0
  0
LINE
  5
B1
  8
0
  6
CONTINUOUS
 62
     7
 10
169.6397376444
 20
153.5516311475
 30
0.0
 11
169.6397376444
 21
129.5724813886
 31
0.0
  0
LINE
  5
B2
  8
0
  6
CONTINUOUS
 62
     7
 10
159.5397375721999
 20
153.2202125587
 30
0.0
 11
159.6397374022999
 21
153.2219578572
 31
0.0
  0
LINE
  5
B3
  8
0
  6
CONTINUOUS
 62
     7
 10
159.5397375721999
 20
152.1947630741
 30
0.0
 11
159.6397374022999
 21
152.1930177756
 31
0.0
  0
LINE
  5
B4
  8
0
  6
CONTINUOUS
 62
     7
 10
159.5397375721999
 20
127.9030819484
 30
0.0
 11
159.6397374022999
 21
127.9298779615
 31
0.0
  0
LINE
  5
B5
  8
0
  6
CONTINUOUS
 62
     7
 10
169.6397376444
 20
127.2167232879
 30
0.0
 11
165.6397374543999
 21
127.251629258
 31
0.0
  0
LINE
  5
B6
  8
0
  6
CONTINUOUS
 62
     7
 10
169.6397376444
 20
127.2167232879
 30
0.0
 11
169.6397376444
 21
122.391261632
 31
0.0
  0
LINE
  5
B7
  8
0
  6
CONTINUOUS
 62
     7
 10
169.6397376444
 20
122.391261632
 30
0.0
 11
158.9536497567
 21
122.29800644
 31
0.0
  0
LINE
  5
B8
  8
0
  6
CONTINUOUS
 62
     7
 10
165.6397374543999
 20
129.5375754185
 30
0.0
 11
165.6397374543999
 21
127.251629258
 31
0.0
  0
LINE
  5
B9
  8
0
  6
CONTINUOUS
 62
     7
 10
159.6397374022999
 20
139.7516322382001
 30
0.0
 11
159.5397375721999
 21
139.7498850771
 31
0.0
  0
LINE
  5
BA
  8
0
  6
CONTINUOUS
 62
     7
 10
159.5397375721999
 20
136.8231964358
 30
0.0
 11
159.6397374022999
 21
136.8214529999
 31
0.0
  0
LINE
  5
BB
  8
0
  6
CONTINUOUS
 62
     7
 10
159.6397374022999
 20
150.7516303160001
 30
0.0
 11
159.5397375721999
 21
150.7516303160001
 31
0.0
  0
LINE
  5
BC
  8
0
  6
CONTINUOUS
 62
     7
 10
159.5397375721999
 20
143.7516310312
 30
0.0
 11
159.6397374022999
 21
143.7516310312
 31
0.0
  0
LINE
  5
BD
  8
0
  6
CONTINUOUS
 62
     7
 10
159.6397374022999
 20
142.2516317167
 30
0.0
 11
159.5397375721999
 21
142.2516317167
 31
0.0
  0
LINE
  5
BE
  8
0
  6
CONTINUOUS
 62
     7
 10
159.5397375721999
 20
140.2516295262
 30
0.0
 11
159.6397374022999
 21
140.2516295262
 31
0.0
  0
LINE
  5
BF
  8
0
  6
CONTINUOUS
 62
     7
 10
159.6397374022999
 20
155.7016302891
 30
0.0
 11
159.2397376160999
 21
155.7016302891
 31
0.0
  0
LINE
  5
C0
  8
0
  6
CONTINUOUS
 62
     7
 10
159.6397374022999
 20
155.7016302891
 30
0.0
 11
159.6397374022999
 21
154.801631818
 31
0.0
  0
LINE
  5
C1
  8
0
  6
CONTINUOUS
 62
     7
 10
159.2397376160999
 20
176.9316308260001
 30
0.0
 11
159.6397374022999
 21
176.9316308260001
 31
0.0
  0
LINE
  5
C2
  8
0
  6
CONTINUOUS
 62
     7
 10
159.2397376160999
 20
177.5716310427
 30
0.0
 11
159.6397374022999
 21
177.5716310427
 31
0.0
  0
LINE
  5
C3
  8
0
  6
CONTINUOUS
 62
     7
 10
159.2397376160999
 20
179.4316312358001
 30
0.0
 11
159.6397374022999
 21
179.4316312358001
 31
0.0
  0
LINE
  5
C4
  8
0
  6
CONTINUOUS
 62
     7
 10
159.2397376160999
 20
180.0716309868
 30
0.0
 11
159.6397374022999
 21
180.0716309868
 31
0.0
  0
LINE
  5
C5
  8
0
  6
CONTINUOUS
 62
     7
 10
159.2397376160999
 20
161.9316306957001
 30
0.0
 11
159.6397374022999
 21
161.9316306957001
 31
0.0
  0
LINE
  5
C6
  8
0
  6
CONTINUOUS
 62
     7
 10
159.2397376160999
 20
162.5716309123001
 30
0.0
 11
159.6397374022999
 21
162.5716309123001
 31
0.0
  0
LINE
  5
C7
  8
0
  6
CONTINUOUS
 62
     7
 10
159.2397376160999
 20
170.0716309775
 30
0.0
 11
159.6397374022999
 21
170.0716309775
 31
0.0
  0
LINE
  5
C8
  8
0
  6
CONTINUOUS
 62
     7
 10
159.2397376160999
 20
169.4316309937
 30
0.0
 11
159.6397374022999
 21
169.4316309937
 31
0.0
  0
LINE
  5
C9
  8
0
  6
CONTINUOUS
 62
     7
 10
159.2397376160999
 20
175.0716310986001
 30
0.0
 11
159.6397374022999
 21
175.0716310986001
 31
0.0
  0
LINE
  5
CA
  8
0
  6
CONTINUOUS
 62
     7
 10
159.2397376160999
 20
174.4316311147001
 30
0.0
 11
159.6397374022999
 21
174.4316311147001
 31
0.0
  0
LINE
  5
CB
  8
0
  6
CONTINUOUS
 62
     7
 10
159.2397376160999
 20
157.5716310241
 30
0.0
 11
159.6397374022999
 21
157.5716310241
 31
0.0
  0
LINE
  5
CC
  8
0
  6
CONTINUOUS
 62
     7
 10
159.2397376160999
 20
156.9316308074
 30
0.0
 11
159.6397374022999
 21
156.9316308074
 31
0.0
  0
LINE
  5
CD
  8
0
  6
CONTINUOUS
 62
     7
 10
159.2397376160999
 20
164.4316311054
 30
0.0
 11
159.6397374022999
 21
164.4316311054
 31
0.0
  0
LINE
  5
CE
  8
0
  6
CONTINUOUS
 62
     7
 10
159.2397376160999
 20
165.0716308564
 30
0.0
 11
159.6397374022999
 21
165.0716308564
 31
0.0
  0
LINE
  5
CF
  8
0
  6
CONTINUOUS
 62
     7
 10
159.2397376160999
 20
167.5716312662
 30
0.0
 11
159.6397374022999
 21
167.5716312662
 31
0.0
  0
LINE
  5
D0
  8
0
  6
CONTINUOUS
 62
     7
 10
159.2397376160999
 20
166.9316310496
 30
0.0
 11
159.6397374022999
 21
166.9316310496
 31
0.0
  0
LINE
  5
D1
  8
0
  6
CONTINUOUS
 62
     7
 10
159.2397376160999
 20
159.4316312172
 30
0.0
 11
159.6397374022999
 21
159.4316312172
 31
0.0
  0
LINE
  5
D2
  8
0
  6
CONTINUOUS
 62
     7
 10
159.2397376160999
 20
160.0716314339001
 30
0.0
 11
159.6397374022999
 21
160.0716314339001
 31
0.0
  0
LINE
  5
D3
  8
0
  6
CONTINUOUS
 62
     7
 10
159.2397376160999
 20
181.9316311799
 30
0.0
 11
159.6397374022999
 21
181.9316311799
 31
0.0
  0
LINE
  5
D4
  8
0
  6
CONTINUOUS
 62
     7
 10
159.2397376160999
 20
182.5716313966
 30
0.0
 11
159.6397374022999
 21
182.5716313966
 31
0.0
  0
LINE
  5
D5
  8
0
  6
CONTINUOUS
 62
     7
 10
159.2397376160999
 20
172.571631038
 30
0.0
 11
159.6397374022999
 21
172.571631038
 31
0.0
  0
LINE
  5
D6
  8
0
  6
CONTINUOUS
 62
     7
 10
159.2397376160999
 20
171.9316310542
 30
0.0
 11
159.6397374022999
 21
171.9316310542
 31
0.0
  0
LINE
  5
D7
  8
0
  6
CONTINUOUS
 62
     7
 10
159.6397374022999
 20
155.9516307958
 30
0.0
 11
159.2397376160999
 21
155.9516307958
 31
0.0
  0
LINE
  5
D8
  8
0
  6
CONTINUOUS
 62
     7
 10
159.5397375721999
 20
130.8153239139
 30
0.0
 11
159.6397374022999
 21
131.1516319462
 31
0.0
  0
LINE
  5
D9
  8
0
  6
CONTINUOUS
 62
     7
 10
159.5397375721999
 20
131.1516319462
 30
0.0
 11
159.6397374022999
 21
131.1516319462
 31
0.0
  0
LINE
  5
DA
  8
0
  6
CONTINUOUS
 62
     7
 10
159.5397375721999
 20
128.6516306051
 30
0.0
 11
159.6397374022999
 21
128.6516306051
 31
0.0
  0
LINE
  5
DB
  8
0
  6
CONTINUOUS
 62
     7
 10
159.5397375721999
 20
129.6973158665001
 30
0.0
 11
159.6397374022999
 21
129.6973158665001
 31
0.0
  0
LINE
  5
DC
  8
0
  6
CONTINUOUS
 62
     7
 10
159.6397374022999
 20
154.7516309716
 30
0.0
 11
159.6397374022999
 21
154.801631818
 31
0.0
  0
LINE
  5
DD
  8
0
  6
CONTINUOUS
 62
     7
 10
161.2397374782999
 20
154.7516309716
 30
0.0
 11
159.6397374022999
 21
154.7516309716
 31
0.0
  0
LINE
  5
DE
  8
0
  6
CONTINUOUS
 62
     7
 10
159.6397374022999
 20
154.6237026401
 30
0.0
 11
159.6397374022999
 21
154.7516309716
 31
0.0
  0
LINE
  5
DF
  8
0
  6
CONTINUOUS
 62
     7
 10
159.5397375721999
 20
132.2516319402
 30
0.0
 11
159.6397374022999
 21
132.2516319402
 31
0.0
  0
LINE
  5
E0
  8
0
  6
CONTINUOUS
 62
     7
 10
159.5397375721999
 20
221.2516297646
 30
0.0
 11
85.53973754979992
 21
221.2516297646
 31
0.0
  0
LINE
  5
E1
  8
0
  6
CONTINUOUS
 62
     7
 10
159.6397374022999
 20
212.7219592281
 30
0.0
 11
159.5397375721999
 21
212.720212067
 31
0.0
  0
LINE
  5
E2
  8
0
  6
CONTINUOUS
 62
     7
 10
159.5397375721999
 20
211.7830519624
 30
0.0
 11
159.6397374022999
 21
211.7813048013001
 31
0.0
  0
LINE
  5
E3
  8
0
  6
CONTINUOUS
 62
     7
 10
159.5397375721999
 20
207.2116327532
 30
0.0
 11
159.6397374022999
 21
207.2116327532
 31
0.0
  0
LINE
  5
E4
  8
0
  6
CONTINUOUS
 62
     7
 10
159.6397374022999
 20
207.9916303106
 30
0.0
 11
159.5897374871999
 21
207.9916303106
 31
0.0
  0
LINE
  5
E5
  8
0
  6
CONTINUOUS
 62
     7
 10
159.0517701779
 20
189.7016302742001
 30
0.0
 11
159.0517701779
 21
189.8516309508
 31
0.0
  0
LINE
  5
E6
  8
0
  6
CONTINUOUS
 62
     7
 10
153.4897376048999
 20
155.2516301223001
 30
0.0
 11
153.2397370982999
 21
155.2516301223001
 31
0.0
  0
LINE
  5
E7
  8
0
  6
CONTINUOUS
 62
     7
 10
159.5397375721999
 20
222.2516317912
 30
0.0
 11
159.5397375721999
 21
221.2516297646
 31
0.0
  0
LINE
  5
E8
  8
0
  6
CONTINUOUS
 62
     7
 10
153.2397370982999
 20
189.8516309508
 30
0.0
 11
153.2397370982999
 21
154.6516311415001
 31
0.0
  0
LINE
  5
E9
  8
0
  6
CONTINUOUS
 62
     7
 10
159.5397375721999
 20
153.8516306378
 30
0.0
 11
153.2397370982999
 21
154.6516311415001
 31
0.0
  0
LINE
  5
EA
  8
0
  6
CONTINUOUS
 62
     7
 10
156.2397375899999
 20
122.2516303011
 30
0.0
 11
158.9397376601
 21
122.2516303011
 31
0.0
  0
LINE
  5
EB
  8
0
  6
CONTINUOUS
 62
     7
 10
155.7397375080999
 20
122.7516313143
 30
0.0
 11
156.2397375899999
 21
122.2516303011
 31
0.0
  0
LINE
  5
EC
  8
0
  6
CONTINUOUS
 62
     7
 10
155.7397375080999
 20
124.2516306289001
 30
0.0
 11
155.7397375080999
 21
122.7516313143
 31
0.0
  0
LINE
  5
ED
  8
0
  6
CONTINUOUS
 62
     7
 10
151.6112934996
 20
124.7951504834001
 30
0.0
 11
150.9297590899999
 21
122.2516303011
 31
0.0
  0
LINE
  5
EE
  8
0
  6
CONTINUOUS
 62
     7
 10
140.5397372518
 20
122.2516303011
 30
0.0
 11
150.9297590899999
 21
122.2516303011
 31
0.0
  0
LINE
  5
EF
  8
0
  6
CONTINUOUS
 62
     7
 10
140.5397372518
 20
122.2516303011
 30
0.0
 11
139.5397370879
 21
123.2516323276
 31
0.0
  0
LINE
  5
F0
  8
0
  6
CONTINUOUS
 62
     7
 10
144.5432285043999
 20
137.2481403001
 30
0.0
 11
144.5432285043999
 21
207.2551217921
 31
0.0
  0
LINE
  5
F1
  8
0
  6
CONTINUOUS
 62
     7
 10
159.5397375721999
 20
189.8516309508
 30
0.0
 11
153.2397370982999
 21
189.8516309508
 31
0.0
  0
LINE
  5
F2
  8
0
  6
CONTINUOUS
 62
     7
 10
159.5397375721999
 20
189.8516309508
 30
0.0
 11
159.5397375721999
 21
221.2516297646
 31
0.0
  0
LINE
  5
F3
  8
0
  6
CONTINUOUS
 62
     7
 10
155.7336289632999
 20
122.7491018422001
 30
0.0
 11
155.3183755103999
 21
123.1643525012
 31
0.0
  0
LINE
  5
F4
  8
0
  6
CONTINUOUS
 62
     7
 10
155.7336289632999
 20
122.7491018422001
 30
0.0
 11
155.7397375080999
 21
122.7516313143
 31
0.0
  0
LINE
  5
F5
  8
0
  6
CONTINUOUS
 62
     7
 10
156.2245700705999
 20
122.2516303011
 30
0.0
 11
155.3157668757999
 21
123.1603366383
 31
0.0
  0
LINE
  5
F6
  8
0
  6
CONTINUOUS
 62
     7
 10
156.2397375899999
 20
122.2516303011
 30
0.0
 11
156.2245700705999
 21
122.2516303011
 31
0.0
  0
LINE
  5
F7
  8
0
  6
CONTINUOUS
 62
     7
 10
155.7336289632999
 20
124.2516306289001
 30
0.0
 11
155.7397375080999
 21
124.2516306289001
 31
0.0
  0
LINE
  5
F8
  8
0
  6
CONTINUOUS
 62
     7
 10
155.1289295974999
 20
125.7169065126
 30
0.0
 11
155.1336290512
 21
125.7188287624
 31
0.0
  0
LINE
  5
F9
  8
0
  6
CONTINUOUS
 62
     7
 10
151.6219906706
 20
124.7922857352
 30
0.0
 11
151.6112934996
 21
124.7951504834001
 31
0.0
  0
LINE
  5
FA
  8
0
  6
CONTINUOUS
 62
     7
 10
155.7336289632999
 20
124.2516306289001
 30
0.0
 11
155.7336289632999
 21
122.7491018422001
 31
0.0
  0
LINE
  5
FB
  8
0
  6
CONTINUOUS
 62
     7
 10
151.6219906706
 20
124.7922857352
 30
0.0
 11
151.2820998403999
 21
123.5236940034
 31
0.0
  0
LINE
  5
FC
  8
0
  6
CONTINUOUS
 62
     7
 10
151.2820998403999
 20
123.5236940034
 30
0.0
 11
151.2982461799
 21
123.5235524424001
 31
0.0
  0
LINE
  5
FD
  8
0
  6
CONTINUOUS
 62
     7
 10
150.9582426596
 20
122.2516303011
 30
0.0
 11
151.2982461799
 21
123.5235524424001
 31
0.0
  0
LINE
  5
FE
  8
0
  6
CONTINUOUS
 62
     7
 10
150.9582426596
 20
122.2516303011
 30
0.0
 11
150.9297590899999
 21
122.2516303011
 31
0.0
  0
LINE
  5
FF
  8
0
  6
CONTINUOUS
 62
     7
 10
144.5397379073999
 20
137.2516308971
 30
0.0
 11
144.5432285043999
 21
137.2481403001
 31
0.0
  0
LINE
  5
100
  8
0
  6
CONTINUOUS
 62
     7
 10
144.5397379073999
 20
137.2516308971
 30
0.0
 11
144.5397379073999
 21
207.2516311951
 31
0.0
  0
LINE
  5
101
  8
0
  6
CONTINUOUS
 62
     7
 10
144.5397379073999
 20
207.2516311951
 30
0.0
 11
144.5432285043999
 21
207.2551217921
 31
0.0
  0
LINE
  5
102
  8
0
  6
CONTINUOUS
 62
     7
 10
139.5397370879
 20
122.2516303011
 30
0.0
 11
139.5397370879
 21
123.2516323276
 31
0.0
  0
LINE
  5
103
  8
0
  6
CONTINUOUS
 62
     7
 10
139.5397370879
 20
122.2516303011
 30
0.0
 11
140.5397372518
 21
122.2516303011
 31
0.0
  0
LINE
  5
104
  8
0
  6
CONTINUOUS
 62
     7
 10
155.1336290512
 20
125.5814028033
 30
0.0
 11
155.1336290512
 21
125.7188287624
 31
0.0
  0
LINE
  5
105
  8
0
  6
CONTINUOUS
 62
     7
 10
155.1289295974999
 20
125.7169065126
 30
0.0
 11
155.1289295974999
 21
125.5866629132
 31
0.0
  0
LINE
  5
106
  8
0
  6
CONTINUOUS
 62
     7
 10
161.2397374782999
 20
154.6516311415001
 30
0.0
 11
161.2397374782999
 21
189.8516309508
 31
0.0
  0
LINE
  5
107
  8
0
  6
CONTINUOUS
 62
     7
 10
161.2397374782999
 20
189.8516309508
 30
0.0
 11
159.6397374022999
 21
189.8795594521
 31
0.0
  0
LINE
  5
108
  8
0
  6
CONTINUOUS
 62
     7
 10
159.6397374022999
 20
189.8795594521
 30
0.0
 11
159.6397374022999
 21
221.2516297646
 31
0.0
  0
LINE
  5
109
  8
0
  6
CONTINUOUS
 62
     7
 10
169.6397376444
 20
221.2154832729
 30
0.0
 11
159.6397374022999
 21
221.2516297646
 31
0.0
  0
LINE
  5
10A
  8
0
  6
CONTINUOUS
 62
     7
 10
169.6397376444
 20
221.2154832729
 30
0.0
 11
169.6397376444
 21
189.9865386136
 31
0.0
  0
LINE
  5
10B
  8
0
  6
CONTINUOUS
 62
     7
 10
169.6397376444
 20
189.9865386136
 30
0.0
 11
165.6397374543999
 21
189.9516307809
 31
0.0
  0
LINE
  5
10C
  8
0
  6
CONTINUOUS
 62
     7
 10
165.6397374543999
 20
188.2204883792
 30
0.0
 11
165.6397374543999
 21
189.9516307809
 31
0.0
  0
LINE
  5
10D
  8
0
  6
CONTINUOUS
 62
     7
 10
165.6397374543999
 20
158.251630614
 30
0.0
 11
165.6397374543999
 21
185.6827731304001
 31
0.0
  0
LINE
  5
10E
  8
0
  6
CONTINUOUS
 62
     7
 10
159.6397374022999
 20
222.2516317912
 30
0.0
 11
169.6397376444
 21
222.1643631407001
 31
0.0
  0
LINE
  5
10F
  8
0
  6
CONTINUOUS
 62
     7
 10
169.6397376444
 20
222.1643631407001
 30
0.0
 11
169.6397376444
 21
221.2154832729
 31
0.0
  0
LINE
  5
110
  8
0
  6
CONTINUOUS
 62
     7
 10
159.6397374022999
 20
221.2516297646
 30
0.0
 11
159.6397374022999
 21
222.2516317912
 31
0.0
  0
LINE
  5
111
  8
0
  6
CONTINUOUS
 62
     7
 10
153.6397373500999
 20
122.2516303011
 30
0.0
 11
153.6397373500999
 21
126.2516309567
 31
0.0
  0
LINE
  5
112
  8
0
  6
CONTINUOUS
 62
     7
 10
159.5397375721999
 20
191.2830495336
 30
0.0
 11
159.6397374022999
 21
191.2813042351
 31
0.0
  0
LINE
  5
113
  8
0
  6
CONTINUOUS
 62
     7
 10
159.5397375721999
 20
192.420211161
 30
0.0
 11
159.6397374022999
 21
192.4219583221001
 31
0.0
  0
LINE
  5
114
  8
0
  6
CONTINUOUS
 62
     7
 10
153.6397373500999
 20
126.3221842297
 30
0.0
 11
153.7050817358999
 21
126.3396930941
 31
0.0
  0
LINE
  5
115
  8
0
  6
CONTINUOUS
 62
     7
 10
153.6397373500999
 20
126.2516309567
 30
0.0
 11
153.6397373500999
 21
126.3221842297
 31
0.0
  0
LINE
  5
116
  8
0
  6
CONTINUOUS
 62
     7
 10
156.2022052902999
 20
122.2739932187
 30
0.0
 11
153.6746368009999
 21
122.2519357749001
 31
0.0
  0
LINE
  5
117
  8
0
  6
CONTINUOUS
 62
     7
 10
159.6397374022999
 20
220.7516324766
 30
0.0
 11
159.5397375721999
 21
220.7507570334
 31
0.0
  0
LINE
  5
118
  8
0
  6
CONTINUOUS
 62
     7
 10
159.5397375721999
 20
218.7533755847001
 30
0.0
 11
159.6397374022999
 21
218.7516321488
 31
0.0
  0
LINE
  5
119
  8
0
  6
CONTINUOUS
 62
     7
 10
151.7079964478
 20
123.7335805841
 30
0.0
 11
151.3391973648
 21
123.7367992349001
 31
0.0
  0
LINE
  5
11A
  8
0
  6
CONTINUOUS
 62
     7
 10
152.5394141871999
 20
126.0273535796
 30
0.0
 11
153.6397373500999
 21
126.3221842297
 31
0.0
  0
LINE
  5
11B
  8
0
  6
CONTINUOUS
 62
     7
 10
159.5397375721999
 20
213.7533766278
 30
0.0
 11
159.6397374022999
 21
213.7516294666
 31
0.0
  0
LINE
  5
11C
  8
0
  6
CONTINUOUS
 62
     7
 10
159.5397375721999
 20
216.6102458783
 30
0.0
 11
159.6397374022999
 21
216.6119893142001
 31
0.0
  0
LINE
  5
11D
  8
0
  6
CONTINUOUS
 62
     7
 10
168.5537240199999
 20
187.9770611473
 30
0.0
 11
169.6397376444
 21
189.9516307809
 31
0.0
  0
LINE
  5
11E
  8
0
  6
CONTINUOUS
 62
     7
 10
167.5356012500999
 20
187.9681763299
 30
0.0
 11
168.5537240199999
 21
187.9770611473
 31
0.0
  0
LINE
  5
11F
  8
0
  6
CONTINUOUS
 62
     7
 10
167.0397374045
 20
189.9516307809
 30
0.0
 11
167.5356012500999
 21
187.9681763299
 31
0.0
  0
LINE
  5
120
  8
0
  6
CONTINUOUS
 62
     7
 10
167.0397374045
 20
189.9516307809
 30
0.0
 11
166.5730945031999
 21
189.9597761281
 31
0.0
  0
LINE
  5
121
  8
0
  6
CONTINUOUS
 62
     7
 10
169.6397376444
 20
189.9865386136
 30
0.0
 11
169.6397376444
 21
189.9516307809
 31
0.0
  0
LINE
  5
122
  8
0
  6
CONTINUOUS
 62
     7
 10
159.5397375721999
 20
196.8602449693
 30
0.0
 11
159.6397374022999
 21
196.8619902678
 31
0.0
  0
LINE
  5
123
  8
0
  6
CONTINUOUS
 62
     7
 10
159.6397374022999
 20
194.0016304203
 30
0.0
 11
159.5397375721999
 21
194.0033757188
 31
0.0
  0
LINE
  5
124
  8
0
  6
CONTINUOUS
 62
     7
 10
153.6397373500999
 20
126.3221842297
 30
0.0
 11
153.6397373500999
 21
126.3407100983001
 31
0.0
  0
LINE
  5
125
  8
0
  6
CONTINUOUS
 62
     7
 10
156.6222839254999
 20
222.7516328045
 30
0.0
 11
155.6397376779999
 21
222.7516328045
 31
0.0
  0
LINE
  5
126
  8
0
  6
CONTINUOUS
 62
     7
 10
156.6266471717999
 20
222.2516317912
 30
0.0
 11
156.6222839254999
 21
222.7516328045
 31
0.0
  0
LINE
  5
127
  8
0
  6
CONTINUOUS
 62
     7
 10
159.5397375721999
 20
220.7516324766
 30
0.0
 11
159.6397374022999
 21
220.7516324766
 31
0.0
  0
LINE
  5
128
  8
0
  6
CONTINUOUS
 62
     7
 10
159.6659159484999
 20
222.2514008232
 30
0.0
 11
159.7095577244
 21
224.751629407
 31
0.0
  0
LINE
  5
129
  8
0
  6
CONTINUOUS
 62
     7
 10
159.7095577244
 20
224.751629407
 30
0.0
 11
161.569917408
 21
224.751629407
 31
0.0
  0
LINE
  5
12A
  8
0
  6
CONTINUOUS
 62
     7
 10
155.6397376779999
 20
222.7516328045
 30
0.0
 11
155.0147373426999
 21
222.2516317912
 31
0.0
  0
LINE
  5
12B
  8
0
  6
CONTINUOUS
 62
     7
 10
161.6138553443999
 20
222.2344023236
 30
0.0
 11
161.569917408
 21
224.751629407
 31
0.0
  0
LINE
  5
12C
  8
0
  6
CONTINUOUS
 62
     7
 10
159.6397374022999
 20
154.2516318210001
 30
0.0
 11
156.3897373352
 21
154.2516318210001
 31
0.0
  0
LINE
  5
12D
  8
0
  6
CONTINUOUS
 62
     7
 10
159.5397375721999
 20
201.3766304650001
 30
0.0
 11
159.6397374022999
 21
201.3766304650001
 31
0.0
  0
LINE
  5
12E
  8
0
  6
CONTINUOUS
 62
     7
 10
159.5397375721999
 20
201.1266318210001
 30
0.0
 11
159.6397374022999
 21
201.1266318210001
 31
0.0
  0
LINE
  5
12F
  8
0
  6
CONTINUOUS
 62
     7
 10
159.5397375721999
 20
204.576630617
 30
0.0
 11
159.6397374022999
 21
204.576630617
 31
0.0
  0
LINE
  5
130
  8
0
  6
CONTINUOUS
 62
     7
 10
159.5397375721999
 20
204.3266301103
 30
0.0
 11
159.6397374022999
 21
204.3266301103
 31
0.0
  0
LINE
  5
131
  8
0
  6
CONTINUOUS
 62
     7
 10
159.5397375721999
 20
200.3266313173
 30
0.0
 11
159.6397374022999
 21
200.3266313173
 31
0.0
  0
LINE
  5
132
  8
0
  6
CONTINUOUS
 62
     7
 10
159.5397375721999
 20
200.5766318240001
 30
0.0
 11
159.6397374022999
 21
200.5766318240001
 31
0.0
  0
LINE
  5
133
  8
0
  6
CONTINUOUS
 62
     7
 10
159.5397375721999
 20
203.5266314693
 30
0.0
 11
159.6397374022999
 21
203.5266314693
 31
0.0
  0
LINE
  5
134
  8
0
  6
CONTINUOUS
 62
     7
 10
159.5397375721999
 20
203.776631976
 30
0.0
 11
159.6397374022999
 21
203.776631976
 31
0.0
  0
LINE
  5
135
  8
0
  6
CONTINUOUS
 62
     7
 10
159.5397375721999
 20
197.1266311653001
 30
0.0
 11
159.6397374022999
 21
197.1266311653001
 31
0.0
  0
LINE
  5
136
  8
0
  6
CONTINUOUS
 62
     7
 10
159.5397375721999
 20
197.376631672
 30
0.0
 11
159.6397374022999
 21
197.376631672
 31
0.0
  0
LINE
  5
137
  8
0
  6
CONTINUOUS
 62
     7
 10
159.5397375721999
 20
199.7766313203
 30
0.0
 11
159.6397374022999
 21
199.7766313203
 31
0.0
  0
LINE
  5
138
  8
0
  6
CONTINUOUS
 62
     7
 10
159.5397375721999
 20
199.5266308137
 30
0.0
 11
159.6397374022999
 21
199.5266308137
 31
0.0
  0
LINE
  5
139
  8
0
  6
CONTINUOUS
 62
     7
 10
159.5397375721999
 20
206.9766302653001
 30
0.0
 11
159.6397374022999
 21
206.9766302653001
 31
0.0
  0
LINE
  5
13A
  8
0
  6
CONTINUOUS
 62
     7
 10
159.5397375721999
 20
206.7266297587
 30
0.0
 11
159.6397374022999
 21
206.7266297587
 31
0.0
  0
LINE
  5
13B
  8
0
  6
CONTINUOUS
 62
     7
 10
159.5397375721999
 20
198.176630313
 30
0.0
 11
159.6397374022999
 21
198.176630313
 31
0.0
  0
LINE
  5
13C
  8
0
  6
CONTINUOUS
 62
     7
 10
159.5397375721999
 20
197.926631669
 30
0.0
 11
159.6397374022999
 21
197.926631669
 31
0.0
  0
LINE
  5
13D
  8
0
  6
CONTINUOUS
 62
     7
 10
159.5397375721999
 20
198.72663031
 30
0.0
 11
159.6397374022999
 21
198.72663031
 31
0.0
  0
LINE
  5
13E
  8
0
  6
CONTINUOUS
 62
     7
 10
159.5397375721999
 20
198.9766308167
 30
0.0
 11
159.6397374022999
 21
198.9766308167
 31
0.0
  0
LINE
  5
13F
  8
0
  6
CONTINUOUS
 62
     7
 10
159.5397375721999
 20
201.9266304620001
 30
0.0
 11
159.6397374022999
 21
201.9266304620001
 31
0.0
  0
LINE
  5
140
  8
0
  6
CONTINUOUS
 62
     7
 10
159.5397375721999
 20
202.1766309686
 30
0.0
 11
159.6397374022999
 21
202.1766309686
 31
0.0
  0
LINE
  5
141
  8
0
  6
CONTINUOUS
 62
     7
 10
159.5397375721999
 20
202.7266309657
 30
0.0
 11
159.6397374022999
 21
202.7266309657
 31
0.0
  0
LINE
  5
142
  8
0
  6
CONTINUOUS
 62
     7
 10
159.5397375721999
 20
202.9766314723
 30
0.0
 11
159.6397374022999
 21
202.9766314723
 31
0.0
  0
LINE
  5
143
  8
0
  6
CONTINUOUS
 62
     7
 10
159.5397375721999
 20
206.1766316243001
 30
0.0
 11
159.6397374022999
 21
206.1766316243001
 31
0.0
  0
LINE
  5
144
  8
0
  6
CONTINUOUS
 62
     7
 10
159.5397375721999
 20
205.9266311177
 30
0.0
 11
159.6397374022999
 21
205.9266311177
 31
0.0
  0
LINE
  5
145
  8
0
  6
CONTINUOUS
 62
     7
 10
159.5397375721999
 20
205.1266324766
 30
0.0
 11
159.6397374022999
 21
205.1266324766
 31
0.0
  0
LINE
  5
146
  8
0
  6
CONTINUOUS
 62
     7
 10
159.5397375721999
 20
205.376629258
 30
0.0
 11
159.6397374022999
 21
205.376629258
 31
0.0
  0
LINE
  5
147
  8
0
  6
CONTINUOUS
 62
     7
 10
159.5897374871999
 20
191.2821778156
 30
0.0
 11
159.5897374871999
 21
191.2516304352
 31
0.0
  0
LINE
  5
148
  8
0
  6
CONTINUOUS
 62
     7
 10
159.5897374871999
 20
191.2516304352
 30
0.0
 11
159.5397375721999
 21
191.2516304352
 31
0.0
  0
LINE
  5
149
  8
0
  6
CONTINUOUS
 62
     7
 10
159.5397375721999
 20
211.2516318508
 30
0.0
 11
159.5897374871999
 21
211.2516318508
 31
0.0
  0
LINE
  5
14A
  8
0
  6
CONTINUOUS
 62
     7
 10
159.5897374871999
 20
211.2516318508
 30
0.0
 11
159.5897374871999
 21
210.7516308375
 31
0.0
  0
LINE
  5
14B
  8
0
  6
CONTINUOUS
 62
     7
 10
159.5897374871999
 20
210.7516308375
 30
0.0
 11
159.5897374871999
 21
207.2516311951
 31
0.0
  0
LINE
  5
14C
  8
0
  6
CONTINUOUS
 62
     7
 10
159.5397375721999
 20
207.2516311951
 30
0.0
 11
159.5897374871999
 21
207.2516311951
 31
0.0
  0
LINE
  5
14D
  8
0
  6
CONTINUOUS
 62
     7
 10
159.5897374871999
 20
194.0025040009
 30
0.0
 11
159.5897374871999
 21
192.4210847415001
 31
0.0
  0
LINE
  5
14E
  8
0
  6
CONTINUOUS
 62
     7
 10
159.6397374022999
 20
189.7016302742001
 30
0.0
 11
155.3147377644
 21
189.7016302742001
 31
0.0
  0
LINE
  5
14F
  8
0
  6
CONTINUOUS
 62
     7
 10
159.6397374022999
 20
188.8016318031
 30
0.0
 11
159.6397374022999
 21
189.7016302742001
 31
0.0
  0
LINE
  5
150
  8
0
  6
CONTINUOUS
 62
     7
 10
159.6397374022999
 20
188.8016318031
 30
0.0
 11
159.2397376160999
 21
188.8016318031
 31
0.0
  0
LINE
  5
151
  8
0
  6
CONTINUOUS
 62
     7
 10
159.2397376160999
 20
155.7016302891
 30
0.0
 11
159.2397376160999
 21
188.8016318031
 31
0.0
  0
LINE
  5
152
  8
0
  6
CONTINUOUS
 62
     7
 10
159.6397374022999
 20
154.801631818
 30
0.0
 11
155.3147377644
 21
154.801631818
 31
0.0
  0
LINE
  5
153
  8
0
  6
CONTINUOUS
 62
     7
 10
155.3147377644
 20
154.801631818
 30
0.0
 11
155.3147377644
 21
155.6516313054
 31
0.0
  0
LINE
  5
154
  8
0
  6
CONTINUOUS
 62
     7
 10
155.3147377644
 20
155.6516313054
 30
0.0
 11
158.4147376205999
 21
155.6516313054
 31
0.0
  0
LINE
  5
155
  8
0
  6
CONTINUOUS
 62
     7
 10
158.4147376205999
 20
155.6516313054
 30
0.0
 11
158.4147376205999
 21
188.8516307868
 31
0.0
  0
LINE
  5
156
  8
0
  6
CONTINUOUS
 62
     7
 10
158.4147376205999
 20
188.8516307868
 30
0.0
 11
155.3147377644
 21
188.8516307868
 31
0.0
  0
LINE
  5
157
  8
0
  6
CONTINUOUS
 62
     7
 10
155.3147377644
 20
188.8516307868
 30
0.0
 11
155.3147377644
 21
189.7016302742001
 31
0.0
  0
LINE
  5
158
  8
0
  6
CONTINUOUS
 62
     7
 10
154.3147376005
 20
187.7516307928
 30
0.0
 11
154.3147376005
 21
189.7016302742001
 31
0.0
  0
LINE
  5
159
  8
0
  6
CONTINUOUS
 62
     7
 10
154.3147376005
 20
187.7516307928
 30
0.0
 11
153.4897376048999
 21
187.7516307928
 31
0.0
  0
LINE
  5
15A
  8
0
  6
CONTINUOUS
 62
     7
 10
153.4897376048999
 20
187.7516307928
 30
0.0
 11
153.4897376048999
 21
189.7016302742001
 31
0.0
  0
LINE
  5
15B
  8
0
  6
CONTINUOUS
 62
     7
 10
154.3147376005
 20
189.7016302742001
 30
0.0
 11
153.4897376048999
 21
189.7016302742001
 31
0.0
  0
LINE
  5
15C
  8
0
  6
CONTINUOUS
 62
     7
 10
154.3147376005
 20
186.3016313933
 30
0.0
 11
153.4897376048999
 21
186.3016313933
 31
0.0
  0
LINE
  5
15D
  8
0
  6
CONTINUOUS
 62
     7
 10
154.3147376005
 20
158.2016306989
 30
0.0
 11
154.3147376005
 21
186.3016313933
 31
0.0
  0
LINE
  5
15E
  8
0
  6
CONTINUOUS
 62
     7
 10
154.3147376005
 20
158.2016306989
 30
0.0
 11
153.4897376048999
 21
158.2016306989
 31
0.0
  0
LINE
  5
15F
  8
0
  6
CONTINUOUS
 62
     7
 10
153.4897376048999
 20
158.2016306989
 30
0.0
 11
153.4897376048999
 21
186.3016313933
 31
0.0
  0
LINE
  5
160
  8
0
  6
CONTINUOUS
 62
     7
 10
153.4897376048999
 20
154.801631818
 30
0.0
 11
153.4897376048999
 21
156.7516312994001
 31
0.0
  0
LINE
  5
161
  8
0
  6
CONTINUOUS
 62
     7
 10
154.3147376005
 20
156.7516312994001
 30
0.0
 11
153.4897376048999
 21
156.7516312994001
 31
0.0
  0
LINE
  5
162
  8
0
  6
CONTINUOUS
 62
     7
 10
154.3147376005
 20
154.801631818
 30
0.0
 11
154.3147376005
 21
156.7516312994001
 31
0.0
  0
LINE
  5
163
  8
0
  6
CONTINUOUS
 62
     7
 10
154.3147376005
 20
154.801631818
 30
0.0
 11
153.4897376048999
 21
154.801631818
 31
0.0
  0
LINE
  5
164
  8
0
  6
CONTINUOUS
 62
     7
 10
156.1847374040999
 20
169.4316309937
 30
0.0
 11
156.1847374040999
 21
170.0716309775
 31
0.0
  0
LINE
  5
165
  8
0
  6
CONTINUOUS
 62
     7
 10
155.5447371873999
 20
169.4316309937
 30
0.0
 11
156.1847374040999
 21
169.4316309937
 31
0.0
  0
LINE
  5
166
  8
0
  6
CONTINUOUS
 62
     7
 10
155.5447371873999
 20
170.0716309775
 30
0.0
 11
155.5447371873999
 21
169.4316309937
 31
0.0
  0
LINE
  5
167
  8
0
  6
CONTINUOUS
 62
     7
 10
156.1847374040999
 20
170.0716309775
 30
0.0
 11
155.5447371873999
 21
170.0716309775
 31
0.0
  0
LINE
  5
168
  8
0
  6
CONTINUOUS
 62
     7
 10
156.1847374040999
 20
184.4316306584
 30
0.0
 11
156.1847374040999
 21
185.0716308751
 31
0.0
  0
LINE
  5
169
  8
0
  6
CONTINUOUS
 62
     7
 10
155.5447371873999
 20
185.0716308751
 30
0.0
 11
155.5447371873999
 21
184.4316306584
 31
0.0
  0
LINE
  5
16A
  8
0
  6
CONTINUOUS
 62
     7
 10
156.1847374040999
 20
185.0716308751
 30
0.0
 11
155.5447371873999
 21
185.0716308751
 31
0.0
  0
LINE
  5
16B
  8
0
  6
CONTINUOUS
 62
     7
 10
155.5447371873999
 20
184.4316306584
 30
0.0
 11
156.1847374040999
 21
184.4316306584
 31
0.0
  0
LINE
  5
16C
  8
0
  6
CONTINUOUS
 62
     7
 10
156.1847374040999
 20
164.4316311054
 30
0.0
 11
156.1847374040999
 21
165.0716308564
 31
0.0
  0
LINE
  5
16D
  8
0
  6
CONTINUOUS
 62
     7
 10
155.5447371873999
 20
164.4316311054
 30
0.0
 11
156.1847374040999
 21
164.4316311054
 31
0.0
  0
LINE
  5
16E
  8
0
  6
CONTINUOUS
 62
     7
 10
155.5447371873999
 20
165.0716308564
 30
0.0
 11
155.5447371873999
 21
164.4316311054
 31
0.0
  0
LINE
  5
16F
  8
0
  6
CONTINUOUS
 62
     7
 10
156.1847374040999
 20
165.0716308564
 30
0.0
 11
155.5447371873999
 21
165.0716308564
 31
0.0
  0
LINE
  5
170
  8
0
  6
CONTINUOUS
 62
     7
 10
156.1847374040999
 20
181.9316311799
 30
0.0
 11
156.1847374040999
 21
182.5716313966
 31
0.0
  0
LINE
  5
171
  8
0
  6
CONTINUOUS
 62
     7
 10
155.5447371873999
 20
181.9316311799
 30
0.0
 11
156.1847374040999
 21
181.9316311799
 31
0.0
  0
LINE
  5
172
  8
0
  6
CONTINUOUS
 62
     7
 10
155.5447371873999
 20
182.5716313966
 30
0.0
 11
155.5447371873999
 21
181.9316311799
 31
0.0
  0
LINE
  5
173
  8
0
  6
CONTINUOUS
 62
     7
 10
156.1847374040999
 20
182.5716313966
 30
0.0
 11
155.5447371873999
 21
182.5716313966
 31
0.0
  0
LINE
  5
174
  8
0
  6
CONTINUOUS
 62
     7
 10
156.1847374040999
 20
159.4316312172
 30
0.0
 11
156.1847374040999
 21
160.0716314339001
 31
0.0
  0
LINE
  5
175
  8
0
  6
CONTINUOUS
 62
     7
 10
155.5447371873999
 20
160.0716314339001
 30
0.0
 11
155.5447371873999
 21
159.4316312172
 31
0.0
  0
LINE
  5
176
  8
0
  6
CONTINUOUS
 62
     7
 10
156.1847374040999
 20
160.0716314339001
 30
0.0
 11
155.5447371873999
 21
160.0716314339001
 31
0.0
  0
LINE
  5
177
  8
0
  6
CONTINUOUS
 62
     7
 10
155.5447371873999
 20
159.4316312172
 30
0.0
 11
156.1847374040999
 21
159.4316312172
 31
0.0
  0
LINE
  5
178
  8
0
  6
CONTINUOUS
 62
     7
 10
156.1847374040999
 20
176.9316308260001
 30
0.0
 11
156.1847374040999
 21
177.5716310427
 31
0.0
  0
LINE
  5
179
  8
0
  6
CONTINUOUS
 62
     7
 10
155.5447371873999
 20
176.9316308260001
 30
0.0
 11
156.1847374040999
 21
176.9316308260001
 31
0.0
  0
LINE
  5
17A
  8
0
  6
CONTINUOUS
 62
     7
 10
155.5447371873999
 20
177.5716310427
 30
0.0
 11
155.5447371873999
 21
176.9316308260001
 31
0.0
  0
LINE
  5
17B
  8
0
  6
CONTINUOUS
 62
     7
 10
156.1847374040999
 20
177.5716310427
 30
0.0
 11
155.5447371873999
 21
177.5716310427
 31
0.0
  0
LINE
  5
17C
  8
0
  6
CONTINUOUS
 62
     7
 10
156.1847374040999
 20
166.9316310496
 30
0.0
 11
156.1847374040999
 21
167.5716312662
 31
0.0
  0
LINE
  5
17D
  8
0
  6
CONTINUOUS
 62
     7
 10
155.5447371873999
 20
167.5716312662
 30
0.0
 11
155.5447371873999
 21
166.9316310496
 31
0.0
  0
LINE
  5
17E
  8
0
  6
CONTINUOUS
 62
     7
 10
156.1847374040999
 20
167.5716312662
 30
0.0
 11
155.5447371873999
 21
167.5716312662
 31
0.0
  0
LINE
  5
17F
  8
0
  6
CONTINUOUS
 62
     7
 10
155.5447371873999
 20
166.9316310496
 30
0.0
 11
156.1847374040999
 21
166.9316310496
 31
0.0
  0
LINE
  5
180
  8
0
  6
CONTINUOUS
 62
     7
 10
156.1847374040999
 20
156.9316308074
 30
0.0
 11
156.1847374040999
 21
157.5716310241
 31
0.0
  0
LINE
  5
181
  8
0
  6
CONTINUOUS
 62
     7
 10
155.5447371873999
 20
156.9316308074
 30
0.0
 11
156.1847374040999
 21
156.9316308074
 31
0.0
  0
LINE
  5
182
  8
0
  6
CONTINUOUS
 62
     7
 10
155.5447371873999
 20
157.5716310241
 30
0.0
 11
155.5447371873999
 21
156.9316308074
 31
0.0
  0
LINE
  5
183
  8
0
  6
CONTINUOUS
 62
     7
 10
156.1847374040999
 20
157.5716310241
 30
0.0
 11
155.5447371873999
 21
157.5716310241
 31
0.0
  0
LINE
  5
184
  8
0
  6
CONTINUOUS
 62
     7
 10
155.5447371873999
 20
175.0716310986001
 30
0.0
 11
155.5447371873999
 21
174.4316311147001
 31
0.0
  0
LINE
  5
185
  8
0
  6
CONTINUOUS
 62
     7
 10
156.1847374040999
 20
174.4316311147001
 30
0.0
 11
156.1847374040999
 21
175.0716310986001
 31
0.0
  0
LINE
  5
186
  8
0
  6
CONTINUOUS
 62
     7
 10
156.1847374040999
 20
175.0716310986001
 30
0.0
 11
155.5447371873999
 21
175.0716310986001
 31
0.0
  0
LINE
  5
187
  8
0
  6
CONTINUOUS
 62
     7
 10
155.5447371873999
 20
174.4316311147001
 30
0.0
 11
156.1847374040999
 21
174.4316311147001
 31
0.0
  0
LINE
  5
188
  8
0
  6
CONTINUOUS
 62
     7
 10
155.5447371873999
 20
172.571631038
 30
0.0
 11
155.5447371873999
 21
171.9316310542
 31
0.0
  0
LINE
  5
189
  8
0
  6
CONTINUOUS
 62
     7
 10
156.1847374040999
 20
172.571631038
 30
0.0
 11
155.5447371873999
 21
172.571631038
 31
0.0
  0
LINE
  5
18A
  8
0
  6
CONTINUOUS
 62
     7
 10
156.1847374040999
 20
171.9316310542
 30
0.0
 11
156.1847374040999
 21
172.571631038
 31
0.0
  0
LINE
  5
18B
  8
0
  6
CONTINUOUS
 62
     7
 10
155.5447371873999
 20
171.9316310542
 30
0.0
 11
156.1847374040999
 21
171.9316310542
 31
0.0
  0
LINE
  5
18C
  8
0
  6
CONTINUOUS
 62
     7
 10
156.1847374040999
 20
186.9316310682
 30
0.0
 11
156.1847374040999
 21
187.5716312848
 31
0.0
  0
LINE
  5
18D
  8
0
  6
CONTINUOUS
 62
     7
 10
155.5447371873999
 20
187.5716312848
 30
0.0
 11
155.5447371873999
 21
186.9316310682
 31
0.0
  0
LINE
  5
18E
  8
0
  6
CONTINUOUS
 62
     7
 10
155.5447371873999
 20
186.9316310682
 30
0.0
 11
156.1847374040999
 21
186.9316310682
 31
0.0
  0
LINE
  5
18F
  8
0
  6
CONTINUOUS
 62
     7
 10
156.1847374040999
 20
187.5716312848
 30
0.0
 11
155.5447371873999
 21
187.5716312848
 31
0.0
  0
LINE
  5
190
  8
0
  6
CONTINUOUS
 62
     7
 10
155.5447371873999
 20
180.0716309868
 30
0.0
 11
155.5447371873999
 21
179.4316312358001
 31
0.0
  0
LINE
  5
191
  8
0
  6
CONTINUOUS
 62
     7
 10
156.1847374040999
 20
179.4316312358001
 30
0.0
 11
156.1847374040999
 21
180.0716309868
 31
0.0
  0
LINE
  5
192
  8
0
  6
CONTINUOUS
 62
     7
 10
155.5447371873999
 20
179.4316312358001
 30
0.0
 11
156.1847374040999
 21
179.4316312358001
 31
0.0
  0
LINE
  5
193
  8
0
  6
CONTINUOUS
 62
     7
 10
156.1847374040999
 20
180.0716309868
 30
0.0
 11
155.5447371873999
 21
180.0716309868
 31
0.0
  0
LINE
  5
194
  8
0
  6
CONTINUOUS
 62
     7
 10
155.5447371873999
 20
162.5716309123001
 30
0.0
 11
155.5447371873999
 21
161.9316306957001
 31
0.0
  0
LINE
  5
195
  8
0
  6
CONTINUOUS
 62
     7
 10
156.1847374040999
 20
161.9316306957001
 30
0.0
 11
156.1847374040999
 21
162.5716309123001
 31
0.0
  0
LINE
  5
196
  8
0
  6
CONTINUOUS
 62
     7
 10
156.1847374040999
 20
162.5716309123001
 30
0.0
 11
155.5447371873999
 21
162.5716309123001
 31
0.0
  0
LINE
  5
197
  8
0
  6
CONTINUOUS
 62
     7
 10
155.5447371873999
 20
161.9316306957001
 30
0.0
 11
156.1847374040999
 21
161.9316306957001
 31
0.0
  0
LINE
  5
198
  8
0
  6
CONTINUOUS
 62
     7
 10
154.3147376005
 20
188.8516307868
 30
0.0
 11
155.3147377644
 21
188.8516307868
 31
0.0
  0
LINE
  5
199
  8
0
  6
CONTINUOUS
 62
     7
 10
155.3147377644
 20
189.7016302742001
 30
0.0
 11
154.3147376005
 21
189.7016302742001
 31
0.0
  0
LINE
  5
19A
  8
0
  6
CONTINUOUS
 62
     7
 10
155.3147377644
 20
155.6516313054
 30
0.0
 11
154.3147376005
 21
155.6516313054
 31
0.0
  0
LINE
  5
19B
  8
0
  6
CONTINUOUS
 62
     7
 10
155.3147377644
 20
154.801631818
 30
0.0
 11
154.3147376005
 21
154.801631818
 31
0.0
  0
LINE
  5
19C
  8
0
  6
CONTINUOUS
 62
     7
 10
153.4897376048999
 20
187.7516307928
 30
0.0
 11
153.4897376048999
 21
186.3016313933
 31
0.0
  0
LINE
  5
19D
  8
0
  6
CONTINUOUS
 62
     7
 10
154.3147376005
 20
186.3016313933
 30
0.0
 11
154.3147376005
 21
187.7516307928
 31
0.0
  0
LINE
  5
19E
  8
0
  6
CONTINUOUS
 62
     7
 10
153.4897376048999
 20
158.2016306989
 30
0.0
 11
153.4897376048999
 21
156.7516312994001
 31
0.0
  0
LINE
  5
19F
  8
0
  6
CONTINUOUS
 62
     7
 10
154.3147376005
 20
156.7516312994001
 30
0.0
 11
154.3147376005
 21
158.2016306989
 31
0.0
  0
LINE
  5
1A0
  8
0
  6
CONTINUOUS
 62
     7
 10
159.2397376160999
 20
187.5716312848
 30
0.0
 11
159.6397374022999
 21
187.5716312848
 31
0.0
  0
LINE
  5
1A1
  8
0
  6
CONTINUOUS
 62
     7
 10
159.2397376160999
 20
186.9316310682
 30
0.0
 11
159.6397374022999
 21
186.9316310682
 31
0.0
  0
LINE
  5
1A2
  8
0
  6
CONTINUOUS
 62
     7
 10
159.2397376160999
 20
184.4316306584
 30
0.0
 11
159.6397374022999
 21
184.4316306584
 31
0.0
  0
LINE
  5
1A3
  8
0
  6
CONTINUOUS
 62
     7
 10
159.2397376160999
 20
185.0716308751
 30
0.0
 11
159.6397374022999
 21
185.0716308751
 31
0.0
  0
LINE
  5
1A4
  8
0
  6
CONTINUOUS
 62
     7
 10
159.6397374022999
 20
189.7516311206
 30
0.0
 11
159.0517701779
 21
189.7516311206
 31
0.0
  0
LINE
  5
1A5
  8
0
  6
CONTINUOUS
 62
     7
 10
159.6397374022999
 20
188.5516312965
 30
0.0
 11
159.2397376160999
 21
188.5516312965
 31
0.0
  0
LINE
  5
1A6
  8
0
  6
CONTINUOUS
 62
     7
 10
153.6397373500999
 20
154.7516309716
 30
0.0
 11
153.6397373500999
 21
154.801631818
 31
0.0
  0
LINE
  5
1A7
  8
0
  6
CONTINUOUS
 62
     7
 10
159.6397374022999
 20
154.7516309716
 30
0.0
 11
153.6397373500999
 21
154.7516309716
 31
0.0
  0
LINE
  5
1A8
  8
0
  6
CONTINUOUS
 62
     7
 10
159.6397374022999
 20
155.7016302891
 30
0.0
 11
159.6397374022999
 21
188.8016318031
 31
0.0
  0
LINE
  5
1A9
  8
0
  6
CONTINUOUS
 62
     7
 10
159.6397374022999
 20
189.7016302742001
 30
0.0
 11
159.6397374022999
 21
189.7516311206
 31
0.0
  0
LINE
  5
1AA
  8
0
  6
CONTINUOUS
 62
     7
 10
161.2397374782999
 20
189.7516311206
 30
0.0
 11
159.6397374022999
 21
189.7516311206
 31
0.0
  0
LINE
  5
1AB
  8
0
  6
CONTINUOUS
 62
     7
 10
159.6397374022999
 20
189.7516311206
 30
0.0
 11
159.6397374022999
 21
189.8795594521
 31
0.0
  0
LINE
  5
1AC
  8
0
  6
CONTINUOUS
 62
     7
 10
159.5897374871999
 20
210.7516308375
 30
0.0
 11
159.5397375721999
 21
210.7516308375
 31
0.0
  0
LINE
  5
1AD
  8
0
  6
CONTINUOUS
 62
     7
 10
159.6397374022999
 20
207.6016296693
 30
0.0
 11
159.5897374871999
 21
207.6016296693
 31
0.0
  0
LINE
  5
1AE
  8
0
  6
CONTINUOUS
 62
     7
 10
85.53973754979992
 20
221.2516297646
 30
0.0
 11
85.53973754979992
 21
222.2516317912
 31
0.0
  0
LINE
  5
1AF
  8
0
  6
CONTINUOUS
 62
     7
 10
85.53973754979992
 20
222.2516317912
 30
0.0
 11
159.5397375721999
 21
222.2516317912
 31
0.0
  0
LINE
  5
1B0
  8
0
  6
CONTINUOUS
 62
     7
 10
85.53973754979992
 20
221.2516297646
 30
0.0
 11
85.53973754979992
 21
194.1996295996
 31
0.0
  0
LINE
  5
1B1
  8
0
  6
CONTINUOUS
 62
     7
 10
139.5397370879
 20
123.2516323276
 30
0.0
 11
91.53973480799993
 21
123.2516323276
 31
0.0
  0
LINE
  5
1B2
  8
0
  6
CONTINUOUS
 62
     7
 10
91.53973480799993
 20
194.1472669192
 30
0.0
 11
91.53973480799993
 21
123.2516323276
 31
0.0
  0
LINE
  5
1B3
  8
0
  6
CONTINUOUS
 62
     7
 10
91.53973480799993
 20
194.1472669192
 30
0.0
 11
85.53973754979992
 21
194.1996295996
 31
0.0
  0
LINE
  5
1B4
  8
0
  6
CONTINUOUS
 62
     7
 10
96.53624316789993
 20
207.2551217921
 30
0.0
 11
96.53624316789993
 21
138.7501847990001
 31
0.0
  0
LINE
  5
1B5
  8
0
  6
CONTINUOUS
 62
     7
 10
96.53624316789993
 20
138.7501847990001
 30
0.0
 11
98.03829511739994
 21
137.2481403001
 31
0.0
  0
LINE
  5
1B6
  8
0
  6
CONTINUOUS
 62
     7
 10
98.03829511739994
 20
137.2481403001
 30
0.0
 11
144.5432285043999
 21
137.2481403001
 31
0.0
  0
LINE
  5
1B7
  8
0
  6
CONTINUOUS
 62
     7
 10
144.5432285043999
 20
207.2551217921
 30
0.0
 11
96.53624316789993
 21
207.2551217921
 31
0.0
  0
LINE
  5
1B8
  8
0
  6
CONTINUOUS
 62
     7
 10
98.03974052999993
 20
137.2516308971
 30
0.0
 11
98.03829511739994
 21
137.2481403001
 31
0.0
  0
LINE
  5
1B9
  8
0
  6
CONTINUOUS
 62
     7
 10
98.03974052999993
 20
137.2516308971
 30
0.0
 11
144.5397379073999
 21
137.2516308971
 31
0.0
  0
LINE
  5
1BA
  8
0
  6
CONTINUOUS
 62
     7
 10
144.5397379073999
 20
207.2516311951
 30
0.0
 11
96.53973749019994
 21
207.2516311951
 31
0.0
  0
LINE
  5
1BB
  8
0
  6
CONTINUOUS
 62
     7
 10
96.53973749019994
 20
207.2516311951
 30
0.0
 11
96.53624316789993
 21
207.2551217921
 31
0.0
  0
LINE
  5
1BC
  8
0
  6
CONTINUOUS
 62
     7
 10
91.03973379469994
 20
122.7516313143
 30
0.0
 11
91.53973480799993
 21
122.2516303011
 31
0.0
  0
LINE
  5
1BD
  8
0
  6
CONTINUOUS
 62
     7
 10
91.53973480799993
 20
123.2516323276
 30
0.0
 11
91.03973379469994
 21
122.7516313143
 31
0.0
  0
LINE
  5
1BE
  8
0
  6
CONTINUOUS
 62
     7
 10
139.5397370879
 20
122.2516303011
 30
0.0
 11
91.53973480799993
 21
122.2516303011
 31
0.0
  0
LINE
  5
1BF
  8
0
  6
CONTINUOUS
 62
     7
 10
96.53973749019994
 20
138.7516302117
 30
0.0
 11
96.53624316789993
 21
138.7501847990001
 31
0.0
  0
LINE
  5
1C0
  8
0
  6
CONTINUOUS
 62
     7
 10
96.53973749019994
 20
138.7516302117
 30
0.0
 11
98.03974052999993
 21
137.2516308971
 31
0.0
  0
LINE
  5
1C1
  8
0
  6
CONTINUOUS
 62
     7
 10
96.53973749019994
 20
207.2516311951
 30
0.0
 11
96.53973749019994
 21
138.7516302117
 31
0.0
  0
LINE
  5
1C2
  8
0
  6
CONTINUOUS
 62
     7
 10
91.03973379469994
 20
122.7516313143
 30
0.0
 11
90.53974023199996
 21
123.2516323276
 31
0.0
  0
LINE
  5
1C3
  8
0
  6
CONTINUOUS
 62
     7
 10
90.53974023199996
 20
123.2516323276
 30
0.0
 11
90.53974023199996
 21
194.1559952744
 31
0.0
  0
LINE
  5
1C4
  8
0
  6
CONTINUOUS
 62
     7
 10
84.53973552319994
 20
221.2516297646
 30
0.0
 11
85.53973754979992
 21
221.2516297646
 31
0.0
  0
LINE
  5
1C5
  8
0
  6
CONTINUOUS
 62
     7
 10
84.53973552319994
 20
194.4083557524
 30
0.0
 11
84.74149724579993
 21
194.2065940299
 31
0.0
  0
LINE
  5
1C6
  8
0
  6
CONTINUOUS
 62
     7
 10
84.53973552319994
 20
194.4083557524
 30
0.0
 11
84.53973552319994
 21
221.2516297646
 31
0.0
  0
LINE
  5
1C7
  8
0
  6
CONTINUOUS
 62
     7
 10
85.53973754979992
 20
194.1996295996
 30
0.0
 11
84.74149724579993
 21
194.2065940299
 31
0.0
  0
LINE
  5
1C8
  8
0
  6
CONTINUOUS
 62
     7
 10
84.53973552319994
 20
221.2516297646
 30
0.0
 11
85.53973754979992
 21
222.2516317912
 31
0.0
  0
LINE
  5
1C9
  8
0
  6
CONTINUOUS
 62
     7
 10
44.53973552319999
 20
126.2516309567
 30
0.0
 11
44.439735693
 21
126.2516309567
 31
0.0
  0
LINE
  5
1CA
  8
0
  6
CONTINUOUS
 62
     7
 10
44.439735693
 20
122.2516303011
 30
0.0
 11
44.53973552319999
 21
122.2516303011
 31
0.0
  0
LINE
  5
1CB
  8
0
  6
CONTINUOUS
 62
     7
 10
14.53973619369999
 20
122.2516303011
 30
0.0
 11
14.6397360238
 21
122.2516303011
 31
0.0
  0
LINE
  5
1CC
  8
0
  6
CONTINUOUS
 62
     7
 10
14.6397360238
 20
126.2516309567
 30
0.0
 11
14.53973619369999
 21
126.2516309567
 31
0.0
  0
LINE
  5
1CD
  8
0
  6
CONTINUOUS
 62
     7
 10
21.53973547850001
 20
209.251631523
 30
0.0
 11
21.53973547850001
 21
207.2516311951
 31
0.0
  0
LINE
  5
1CE
  8
0
  6
CONTINUOUS
 62
     7
 10
21.53973547850001
 20
204.7766302772
 30
0.0
 11
21.53973547850001
 21
204.7266294308
 31
0.0
  0
LINE
  5
1CF
  8
0
  6
CONTINUOUS
 62
     7
 10
21.53973547850001
 20
202.2516303756
 30
0.0
 11
21.53973547850001
 21
200.2516319104
 31
0.0
  0
LINE
  5
1D0
  8
0
  6
CONTINUOUS
 62
     7
 10
42.1397358748
 20
124.5516319819
 30
0.0
 11
42.1397358748
 21
193.8516316064
 31
0.0
  0
LINE
  5
1D1
  8
0
  6
CONTINUOUS
 62
     7
 10
42.1397358748
 20
193.8516316064
 30
0.0
 11
16.93973584200001
 21
193.8516316064
 31
0.0
  0
LINE
  5
1D2
  8
0
  6
CONTINUOUS
 62
     7
 10
16.93973584200001
 20
124.5516319819
 30
0.0
 11
42.1397358748
 21
124.5516319819
 31
0.0
  0
LINE
  5
1D3
  8
0
  6
CONTINUOUS
 62
     7
 10
16.93973584200001
 20
193.8516316064
 30
0.0
 11
16.93973584200001
 21
124.5516319819
 31
0.0
  0
LINE
  5
1D4
  8
0
  6
CONTINUOUS
 62
     7
 10
14.6397360238
 20
194.1996295996
 30
0.0
 11
14.6397360238
 21
221.2516297646
 31
0.0
  0
LINE
  5
1D5
  8
0
  6
CONTINUOUS
 62
     7
 10
14.6397360238
 20
221.2516297646
 30
0.0
 11
15.6397361877
 21
221.2516297646
 31
0.0
  0
LINE
  5
1D6
  8
0
  6
CONTINUOUS
 62
     7
 10
15.6397361877
 20
221.2516297646
 30
0.0
 11
15.6397361877
 21
194.4083557524
 31
0.0
  0
LINE
  5
1D7
  8
0
  6
CONTINUOUS
 62
     7
 10
15.43797539649999
 20
194.2065940298
 30
0.0
 11
15.6397361877
 21
194.4083557524
 31
0.0
  0
LINE
  5
1D8
  8
0
  6
CONTINUOUS
 62
     7
 10
15.43797539649999
 20
194.2065940298
 30
0.0
 11
14.6397360238
 21
194.1996295996
 31
0.0
  0
LINE
  5
1D9
  8
0
  6
CONTINUOUS
 62
     7
 10
43.43973552910001
 20
221.2516297646
 30
0.0
 11
15.6397361877
 21
221.2516297646
 31
0.0
  0
LINE
  5
1DA
  8
0
  6
CONTINUOUS
 62
     7
 10
43.43973552910001
 20
194.4083557524
 30
0.0
 11
43.43973552910001
 21
221.2516297646
 31
0.0
  0
LINE
  5
1DB
  8
0
  6
CONTINUOUS
 62
     7
 10
15.6397361877
 20
194.4083557524
 30
0.0
 11
43.43973552910001
 21
194.4083557524
 31
0.0
  0
LINE
  5
1DC
  8
0
  6
CONTINUOUS
 62
     7
 10
42.4484637204
 20
195.6429039188
 30
0.0
 11
42.4484637204
 21
220.2603598185
 31
0.0
  0
LINE
  5
1DD
  8
0
  6
CONTINUOUS
 62
     7
 10
42.4484637204
 20
220.2603598185
 30
0.0
 11
16.6310079965
 21
220.2603598185
 31
0.0
  0
LINE
  5
1DE
  8
0
  6
CONTINUOUS
 62
     7
 10
16.6310079965
 20
220.2603598185
 30
0.0
 11
16.6310079965
 21
195.6429039188
 31
0.0
  0
LINE
  5
1DF
  8
0
  6
CONTINUOUS
 62
     7
 10
16.6310079965
 20
195.6429039188
 30
0.0
 11
42.4484637204
 21
195.6429039188
 31
0.0
  0
LINE
  5
1E0
  8
0
  6
CONTINUOUS
 62
     7
 10
42.4397362965
 20
220.2516314634
 30
0.0
 11
42.4484637204
 21
220.2603598185
 31
0.0
  0
LINE
  5
1E1
  8
0
  6
CONTINUOUS
 62
     7
 10
42.4397362965
 20
220.2516314634
 30
0.0
 11
16.6397354203
 21
220.2516314634
 31
0.0
  0
LINE
  5
1E2
  8
0
  6
CONTINUOUS
 62
     7
 10
16.6397354203
 20
220.2516314634
 30
0.0
 11
16.6310079965
 21
220.2603598185
 31
0.0
  0
LINE
  5
1E3
  8
0
  6
CONTINUOUS
 62
     7
 10
42.4397362965
 20
195.6516304113
 30
0.0
 11
42.4397362965
 21
220.2516314634
 31
0.0
  0
LINE
  5
1E4
  8
0
  6
CONTINUOUS
 62
     7
 10
15.6397361877
 20
221.2516297646
 30
0.0
 11
15.6397361877
 21
222.2516317912
 31
0.0
  0
LINE
  5
1E5
  8
0
  6
CONTINUOUS
 62
     7
 10
15.6397361877
 20
222.2516317912
 30
0.0
 11
43.43973552910001
 21
222.2516317912
 31
0.0
  0
LINE
  5
1E6
  8
0
  6
CONTINUOUS
 62
     7
 10
43.43973552910001
 20
221.2516297646
 30
0.0
 11
43.43973552910001
 21
222.2516317912
 31
0.0
  0
LINE
  5
1E7
  8
0
  6
CONTINUOUS
 62
     7
 10
44.439735693
 20
221.2516297646
 30
0.0
 11
43.43973552910001
 21
222.2516317912
 31
0.0
  0
LINE
  5
1E8
  8
0
  6
CONTINUOUS
 62
     7
 10
43.43973552910001
 20
221.2516297646
 30
0.0
 11
44.439735693
 21
221.2516297646
 31
0.0
  0
LINE
  5
1E9
  8
0
  6
CONTINUOUS
 62
     7
 10
14.6397360238
 20
221.2516297646
 30
0.0
 11
15.6397361877
 21
222.2516317912
 31
0.0
  0
LINE
  5
1EA
  8
0
  6
CONTINUOUS
 62
     7
 10
16.6397354203
 20
195.6516304113
 30
0.0
 11
16.6310079965
 21
195.6429039188
 31
0.0
  0
LINE
  5
1EB
  8
0
  6
CONTINUOUS
 62
     7
 10
16.6397354203
 20
195.6516304113
 30
0.0
 11
42.4397362965
 21
195.6516304113
 31
0.0
  0
LINE
  5
1EC
  8
0
  6
CONTINUOUS
 62
     7
 10
16.6397354203
 20
220.2516314634
 30
0.0
 11
16.6397354203
 21
195.6516304113
 31
0.0
  0
LINE
  5
1ED
  8
0
  6
CONTINUOUS
 62
     7
 10
44.439735693
 20
221.2516297646
 30
0.0
 11
44.439735693
 21
194.1996295996
 31
0.0
  0
LINE
  5
1EE
  8
0
  6
CONTINUOUS
 62
     7
 10
44.439735693
 20
194.1996295996
 30
0.0
 11
43.6414963204
 21
194.2065940298
 31
0.0
  0
LINE
  5
1EF
  8
0
  6
CONTINUOUS
 62
     7
 10
43.43973552910001
 20
194.4083557524
 30
0.0
 11
43.6414963204
 21
194.2065940298
 31
0.0
  0
LINE
  5
1F0
  8
0
  6
CONTINUOUS
 62
     7
 10
43.6414963204
 20
194.2065940298
 30
0.0
 11
15.43797539649999
 21
194.2065940298
 31
0.0
  0
LINE
  5
1F1
  8
0
  6
CONTINUOUS
 62
     7
 10
44.439735693
 20
194.1472669192
 30
0.0
 11
44.439735693
 21
194.1996295996
 31
0.0
  0
LINE
  5
1F2
  8
0
  6
CONTINUOUS
 62
     7
 10
43.43973552910001
 20
194.1559952744
 30
0.0
 11
44.439735693
 21
194.1472669192
 31
0.0
  0
LINE
  5
1F3
  8
0
  6
CONTINUOUS
 62
     7
 10
43.43973552910001
 20
194.1559952744
 30
0.0
 11
42.4484637204
 21
194.1559952744
 31
0.0
  0
LINE
  5
1F4
  8
0
  6
CONTINUOUS
 62
     7
 10
42.4397362965
 20
194.1516310968
 30
0.0
 11
42.4484637204
 21
194.1559952744
 31
0.0
  0
LINE
  5
1F5
  8
0
  6
CONTINUOUS
 62
     7
 10
42.4397362965
 20
194.1516310968
 30
0.0
 11
16.6397354203
 21
194.1516310968
 31
0.0
  0
LINE
  5
1F6
  8
0
  6
CONTINUOUS
 62
     7
 10
16.6397354203
 20
194.1516310968
 30
0.0
 11
16.6310079965
 21
194.1559952744
 31
0.0
  0
LINE
  5
1F7
  8
0
  6
CONTINUOUS
 62
     7
 10
16.6310079965
 20
194.1559952744
 30
0.0
 11
15.6397361877
 21
194.1559952744
 31
0.0
  0
LINE
  5
1F8
  8
0
  6
CONTINUOUS
 62
     7
 10
14.6397360238
 20
194.1472669192
 30
0.0
 11
15.6397361877
 21
194.1559952744
 31
0.0
  0
LINE
  5
1F9
  8
0
  6
CONTINUOUS
 62
     7
 10
14.6397360238
 20
194.1472669192
 30
0.0
 11
14.6397360238
 21
194.1996295996
 31
0.0
  0
LINE
  5
1FA
  8
0
  6
CONTINUOUS
 62
     7
 10
15.6397361877
 20
123.2516323276
 30
0.0
 11
15.1397361058
 21
122.7516313143
 31
0.0
  0
LINE
  5
1FB
  8
0
  6
CONTINUOUS
 62
     7
 10
15.6397361877
 20
123.2516323276
 30
0.0
 11
43.43973552910001
 21
123.2516323276
 31
0.0
  0
LINE
  5
1FC
  8
0
  6
CONTINUOUS
 62
     7
 10
43.93973561110001
 20
122.7516313143
 30
0.0
 11
43.43973552910001
 21
123.2516323276
 31
0.0
  0
LINE
  5
1FD
  8
0
  6
CONTINUOUS
 62
     7
 10
43.93973561110001
 20
122.7516313143
 30
0.0
 11
43.43973552910001
 21
122.2516303011
 31
0.0
  0
LINE
  5
1FE
  8
0
  6
CONTINUOUS
 62
     7
 10
43.43973552910001
 20
122.2516303011
 30
0.0
 11
15.6397361877
 21
122.2516303011
 31
0.0
  0
LINE
  5
1FF
  8
0
  6
CONTINUOUS
 62
     7
 10
15.6397361877
 20
122.2516303011
 30
0.0
 11
15.1397361058
 21
122.7516313143
 31
0.0
  0
LINE
  5
200
  8
0
  6
CONTINUOUS
 62
     7
 10
44.439735693
 20
123.2516323276
 30
0.0
 11
43.93973561110001
 21
122.7516313143
 31
0.0
  0
LINE
  5
201
  8
0
  6
CONTINUOUS
 62
     7
 10
43.43973552910001
 20
123.2516323276
 30
0.0
 11
43.43973552910001
 21
194.1559952744
 31
0.0
  0
LINE
  5
202
  8
0
  6
CONTINUOUS
 62
     7
 10
44.439735693
 20
194.1472669192
 30
0.0
 11
44.439735693
 21
123.2516323276
 31
0.0
  0
LINE
  5
203
  8
0
  6
CONTINUOUS
 62
     7
 10
15.6397361877
 20
194.1559952744
 30
0.0
 11
15.6397361877
 21
123.2516323276
 31
0.0
  0
LINE
  5
204
  8
0
  6
CONTINUOUS
 62
     7
 10
15.1397361058
 20
122.7516313143
 30
0.0
 11
14.6397360238
 21
123.2516323276
 31
0.0
  0
LINE
  5
205
  8
0
  6
CONTINUOUS
 62
     7
 10
14.6397360238
 20
123.2516323276
 30
0.0
 11
14.6397360238
 21
194.1472669192
 31
0.0
  0
LINE
  5
206
  8
0
  6
CONTINUOUS
 62
     7
 10
42.4484637204
 20
124.2429022737
 30
0.0
 11
42.4484637204
 21
194.1559952744
 31
0.0
  0
LINE
  5
207
  8
0
  6
CONTINUOUS
 62
     7
 10
16.6310079965
 20
194.1559952744
 30
0.0
 11
16.6310079965
 21
124.2429022737
 31
0.0
  0
LINE
  5
208
  8
0
  6
CONTINUOUS
 62
     7
 10
16.6310079965
 20
124.2429022737
 30
0.0
 11
42.4484637204
 21
124.2429022737
 31
0.0
  0
LINE
  5
209
  8
0
  6
CONTINUOUS
 62
     7
 10
16.6397354203
 20
124.2516306289
 30
0.0
 11
16.6310079965
 21
124.2429022737
 31
0.0
  0
LINE
  5
20A
  8
0
  6
CONTINUOUS
 62
     7
 10
16.6397354203
 20
124.2516306289
 30
0.0
 11
42.4397362965
 21
124.2516306289
 31
0.0
  0
LINE
  5
20B
  8
0
  6
CONTINUOUS
 62
     7
 10
42.4397362965
 20
124.2516306289
 30
0.0
 11
42.4484637204
 21
124.2429022737
 31
0.0
  0
LINE
  5
20C
  8
0
  6
CONTINUOUS
 62
     7
 10
16.6397354203
 20
194.1516310968
 30
0.0
 11
16.6397354203
 21
124.2516306289
 31
0.0
  0
LINE
  5
20D
  8
0
  6
CONTINUOUS
 62
     7
 10
42.4397362965
 20
124.2516306289
 30
0.0
 11
42.4397362965
 21
194.1516310968
 31
0.0
  0
LINE
  5
20E
  8
0
  6
CONTINUOUS
 62
     7
 10
15.6397361877
 20
122.2516303011
 30
0.0
 11
14.6397360238
 21
122.2516303011
 31
0.0
  0
LINE
  5
20F
  8
0
  6
CONTINUOUS
 62
     7
 10
14.6397360238
 20
122.2516303011
 30
0.0
 11
14.6397360238
 21
123.2516323276
 31
0.0
  0
LINE
  5
210
  8
0
  6
CONTINUOUS
 62
     7
 10
43.43973552910001
 20
122.2516303011
 30
0.0
 11
44.439735693
 21
122.2516303011
 31
0.0
  0
LINE
  5
211
  8
0
  6
CONTINUOUS
 62
     7
 10
44.439735693
 20
122.2516303011
 30
0.0
 11
44.439735693
 21
123.2516323276
 31
0.0
  0
LINE
  5
212
  8
0
  6
CONTINUOUS
 62
     7
 10
22.083373611
 20
120.2952680238
 30
0.0
 11
36.9960981059
 21
120.2952680238
 31
0.0
  0
LINE
  5
213
  8
0
  6
CONTINUOUS
 62
     7
 10
36.9960981059
 20
120.2952680238
 30
0.0
 11
37.0397356908
 21
120.2516299732
 31
0.0
  0
LINE
  5
214
  8
0
  6
CONTINUOUS
 62
     7
 10
22.0397360261
 20
120.2516299732
 30
0.0
 11
37.0397356908
 21
120.2516299732
 31
0.0
  0
LINE
  5
215
  8
0
  6
CONTINUOUS
 62
     7
 10
22.083373611
 20
120.2952680238
 30
0.0
 11
22.0397360261
 21
120.2516299732
 31
0.0
  0
LINE
  5
216
  8
0
  6
CONTINUOUS
 62
     7
 10
39.5397356349
 20
119.251631672
 30
0.0
 11
39.5397356349
 21
122.2516303011
 31
0.0
  0
LINE
  5
217
  8
0
  6
CONTINUOUS
 62
     7
 10
38.539735471
 20
118.2516296454
 30
0.0
 11
39.5397356349
 21
119.251631672
 31
0.0
  0
LINE
  5
218
  8
0
  6
CONTINUOUS
 62
     7
 10
20.5397362459
 20
118.2516296454
 30
0.0
 11
38.539735471
 21
118.2516296454
 31
0.0
  0
LINE
  5
219
  8
0
  6
CONTINUOUS
 62
     7
 10
19.53973608200001
 20
119.251631672
 30
0.0
 11
20.5397362459
 21
118.2516296454
 31
0.0
  0
LINE
  5
21A
  8
0
  6
CONTINUOUS
 62
     7
 10
19.53973608200001
 20
122.2516303011
 30
0.0
 11
19.53973608200001
 21
119.251631672
 31
0.0
  0
LINE
  5
21B
  8
0
  6
CONTINUOUS
 62
     7
 10
22.0397360261
 20
122.2516303011
 30
0.0
 11
22.0397360261
 21
120.2516299732
 31
0.0
  0
LINE
  5
21C
  8
0
  6
CONTINUOUS
 62
     7
 10
37.0397356908
 20
120.2516299732
 30
0.0
 11
37.0397356908
 21
122.2516303011
 31
0.0
  0
LINE
  5
21D
  8
0
  6
CONTINUOUS
 62
     7
 10
22.083373611
 20
122.2079922505
 30
0.0
 11
22.083373611
 21
120.2952680238
 31
0.0
  0
LINE
  5
21E
  8
0
  6
CONTINUOUS
 62
     7
 10
22.083373611
 20
122.2079922505
 30
0.0
 11
22.0397360261
 21
122.2516303011
 31
0.0
  0
LINE
  5
21F
  8
0
  6
CONTINUOUS
 62
     7
 10
36.9960981059
 20
120.2952680238
 30
0.0
 11
36.9960981059
 21
122.2079922505
 31
0.0
  0
LINE
  5
220
  8
0
  6
CONTINUOUS
 62
     7
 10
36.9960981059
 20
122.2079922505
 30
0.0
 11
37.0397356908
 21
122.2516303011
 31
0.0
  0
LINE
  5
221
  8
0
  6
CONTINUOUS
 62
     7
 10
36.9960981059
 20
122.2079922505
 30
0.0
 11
22.083373611
 21
122.2079922505
 31
0.0
  0
LINE
  5
222
  8
0
  6
CONTINUOUS
 62
     7
 10
14.53973619369999
 20
126.2516309567
 30
0.0
 11
14.53973619369999
 21
122.2516303011
 31
0.0
  0
LINE
  5
223
  8
0
  6
CONTINUOUS
 62
     7
 10
44.53973552319999
 20
122.2516303011
 30
0.0
 11
44.53973552319999
 21
126.2516309567
 31
0.0
  0
LINE
  5
224
  8
0
  6
CONTINUOUS
 62
     7
 10
33.0048258054
 20
222.7516328045
 30
0.0
 11
26.0746459114
 21
222.7516328045
 31
0.0
  0
LINE
  5
225
  8
0
  6
CONTINUOUS
 62
     7
 10
26.0746459114
 20
222.7516328045
 30
0.0
 11
26.0659184876
 21
222.2516317912
 31
0.0
  0
LINE
  5
226
  8
0
  6
CONTINUOUS
 62
     7
 10
33.0048258054
 20
222.7516328045
 30
0.0
 11
33.0135532293
 21
222.2516317912
 31
0.0
  0
LINE
  5
227
  8
0
  6
CONTINUOUS
 62
     7
 10
44.5257731351
 20
189.8516309508
 30
0.0
 11
44.53973552319999
 21
189.8795594521
 31
0.0
  0
LINE
  5
228
  8
0
  6
CONTINUOUS
 62
     7
 10
44.5257731351
 20
189.8516309508
 30
0.0
 11
44.439735693
 21
189.8516309508
 31
0.0
  0
LINE
  5
229
  8
0
  6
CONTINUOUS
 62
     7
 10
44.53973552319999
 20
189.8795594521
 30
0.0
 11
44.439735693
 21
189.8795594521
 31
0.0
  0
LINE
  5
22A
  8
0
  6
CONTINUOUS
 62
     7
 10
15.5397354263
 20
222.2516317912
 30
0.0
 11
14.53973619369999
 21
221.2516297646
 31
0.0
  0
LINE
  5
22B
  8
0
  6
CONTINUOUS
 62
     7
 10
14.6397360238
 20
189.8795594521
 30
0.0
 11
14.53973619369999
 21
189.8795594521
 31
0.0
  0
LINE
  5
22C
  8
0
  6
CONTINUOUS
 62
     7
 10
14.53973619369999
 20
221.2516297646
 30
0.0
 11
14.53973619369999
 21
189.8795594521
 31
0.0
  0
LINE
  5
22D
  8
0
  6
CONTINUOUS
 62
     7
 10
15.6397361877
 20
222.2516317912
 30
0.0
 11
15.5397354263
 21
222.2516317912
 31
0.0
  0
LINE
  5
22E
  8
0
  6
CONTINUOUS
 62
     7
 10
14.5536985817
 20
189.8516309508
 30
0.0
 11
14.53973619369999
 21
189.8795594521
 31
0.0
  0
LINE
  5
22F
  8
0
  6
CONTINUOUS
 62
     7
 10
14.6397360238
 20
189.8516309508
 30
0.0
 11
14.5536985817
 21
189.8516309508
 31
0.0
  0
LINE
  5
230
  8
0
  6
CONTINUOUS
 62
     7
 10
14.5536985817
 20
154.6516311415
 30
0.0
 11
14.53973619369999
 21
154.6237026401
 31
0.0
  0
LINE
  5
231
  8
0
  6
CONTINUOUS
 62
     7
 10
14.5536985817
 20
154.6516311415
 30
0.0
 11
14.6397360238
 21
154.6516311415
 31
0.0
  0
LINE
  5
232
  8
0
  6
CONTINUOUS
 62
     7
 10
14.53973619369999
 20
154.6237026401
 30
0.0
 11
14.6397360238
 21
154.6237026401
 31
0.0
  0
LINE
  5
233
  8
0
  6
CONTINUOUS
 62
     7
 10
44.439735693
 20
154.6237026401
 30
0.0
 11
44.53973552319999
 21
154.6237026401
 31
0.0
  0
LINE
  5
234
  8
0
  6
CONTINUOUS
 62
     7
 10
44.53973552319999
 20
127.9298779615
 30
0.0
 11
44.439735693
 21
127.9298779615
 31
0.0
  0
LINE
  5
235
  8
0
  6
CONTINUOUS
 62
     7
 10
44.53973552319999
 20
127.9298779615
 30
0.0
 11
44.53973552319999
 21
154.6237026401
 31
0.0
  0
LINE
  5
236
  8
0
  6
CONTINUOUS
 62
     7
 10
14.53973619369999
 20
154.6237026401
 30
0.0
 11
14.53973619369999
 21
127.9298779615
 31
0.0
  0
LINE
  5
237
  8
0
  6
CONTINUOUS
 62
     7
 10
14.53973619369999
 20
127.9298779615
 30
0.0
 11
14.6397360238
 21
127.9298779615
 31
0.0
  0
LINE
  5
238
  8
0
  6
CONTINUOUS
 62
     7
 10
44.439735693
 20
154.6516311415
 30
0.0
 11
44.5257731351
 21
154.6516311415
 31
0.0
  0
LINE
  5
239
  8
0
  6
CONTINUOUS
 62
     7
 10
44.5257731351
 20
154.6516311415
 30
0.0
 11
44.53973552319999
 21
154.6237026401
 31
0.0
  0
LINE
  5
23A
  8
0
  6
CONTINUOUS
 62
     7
 10
44.53973552319999
 20
221.2516297646
 30
0.0
 11
43.5397362906
 21
222.2516317912
 31
0.0
  0
LINE
  5
23B
  8
0
  6
CONTINUOUS
 62
     7
 10
44.53973552319999
 20
189.8795594521
 30
0.0
 11
44.53973552319999
 21
221.2516297646
 31
0.0
  0
LINE
  5
23C
  8
0
  6
CONTINUOUS
 62
     7
 10
43.5397362906
 20
222.2516317912
 30
0.0
 11
43.43973552910001
 21
222.2516317912
 31
0.0
  0
LINE
  5
23D
  8
0
  6
CONTINUOUS
 62
     7
 10
26.1095560725
 20
224.751629407
 30
0.0
 11
32.9699156444
 21
224.751629407
 31
0.0
  0
LINE
  5
23E
  8
0
  6
CONTINUOUS
 62
     7
 10
26.1095560725
 20
224.751629407
 30
0.0
 11
26.0746459114
 21
222.7516328045
 31
0.0
  0
LINE
  5
23F
  8
0
  6
CONTINUOUS
 62
     7
 10
33.0048258054
 20
222.7516328045
 30
0.0
 11
32.9699156444
 21
224.751629407
 31
0.0
  0
LINE
  5
240
  8
0
  6
CONTINUOUS
 62
     7
 10
14.5536985817
 20
189.8516309508
 30
0.0
 11
14.5536985817
 21
189.7516311206
 31
0.0
  0
LINE
  5
241
  8
0
  6
CONTINUOUS
 62
     7
 10
14.5536985817
 20
154.7516309716
 30
0.0
 11
14.5536985817
 21
154.6516311415
 31
0.0
  0
LINE
  5
242
  8
0
  6
CONTINUOUS
 62
     7
 10
44.5257731351
 20
154.6516311415
 30
0.0
 11
44.5257731351
 21
154.801631818
 31
0.0
  0
LINE
  5
243
  8
0
  6
CONTINUOUS
 62
     7
 10
44.5257731351
 20
189.7016302742
 30
0.0
 11
44.5257731351
 21
189.8516309508
 31
0.0
  0
LINE
  5
244
  8
0
  6
CONTINUOUS
 62
     7
 10
42.239735705
 20
220.0516318031
 30
0.0
 11
16.8397360119
 21
220.0516318031
 31
0.0
  0
LINE
  5
245
  8
0
  6
CONTINUOUS
 62
     7
 10
42.239735705
 20
195.8516319342
 30
0.0
 11
42.239735705
 21
220.0516318031
 31
0.0
  0
LINE
  5
246
  8
0
  6
CONTINUOUS
 62
     7
 10
24.73973563040001
 20
209.251631523
 30
0.0
 11
20.9397355664
 21
209.251631523
 31
0.0
  0
LINE
  5
247
  8
0
  6
CONTINUOUS
 62
     7
 10
16.8397360119
 20
220.0516318031
 30
0.0
 11
16.8397360119
 21
195.8516319342
 31
0.0
  0
LINE
  5
248
  8
0
  6
CONTINUOUS
 62
     7
 10
16.8397360119
 20
195.8516319342
 30
0.0
 11
42.239735705
 21
195.8516319342
 31
0.0
  0
LINE
  5
249
  8
0
  6
CONTINUOUS
 62
     7
 10
20.9397355664
 20
200.2516319104
 30
0.0
 11
24.73973563040001
 21
200.2516319104
 31
0.0
  0
LINE
  5
24A
  8
0
  6
CONTINUOUS
 62
     7
 10
24.73973563040001
 20
200.2516319104
 30
0.0
 11
24.73973563040001
 21
209.251631523
 31
0.0
  0
LINE
  5
24B
  8
0
  6
CONTINUOUS
 62
     7
 10
20.9397355664
 20
209.251631523
 30
0.0
 11
20.9397355664
 21
200.2516319104
 31
0.0
  0
LINE
  5
24C
  8
0
  6
CONTINUOUS
 62
     7
 10
21.5647359016
 20
209.251631523
 30
0.0
 11
21.5647359016
 21
208.6516325422
 31
0.0
  0
LINE
  5
24D
  8
0
  6
CONTINUOUS
 62
     7
 10
22.66473589570001
 20
209.1516298302
 30
0.0
 11
24.73973563040001
 21
209.1516298302
 31
0.0
  0
LINE
  5
24E
  8
0
  6
CONTINUOUS
 62
     7
 10
22.66473589570001
 20
209.251631523
 30
0.0
 11
22.66473589570001
 21
209.1516298302
 31
0.0
  0
LINE
  5
24F
  8
0
  6
CONTINUOUS
 62
     7
 10
24.02068335670001
 20
208.0516298361
 30
0.0
 11
24.73973563040001
 21
208.0516298361
 31
0.0
  0
LINE
  5
250
  8
0
  6
CONTINUOUS
 62
     7
 10
21.53973547850001
 20
202.1766309686
 30
0.0
 11
21.58973539350001
 21
202.1766309686
 31
0.0
  0
LINE
  5
251
  8
0
  6
CONTINUOUS
 62
     7
 10
21.71473564679999
 20
200.576631824
 30
0.0
 11
21.71473564679999
 21
200.3266313173
 31
0.0
  0
LINE
  5
252
  8
0
  6
CONTINUOUS
 62
     7
 10
21.71473564679999
 20
200.3266313173
 30
0.0
 11
21.53973547850001
 21
200.3266313173
 31
0.0
  0
LINE
  5
253
  8
0
  6
CONTINUOUS
 62
     7
 10
21.53973547850001
 20
200.576631824
 30
0.0
 11
21.71473564679999
 21
200.576631824
 31
0.0
  0
LINE
  5
254
  8
0
  6
CONTINUOUS
 62
     7
 10
21.8147359426
 20
200.2516319104
 30
0.0
 11
21.8147359426
 21
200.8516308911
 31
0.0
  0
LINE
  5
255
  8
0
  6
CONTINUOUS
 62
     7
 10
21.8147359426
 20
200.3266313173
 30
0.0
 11
21.71473564679999
 21
200.3266313173
 31
0.0
  0
LINE
  5
256
  8
0
  6
CONTINUOUS
 62
     7
 10
21.71473564679999
 20
200.576631824
 30
0.0
 11
21.8147359426
 21
200.576631824
 31
0.0
  0
LINE
  5
257
  8
0
  6
CONTINUOUS
 62
     7
 10
22.73973576829999
 20
200.751631061
 30
0.0
 11
22.73973576829999
 21
201.0146514573
 31
0.0
  0
LINE
  5
258
  8
0
  6
CONTINUOUS
 62
     7
 10
22.73973576829999
 20
201.0146514573
 30
0.0
 11
23.4397359762
 21
201.0146514573
 31
0.0
  0
LINE
  5
259
  8
0
  6
CONTINUOUS
 62
     7
 10
23.4397359762
 20
200.751631061
 30
0.0
 11
22.73973576829999
 21
200.751631061
 31
0.0
  0
LINE
  5
25A
  8
0
  6
CONTINUOUS
 62
     7
 10
23.4397359762
 20
201.0146514573
 30
0.0
 11
23.4397359762
 21
200.751631061
 31
0.0
  0
LINE
  5
25B
  8
0
  6
CONTINUOUS
 62
     7
 10
22.73973576829999
 20
201.0146514573
 30
0.0
 11
22.73973576829999
 21
201.3026145347
 31
0.0
  0
LINE
  5
25C
  8
0
  6
CONTINUOUS
 62
     7
 10
23.4397359762
 20
201.301631058
 30
0.0
 11
22.763999981
 21
201.301631058
 31
0.0
  0
LINE
  5
25D
  8
0
  6
CONTINUOUS
 62
     7
 10
23.4397359762
 20
201.301631058
 30
0.0
 11
23.4397359762
 21
201.0146514573
 31
0.0
  0
LINE
  5
25E
  8
0
  6
CONTINUOUS
 62
     7
 10
21.314735395
 20
202.2516303756
 30
0.0
 11
21.314735395
 21
204.7266294308
 31
0.0
  0
LINE
  5
25F
  8
0
  6
CONTINUOUS
 62
     7
 10
21.5693543303
 20
202.2516303756
 30
0.0
 11
21.5693543303
 21
204.7266294308
 31
0.0
  0
LINE
  5
260
  8
0
  6
CONTINUOUS
 62
     7
 10
21.5693543303
 20
202.2516303756
 30
0.0
 11
21.314735395
 21
202.2516303756
 31
0.0
  0
LINE
  5
261
  8
0
  6
CONTINUOUS
 62
     7
 10
21.314735395
 20
204.7266294308
 30
0.0
 11
21.5693543303
 21
204.7266294308
 31
0.0
  0
LINE
  5
262
  8
0
  6
CONTINUOUS
 62
     7
 10
23.4397359762
 20
208.2016323753
 30
0.0
 11
22.763999981
 21
208.2016323753
 31
0.0
  0
LINE
  5
263
  8
0
  6
CONTINUOUS
 62
     7
 10
22.73973576829999
 20
208.4886101134
 30
0.0
 11
22.73973576829999
 21
208.2006488987
 31
0.0
  0
LINE
  5
264
  8
0
  6
CONTINUOUS
 62
     7
 10
23.4397359762
 20
208.4886101134
 30
0.0
 11
22.73973576829999
 21
208.4886101134
 31
0.0
  0
LINE
  5
265
  8
0
  6
CONTINUOUS
 62
     7
 10
23.4397359762
 20
208.4886101134
 30
0.0
 11
23.4397359762
 21
208.2016323753
 31
0.0
  0
LINE
  5
266
  8
0
  6
CONTINUOUS
 62
     7
 10
21.8897358152
 20
207.2516311951
 30
0.0
 11
21.8897358152
 21
204.7766302772
 31
0.0
  0
LINE
  5
267
  8
0
  6
CONTINUOUS
 62
     7
 10
21.5693543303
 20
204.7766302772
 30
0.0
 11
21.8897358152
 21
204.7766302772
 31
0.0
  0
LINE
  5
268
  8
0
  6
CONTINUOUS
 62
     7
 10
21.5693543303
 20
204.7766302772
 30
0.0
 11
21.5693543303
 21
207.2516311951
 31
0.0
  0
LINE
  5
269
  8
0
  6
CONTINUOUS
 62
     7
 10
21.5693543303
 20
207.2516311951
 30
0.0
 11
21.8897358152
 21
207.2516311951
 31
0.0
  0
LINE
  5
26A
  8
0
  6
CONTINUOUS
 62
     7
 10
24.0601178828
 20
201.6516313948
 30
0.0
 11
24.0601178828
 21
207.8516301759
 31
0.0
  0
LINE
  5
26B
  8
0
  6
CONTINUOUS
 62
     7
 10
23.73973593220001
 20
207.8516301759
 30
0.0
 11
23.73973593220001
 21
201.6516313948
 31
0.0
  0
LINE
  5
26C
  8
0
  6
CONTINUOUS
 62
     7
 10
24.0601178828
 20
201.6516313948
 30
0.0
 11
23.73973593220001
 21
201.6516313948
 31
0.0
  0
LINE
  5
26D
  8
0
  6
CONTINUOUS
 62
     7
 10
23.73973593220001
 20
207.8516301759
 30
0.0
 11
24.0601178828
 21
207.8516301759
 31
0.0
  0
LINE
  5
26E
  8
0
  6
CONTINUOUS
 62
     7
 10
24.31473588670001
 20
201.6516313948
 30
0.0
 11
24.31473588670001
 21
207.8516301759
 31
0.0
  0
LINE
  5
26F
  8
0
  6
CONTINUOUS
 62
     7
 10
24.0601178828
 20
201.6516313948
 30
0.0
 11
24.31473588670001
 21
201.6516313948
 31
0.0
  0
LINE
  5
270
  8
0
  6
CONTINUOUS
 62
     7
 10
24.0601178828
 20
207.8516301759
 30
0.0
 11
24.31473588670001
 21
207.8516301759
 31
0.0
  0
LINE
  5
271
  8
0
  6
CONTINUOUS
 62
     7
 10
21.8897358152
 20
204.7266294308
 30
0.0
 11
21.8897358152
 21
202.2516303756
 31
0.0
  0
LINE
  5
272
  8
0
  6
CONTINUOUS
 62
     7
 10
21.8897358152
 20
202.2516303756
 30
0.0
 11
21.5693543303
 21
202.2516303756
 31
0.0
  0
LINE
  5
273
  8
0
  6
CONTINUOUS
 62
     7
 10
21.8897358152
 20
204.7266294308
 30
0.0
 11
21.5693543303
 21
204.7266294308
 31
0.0
  0
LINE
  5
274
  8
0
  6
CONTINUOUS
 62
     7
 10
22.73973576829999
 20
208.7516305097
 30
0.0
 11
23.4397359762
 21
208.7516305097
 31
0.0
  0
LINE
  5
275
  8
0
  6
CONTINUOUS
 62
     7
 10
23.4397359762
 20
208.7516305097
 30
0.0
 11
23.4397359762
 21
208.4886101134
 31
0.0
  0
LINE
  5
276
  8
0
  6
CONTINUOUS
 62
     7
 10
22.73973576829999
 20
208.7516305097
 30
0.0
 11
22.73973576829999
 21
208.4886101134
 31
0.0
  0
LINE
  5
277
  8
0
  6
CONTINUOUS
 62
     7
 10
21.314735395
 20
204.7766302772
 30
0.0
 11
21.314735395
 21
207.2516311951
 31
0.0
  0
LINE
  5
278
  8
0
  6
CONTINUOUS
 62
     7
 10
21.5693543303
 20
207.2516311951
 30
0.0
 11
21.314735395
 21
207.2516311951
 31
0.0
  0
LINE
  5
279
  8
0
  6
CONTINUOUS
 62
     7
 10
21.5693543303
 20
204.7766302772
 30
0.0
 11
21.314735395
 21
204.7766302772
 31
0.0
  0
LINE
  5
27A
  8
0
  6
CONTINUOUS
 62
     7
 10
22.5518679815
 20
208.113763953
 30
0.0
 11
21.8897358152
 21
207.4516308554
 31
0.0
  0
LINE
  5
27B
  8
0
  6
CONTINUOUS
 62
     7
 10
21.58973539350001
 20
207.2516311951
 30
0.0
 11
21.58973539350001
 21
207.3273663469
 31
0.0
  0
LINE
  5
27C
  8
0
  6
CONTINUOUS
 62
     7
 10
22.3397359821
 20
208.3258968838
 30
0.0
 11
21.76547177240001
 21
207.7516322084
 31
0.0
  0
LINE
  5
27D
  8
0
  6
CONTINUOUS
 62
     7
 10
21.8897358152
 20
207.4516308554
 30
0.0
 11
21.8897358152
 21
207.2516311951
 31
0.0
  0
LINE
  5
27E
  8
0
  6
CONTINUOUS
 62
     7
 10
21.58973539350001
 20
204.7266294308
 30
0.0
 11
21.58973539350001
 21
204.7766302772
 31
0.0
  0
LINE
  5
27F
  8
0
  6
CONTINUOUS
 62
     7
 10
21.8897358152
 20
204.7266294308
 30
0.0
 11
21.8897358152
 21
204.7766302772
 31
0.0
  0
LINE
  5
280
  8
0
  6
CONTINUOUS
 62
     7
 10
24.0397358882
 20
201.6516313948
 30
0.0
 11
24.0397358882
 21
201.6016305484
 31
0.0
  0
LINE
  5
281
  8
0
  6
CONTINUOUS
 62
     7
 10
23.4397359762
 20
201.301631058
 30
0.0
 11
23.73973593220001
 21
201.301631058
 31
0.0
  0
LINE
  5
282
  8
0
  6
CONTINUOUS
 62
     7
 10
23.73973593220001
 20
201.6516313948
 30
0.0
 11
23.73973593220001
 21
201.301631058
 31
0.0
  0
LINE
  5
283
  8
0
  6
CONTINUOUS
 62
     7
 10
24.0397358882
 20
207.9016310223
 30
0.0
 11
24.0397358882
 21
207.8516301759
 31
0.0
  0
LINE
  5
284
  8
0
  6
CONTINUOUS
 62
     7
 10
23.4397359762
 20
208.2016323753
 30
0.0
 11
23.73973593220001
 21
208.2016323753
 31
0.0
  0
LINE
  5
285
  8
0
  6
CONTINUOUS
 62
     7
 10
23.73973593220001
 20
207.8516301759
 30
0.0
 11
23.73973593220001
 21
208.2016323753
 31
0.0
  0
LINE
  5
286
  8
0
  6
CONTINUOUS
 62
     7
 10
22.5518679815
 20
201.3894994803
 30
0.0
 11
21.8897358152
 21
202.0516307153
 31
0.0
  0
LINE
  5
287
  8
0
  6
CONTINUOUS
 62
     7
 10
21.58973539350001
 20
202.1758952238
 30
0.0
 11
21.58973539350001
 21
202.2516303756
 31
0.0
  0
LINE
  5
288
  8
0
  6
CONTINUOUS
 62
     7
 10
21.76547177240001
 20
201.7516312249
 30
0.0
 11
22.3397359821
 21
201.1773665496
 31
0.0
  0
LINE
  5
289
  8
0
  6
CONTINUOUS
 62
     7
 10
21.8897358152
 20
202.2516303756
 30
0.0
 11
21.8897358152
 21
202.0516307153
 31
0.0
  0
LINE
  5
28A
  8
0
  6
CONTINUOUS
 62
     7
 10
23.4897358912
 20
203.0016318955
 30
0.0
 11
23.4897358912
 21
206.5016296752
 31
0.0
  0
LINE
  5
28B
  8
0
  6
CONTINUOUS
 62
     7
 10
22.8897359791
 20
206.5016296752
 30
0.0
 11
23.4897358912
 21
206.5016296752
 31
0.0
  0
LINE
  5
28C
  8
0
  6
CONTINUOUS
 62
     7
 10
23.4897358912
 20
203.0016318955
 30
0.0
 11
22.8897359791
 21
203.0016318955
 31
0.0
  0
LINE
  5
28D
  8
0
  6
CONTINUOUS
 62
     7
 10
22.8897359791
 20
206.5016296752
 30
0.0
 11
22.8897359791
 21
203.0016318955
 31
0.0
  0
LINE
  5
28E
  8
0
  6
CONTINUOUS
 62
     7
 10
21.53973547850001
 20
208.6516325422
 30
0.0
 11
21.8397359002
 21
208.6516325422
 31
0.0
  0
LINE
  5
28F
  8
0
  6
CONTINUOUS
 62
     7
 10
21.8397359002
 20
208.5516308494
 30
0.0
 11
21.53973547850001
 21
208.5516308494
 31
0.0
  0
LINE
  5
290
  8
0
  6
CONTINUOUS
 62
     7
 10
21.8397359002
 20
208.6516325422
 30
0.0
 11
21.8397359002
 21
208.5516308494
 31
0.0
  0
LINE
  5
291
  8
0
  6
CONTINUOUS
 62
     7
 10
21.53973547850001
 20
207.4066293486
 30
0.0
 11
21.58973539350001
 21
207.3566322275
 31
0.0
  0
LINE
  5
292
  8
0
  6
CONTINUOUS
 62
     7
 10
21.8397359002
 20
207.8258958705
 30
0.0
 11
21.8397359002
 21
208.5516308494
 31
0.0
  0
LINE
  5
293
  8
0
  6
CONTINUOUS
 62
     7
 10
21.8397359002
 20
201.6773675628
 30
0.0
 11
21.8397359002
 21
200.9516307213
 31
0.0
  0
LINE
  5
294
  8
0
  6
CONTINUOUS
 62
     7
 10
21.53973547850001
 20
200.9516307213
 30
0.0
 11
21.8397359002
 21
200.9516307213
 31
0.0
  0
LINE
  5
295
  8
0
  6
CONTINUOUS
 62
     7
 10
21.53973547850001
 20
202.0966303595
 30
0.0
 11
21.58973539350001
 21
202.1466312059
 31
0.0
  0
LINE
  5
296
  8
0
  6
CONTINUOUS
 62
     7
 10
21.8397359002
 20
200.8516308911
 30
0.0
 11
21.53973547850001
 21
200.8516308911
 31
0.0
  0
LINE
  5
297
  8
0
  6
CONTINUOUS
 62
     7
 10
21.8397359002
 20
200.9516307213
 30
0.0
 11
21.8397359002
 21
200.8516308911
 31
0.0
  0
LINE
  5
298
  8
0
  6
CONTINUOUS
 62
     7
 10
22.18973577129999
 20
201.0016315677
 30
0.0
 11
22.73973576829999
 21
201.0016315677
 31
0.0
  0
LINE
  5
299
  8
0
  6
CONTINUOUS
 62
     7
 10
22.2154719393
 20
201.301631058
 30
0.0
 11
21.8897358152
 21
201.301631058
 31
0.0
  0
LINE
  5
29A
  8
0
  6
CONTINUOUS
 62
     7
 10
21.8897358152
 20
201.301631058
 30
0.0
 11
21.8897358152
 21
201.6273667164
 31
0.0
  0
LINE
  5
29B
  8
0
  6
CONTINUOUS
 62
     7
 10
22.73973576829999
 20
208.501630003
 30
0.0
 11
22.18973577129999
 21
208.501630003
 31
0.0
  0
LINE
  5
29C
  8
0
  6
CONTINUOUS
 62
     7
 10
21.8897358152
 20
208.2016323753
 30
0.0
 11
22.2154719393
 21
208.2016323753
 31
0.0
  0
LINE
  5
29D
  8
0
  6
CONTINUOUS
 62
     7
 10
21.8897358152
 20
207.8758967169
 30
0.0
 11
21.8897358152
 21
208.2016323753
 31
0.0
  0
LINE
  5
29E
  8
0
  6
CONTINUOUS
 62
     7
 10
21.5447357494
 20
207.401630009
 30
0.0
 11
21.53973547850001
 21
207.401630009
 31
0.0
  0
LINE
  5
29F
  8
0
  6
CONTINUOUS
 62
     7
 10
21.53973547850001
 20
202.1016315617
 30
0.0
 11
21.5447357494
 21
202.1016315617
 31
0.0
  0
LINE
  5
2A0
  8
0
  6
CONTINUOUS
 62
     7
 10
44.53973552319999
 20
187.7516307928
 30
0.0
 11
44.53973552319999
 21
189.7016302742
 31
0.0
  0
LINE
  5
2A1
  8
0
  6
CONTINUOUS
 62
     7
 10
44.53973552319999
 20
158.2016306989
 30
0.0
 11
44.53973552319999
 21
186.3016313933
 31
0.0
  0
LINE
  5
2A2
  8
0
  6
CONTINUOUS
 62
     7
 10
44.53973552319999
 20
158.2016306989
 30
0.0
 11
44.439735693
 21
158.2016306989
 31
0.0
  0
LINE
  5
2A3
  8
0
  6
CONTINUOUS
 62
     7
 10
44.53973552319999
 20
187.7516307928
 30
0.0
 11
44.439735693
 21
187.7516307928
 31
0.0
  0
LINE
  5
2A4
  8
0
  6
CONTINUOUS
 62
     7
 10
44.439735693
 20
156.7516312994
 30
0.0
 11
44.53973552319999
 21
156.7516312994
 31
0.0
  0
LINE
  5
2A5
  8
0
  6
CONTINUOUS
 62
     7
 10
44.53973552319999
 20
154.801631818
 30
0.0
 11
44.53973552319999
 21
156.7516312994
 31
0.0
  0
LINE
  5
2A6
  8
0
  6
CONTINUOUS
 62
     7
 10
44.439735693
 20
186.3016313933
 30
0.0
 11
44.53973552319999
 21
186.3016313933
 31
0.0
  0
LINE
  5
2A7
  8
0
  6
CONTINUOUS
 62
     7
 10
44.53973552319999
 20
154.801631818
 30
0.0
 11
44.439735693
 21
154.801631818
 31
0.0
  0
LINE
  5
2A8
  8
0
  6
CONTINUOUS
 62
     7
 10
44.53973552319999
 20
189.7016302742
 30
0.0
 11
44.439735693
 21
189.7016302742
 31
0.0
  0
LINE
  5
2A9
  8
0
  6
CONTINUOUS
 62
     7
 10
44.53973552319999
 20
156.7516312994
 30
0.0
 11
44.53973552319999
 21
158.2016306989
 31
0.0
  0
LINE
  5
2AA
  8
0
  6
CONTINUOUS
 62
     7
 10
44.53973552319999
 20
186.3016313933
 30
0.0
 11
44.53973552319999
 21
187.7516307928
 31
0.0
  0
LINE
  5
2AB
  8
0
  6
CONTINUOUS
 62
     7
 10
14.53973619369999
 20
158.0516309537
 30
0.0
 11
14.53973619369999
 21
186.4516311385
 31
0.0
  0
LINE
  5
2AC
  8
0
  6
CONTINUOUS
 62
     7
 10
14.53973619369999
 20
188.5516312965
 30
0.0
 11
14.53973619369999
 21
189.7516311206
 31
0.0
  0
LINE
  5
2AD
  8
0
  6
CONTINUOUS
 62
     7
 10
14.53973619369999
 20
188.5516312965
 30
0.0
 11
14.6397360238
 21
188.5516312965
 31
0.0
  0
LINE
  5
2AE
  8
0
  6
CONTINUOUS
 62
     7
 10
14.6397360238
 20
189.7516311206
 30
0.0
 11
14.53973619369999
 21
189.7516311206
 31
0.0
  0
LINE
  5
2AF
  8
0
  6
CONTINUOUS
 62
     7
 10
14.53973619369999
 20
154.7516309716
 30
0.0
 11
14.53973619369999
 21
155.9516307958
 31
0.0
  0
LINE
  5
2B0
  8
0
  6
CONTINUOUS
 62
     7
 10
14.53973619369999
 20
155.9516307958
 30
0.0
 11
14.6397360238
 21
155.9516307958
 31
0.0
  0
LINE
  5
2B1
  8
0
  6
CONTINUOUS
 62
     7
 10
14.6397360238
 20
154.7516309716
 30
0.0
 11
14.53973619369999
 21
154.7516309716
 31
0.0
  0
LINE
  5
2B2
  8
0
  6
CONTINUOUS
 62
     7
 10
37.68973584200001
 20
163.4516310610001
 30
0.0
 11
23.58973584199998
 21
163.4516310610001
 31
0.0
  0
LINE
  5
2B3
  8
0
  6
CONTINUOUS
 62
     7
 10
23.58973584199998
 20
163.4516310610001
 30
0.0
 11
23.58973584199998
 21
157.7516310610002
 31
0.0
  0
LINE
  5
2B4
  8
0
  6
CONTINUOUS
 62
     7
 10
23.58973584199998
 20
157.7516310610002
 30
0.0
 11
22.58973584199998
 21
157.7516310610002
 31
0.0
  0
LINE
  5
2B5
  8
0
  6
CONTINUOUS
 62
     7
 10
22.58973584199998
 20
157.7516310610002
 30
0.0
 11
22.58973584199998
 21
152.7516310610002
 31
0.0
  0
LINE
  5
2B6
  8
0
  6
CONTINUOUS
 62
     7
 10
22.58973584199998
 20
152.7516310610002
 30
0.0
 11
23.58973584199998
 21
152.751631061
 31
0.0
  0
LINE
  5
2B7
  8
0
  6
CONTINUOUS
 62
     7
 10
23.58973584199998
 20
152.751631061
 30
0.0
 11
23.58973584199998
 21
147.0516310610001
 31
0.0
  0
LINE
  5
2B8
  8
0
  6
CONTINUOUS
 62
     7
 10
23.58973584199998
 20
147.0516310610001
 30
0.0
 11
37.68973584200001
 21
147.0516310610001
 31
0.0
  0
LINE
  5
2B9
  8
0
  6
CONTINUOUS
 62
     7
 10
37.68973584200001
 20
147.0516310610001
 30
0.0
 11
37.68973584200001
 21
163.4516310610001
 31
0.0
  0
LINE
  5
2BC
  8
0
  6
CONTINUOUS
 62
     7
 10
24.87973162975528
 20
177.3535979923247
 30
0.0
 11
24.71573177795529
 21
177.4175984797247
 31
0.0
  0
LINE
  5
2BD
  8
0
  6
CONTINUOUS
 62
     7
 10
24.84373182135528
 20
177.6195986208247
 30
0.0
 11
24.99873183745528
 21
177.5555981335247
 31
0.0
  0
LINE
  5
2BE
  8
0
  6
CONTINUOUS
 62
     7
 10
23.51015053765528
 20
180.4261578259247
 30
0.0
 11
23.44716938285528
 21
180.2708541986247
 31
0.0
  0
LINE
  5
2BF
  8
0
  6
CONTINUOUS
 62
     7
 10
23.45119223075528
 20
177.8266726073247
 30
0.0
 11
23.33231216375528
 21
177.9450474319247
 31
0.0
  0
LINE
  5
2C0
  8
0
  6
CONTINUOUS
 62
     7
 10
23.34073178545528
 20
182.0535993215247
 30
0.0
 11
23.19573184555529
 21
181.9065993663247
 31
0.0
  0
LINE
  5
2C1
  8
0
  6
CONTINUOUS
 62
     7
 10
23.95973160935527
 20
181.4175991353246
 30
0.0
 11
23.54073191135528
 21
181.7115990457247
 31
0.0
  0
LINE
  5
2C2
  8
0
  6
CONTINUOUS
 62
     7
 10
24.52373171305528
 20
181.2605967757247
 30
0.0
 11
23.34073178545528
 21
182.0535993215247
 31
0.0
  0
LINE
  5
2C3
  8
0
  6
CONTINUOUS
 62
     7
 10
23.19573184555529
 20
181.9065993663247
 30
0.0
 11
24.00473171915527
 21
180.7325964805247
 31
0.0
  0
LINE
  5
2C4
  8
0
  6
CONTINUOUS
 62
     7
 10
24.00473171915527
 20
180.7325964805247
 30
0.0
 11
24.14473185395528
 21
180.8745970961247
 31
0.0
  0
LINE
  5
2C5
  8
0
  6
CONTINUOUS
 62
     7
 10
24.14473185395528
 20
180.8745970961247
 30
0.0
 11
23.96673189555529
 21
181.1215987441247
 31
0.0
  0
LINE
  5
2C6
  8
0
  6
CONTINUOUS
 62
     7
 10
23.96673189555529
 20
181.1215987441247
 30
0.0
 11
24.13773203345528
 21
181.2965979811247
 31
0.0
  0
LINE
  5
2C7
  8
0
  6
CONTINUOUS
 62
     7
 10
24.13773203345528
 20
181.2965979811247
 30
0.0
 11
24.38373204395528
 21
181.1185998854247
 31
0.0
  0
LINE
  5
2C8
  8
0
  6
CONTINUOUS
 62
     7
 10
24.38373204395528
 20
181.1185998854247
 30
0.0
 11
24.52373171305528
 21
181.2605967757247
 31
0.0
  0
LINE
  5
2C9
  8
0
  6
CONTINUOUS
 62
     7
 10
23.84273188265529
 20
181.2975963589247
 30
0.0
 11
23.95973160935527
 21
181.4175991353246
 31
0.0
  0
LINE
  5
2CA
  8
0
  6
CONTINUOUS
 62
     7
 10
23.54073191135528
 20
181.7115990457247
 30
0.0
 11
23.84273188265529
 21
181.2975963589247
 31
0.0
  0
LINE
  5
2CB
  8
0
  6
CONTINUOUS
 62
     7
 10
24.63273184445528
 20
181.5465984878247
 30
0.0
 11
24.81673184855528
 21
181.6245986160247
 31
0.0
  0
LINE
  5
2CC
  8
0
  6
CONTINUOUS
 62
     7
 10
24.47673158795529
 20
181.9105966028247
 30
0.0
 11
24.63273184445528
 21
181.5465984878247
 31
0.0
  0
LINE
  5
2CD
  8
0
  6
CONTINUOUS
 62
     7
 10
24.65673202725527
 20
181.9875983533247
 30
0.0
 11
24.47673158795529
 21
181.9105966028247
 31
0.0
  0
LINE
  5
2CE
  8
0
  6
CONTINUOUS
 62
     7
 10
24.37373196785528
 20
182.7115973469247
 30
0.0
 11
24.01173200535529
 21
182.5585996744246
 31
0.0
  0
LINE
  5
2CF
  8
0
  6
CONTINUOUS
 62
     7
 10
24.01173200535529
 20
182.5585996744246
 30
0.0
 11
24.56073176195528
 21
181.2705991801247
 31
0.0
  0
LINE
  5
2D0
  8
0
  6
CONTINUOUS
 62
     7
 10
24.56073176195528
 20
181.2705991801247
 30
0.0
 11
24.91073163305528
 21
181.4205979940247
 31
0.0
  0
LINE
  5
2D1
  8
0
  6
CONTINUOUS
 62
     7
 10
24.41873161195528
 20
182.4915966031247
 30
0.0
 11
24.25873179065528
 21
182.4235988793247
 31
0.0
  0
LINE
  5
2D2
  8
0
  6
CONTINUOUS
 62
     7
 10
24.59073199035528
 20
182.3265997705247
 30
0.0
 11
24.54373186525528
 21
182.4285982188246
 31
0.0
  0
LINE
  5
2D3
  8
0
  6
CONTINUOUS
 62
     7
 10
24.38873184915528
 20
182.1175998089247
 30
0.0
 11
24.55273170095528
 21
182.1905968723247
 31
0.0
  0
LINE
  5
2D4
  8
0
  6
CONTINUOUS
 62
     7
 10
24.25873179065528
 20
182.4235988793247
 30
0.0
 11
24.38873184915528
 21
182.1175998089247
 31
0.0
  0
LINE
  5
2D5
  8
0
  6
CONTINUOUS
 62
     7
 10
22.70273158405529
 20
178.8625976083247
 30
0.0
 11
22.48273177145528
 21
178.7705978390246
 31
0.0
  0
LINE
  5
2D6
  8
0
  6
CONTINUOUS
 62
     7
 10
22.48273177145528
 20
178.7705978390246
 30
0.0
 11
22.71373190065528
 21
178.2165987429247
 31
0.0
  0
LINE
  5
2D7
  8
0
  6
CONTINUOUS
 62
     7
 10
22.71373190065528
 20
178.2165987429247
 30
0.0
 11
22.92173162175529
 21
178.3035991725247
 31
0.0
  0
LINE
  5
2D8
  8
0
  6
CONTINUOUS
 62
     7
 10
22.92173162175529
 20
178.3035991725247
 30
0.0
 11
22.75973178525528
 21
178.6905972299247
 31
0.0
  0
LINE
  5
2D9
  8
0
  6
CONTINUOUS
 62
     7
 10
23.95873183455528
 20
178.8705995318246
 30
0.0
 11
23.88373196195528
 21
179.0485976276247
 31
0.0
  0
LINE
  5
2DA
  8
0
  6
CONTINUOUS
 62
     7
 10
25.68969030005528
 20
181.9142734644247
 30
0.0
 11
25.67958940825528
 21
181.8816771743247
 31
0.0
  0
LINE
  5
2DB
  8
0
  6
CONTINUOUS
 62
     7
 10
25.69778582155529
 20
181.9474210974247
 30
0.0
 11
25.68969030005528
 21
181.9142734644247
 31
0.0
  0
LINE
  5
2DC
  8
0
  6
CONTINUOUS
 62
     7
 10
25.64181356765528
 20
182.6676798996247
 30
0.0
 11
25.66637626925528
 21
182.6240716514247
 31
0.0
  0
LINE
  5
2DD
  8
0
  6
CONTINUOUS
 62
     7
 10
25.81935717795528
 20
182.7285138902247
 30
0.0
 11
25.77756919975528
 21
182.8039435682247
 31
0.0
  0
LINE
  5
2DE
  8
0
  6
CONTINUOUS
 62
     7
 10
25.70384593755529
 20
181.9810045895247
 30
0.0
 11
25.69778582155529
 21
181.9474210974247
 31
0.0
  0
LINE
  5
2DF
  8
0
  6
CONTINUOUS
 62
     7
 10
25.89734170665528
 20
181.9810045895247
 30
0.0
 11
25.70384593755529
 21
181.9810045895247
 31
0.0
  0
LINE
  5
2E0
  8
0
  6
CONTINUOUS
 62
     7
 10
25.65463694815529
 20
182.9295491811247
 30
0.0
 11
25.56749938135528
 21
182.9566357669247
 31
0.0
  0
LINE
  5
2E1
  8
0
  6
CONTINUOUS
 62
     7
 10
25.66637626925528
 20
182.6240716514247
 30
0.0
 11
25.68509492165528
 21
182.5776545343247
 31
0.0
  0
LINE
  5
2E2
  8
0
  6
CONTINUOUS
 62
     7
 10
25.68509492165528
 20
182.5776545343247
 30
0.0
 11
25.69765497075528
 21
182.5292034086247
 31
0.0
  0
LINE
  5
2E3
  8
0
  6
CONTINUOUS
 62
     7
 10
25.70384593755529
 20
182.4795415637247
 30
0.0
 11
25.88444219045528
 21
182.4795415637247
 31
0.0
  0
LINE
  5
2E4
  8
0
  6
CONTINUOUS
 62
     7
 10
25.88444219045528
 20
182.4795415637247
 30
0.0
 11
25.87321463115528
 21
182.5650369760247
 31
0.0
  0
LINE
  5
2E5
  8
0
  6
CONTINUOUS
 62
     7
 10
25.78479719425528
 20
181.6544456419247
 30
0.0
 11
25.83174889055528
 21
181.7284857866247
 31
0.0
  0
LINE
  5
2E6
  8
0
  6
CONTINUOUS
 62
     7
 10
25.86666696775528
 20
181.8089036283247
 30
0.0
 11
25.88870857915528
 21
181.8937582907247
 31
0.0
  0
LINE
  5
2E7
  8
0
  6
CONTINUOUS
 62
     7
 10
25.88870857915528
 20
181.8937582907247
 30
0.0
 11
25.89734170665528
 21
181.9810045895247
 31
0.0
  0
LINE
  5
2E8
  8
0
  6
CONTINUOUS
 62
     7
 10
25.77756919975528
 20
182.8039435682247
 30
0.0
 11
25.72669523845528
 21
182.8735655185247
 31
0.0
  0
LINE
  5
2E9
  8
0
  6
CONTINUOUS
 62
     7
 10
25.67958940825528
 20
181.8816771743247
 30
0.0
 11
25.66752039905528
 21
181.8497588870247
 31
0.0
  0
LINE
  5
2EA
  8
0
  6
CONTINUOUS
 62
     7
 10
25.66752039905528
 20
181.8497588870247
 30
0.0
 11
25.65352867435529
 21
181.8186378118247
 31
0.0
  0
LINE
  5
2EB
  8
0
  6
CONTINUOUS
 62
     7
 10
25.72669523845528
 20
182.8735655185247
 30
0.0
 11
25.65463694815529
 21
182.9295491811247
 31
0.0
  0
LINE
  5
2EC
  8
0
  6
CONTINUOUS
 62
     7
 10
25.58045757075529
 20
181.5150825319247
 30
0.0
 11
25.65973966455528
 21
181.5397886571247
 31
0.0
  0
LINE
  5
2ED
  8
0
  6
CONTINUOUS
 62
     7
 10
25.65973966455528
 20
181.5397886571247
 30
0.0
 11
25.72694506575527
 21
181.5885713336247
 31
0.0
  0
LINE
  5
2EE
  8
0
  6
CONTINUOUS
 62
     7
 10
25.83174889055528
 20
181.7284857866247
 30
0.0
 11
25.86666696775528
 21
181.8089036283247
 31
0.0
  0
LINE
  5
2EF
  8
0
  6
CONTINUOUS
 62
     7
 10
25.69765497075528
 20
182.5292034086247
 30
0.0
 11
25.70384593755529
 21
182.4795415637247
 31
0.0
  0
LINE
  5
2F0
  8
0
  6
CONTINUOUS
 62
     7
 10
25.87321463115528
 20
182.5650369760247
 30
0.0
 11
25.85140608325529
 21
182.6484611270247
 31
0.0
  0
LINE
  5
2F1
  8
0
  6
CONTINUOUS
 62
     7
 10
25.85140608325529
 20
182.6484611270247
 30
0.0
 11
25.81935717795528
 21
182.7285138902247
 31
0.0
  0
LINE
  5
2F2
  8
0
  6
CONTINUOUS
 62
     7
 10
25.65352867435529
 20
181.8186378118247
 30
0.0
 11
25.62378060145528
 21
181.7832177517247
 31
0.0
  0
LINE
  5
2F3
  8
0
  6
CONTINUOUS
 62
     7
 10
25.56749938135528
 20
182.9566357669247
 30
0.0
 11
25.47640159805528
 21
182.9513682064247
 31
0.0
  0
LINE
  5
2F4
  8
0
  6
CONTINUOUS
 62
     7
 10
25.47640159805528
 20
182.9513682064247
 30
0.0
 11
25.39296766815528
 21
182.9144170520247
 31
0.0
  0
LINE
  5
2F5
  8
0
  6
CONTINUOUS
 62
     7
 10
25.39296766815528
 20
182.9144170520247
 30
0.0
 11
25.32785145645528
 21
182.8505096969247
 31
0.0
  0
LINE
  5
2F6
  8
0
  6
CONTINUOUS
 62
     7
 10
25.32785145645528
 20
182.8505096969247
 30
0.0
 11
25.26528846545529
 21
182.7328426775247
 31
0.0
  0
LINE
  5
2F7
  8
0
  6
CONTINUOUS
 62
     7
 10
25.26528846545529
 20
182.7328426775247
 30
0.0
 11
25.21646807045528
 21
182.6087905106247
 31
0.0
  0
LINE
  5
2F8
  8
0
  6
CONTINUOUS
 62
     7
 10
25.21646807045528
 20
182.6087905106247
 30
0.0
 11
25.18204499115528
 21
182.4799960491247
 31
0.0
  0
LINE
  5
2F9
  8
0
  6
CONTINUOUS
 62
     7
 10
25.18204499115528
 20
182.4799960491247
 30
0.0
 11
25.16246346835529
 21
182.3481282231247
 31
0.0
  0
LINE
  5
2FA
  8
0
  6
CONTINUOUS
 62
     7
 10
25.16246346835529
 20
182.3481282231247
 30
0.0
 11
25.15797728745528
 21
182.2148894903247
 31
0.0
  0
LINE
  5
2FB
  8
0
  6
CONTINUOUS
 62
     7
 10
25.15797728745528
 20
182.2148894903247
 30
0.0
 11
25.16649516375529
 21
182.0836139855247
 31
0.0
  0
LINE
  5
2FC
  8
0
  6
CONTINUOUS
 62
     7
 10
25.16649516375529
 20
182.0836139855247
 30
0.0
 11
25.19088976165529
 21
181.9543426868247
 31
0.0
  0
LINE
  5
2FD
  8
0
  6
CONTINUOUS
 62
     7
 10
25.19088976165529
 20
181.9543426868247
 30
0.0
 11
25.23079972785529
 21
181.8289866683247
 31
0.0
  0
LINE
  5
2FE
  8
0
  6
CONTINUOUS
 62
     7
 10
25.23079972785529
 20
181.8289866683247
 30
0.0
 11
25.28563506975527
 21
181.7094085750247
 31
0.0
  0
LINE
  5
2FF
  8
0
  6
CONTINUOUS
 62
     7
 10
25.28563506975527
 20
181.7094085750247
 30
0.0
 11
25.35458413955529
 21
181.5973704693247
 31
0.0
  0
LINE
  5
300
  8
0
  6
CONTINUOUS
 62
     7
 10
25.35458413955529
 20
181.5973704693247
 30
0.0
 11
25.41941071005528
 21
181.5454697248247
 31
0.0
  0
LINE
  5
301
  8
0
  6
CONTINUOUS
 62
     7
 10
25.41941071005528
 20
181.5454697248247
 30
0.0
 11
25.49743714815529
 21
181.5170420345247
 31
0.0
  0
LINE
  5
302
  8
0
  6
CONTINUOUS
 62
     7
 10
25.49743714815529
 20
181.5170420345247
 30
0.0
 11
25.58045757075529
 21
181.5150825319247
 31
0.0
  0
LINE
  5
303
  8
0
  6
CONTINUOUS
 62
     7
 10
25.72694506575527
 20
181.5885713336247
 30
0.0
 11
25.78479719425528
 21
181.6544456419247
 31
0.0
  0
LINE
  5
304
  8
0
  6
CONTINUOUS
 62
     7
 10
25.62378060145528
 20
181.7832177517247
 30
0.0
 11
25.58296841645527
 21
181.7614508805247
 31
0.0
  0
LINE
  5
305
  8
0
  6
CONTINUOUS
 62
     7
 10
25.58296841645527
 20
181.7614508805247
 30
0.0
 11
25.53698250165527
 21
181.7564738926247
 31
0.0
  0
LINE
  5
306
  8
0
  6
CONTINUOUS
 62
     7
 10
25.53698250165527
 20
181.7564738926247
 30
0.0
 11
25.49245946185528
 21
181.7690132198246
 31
0.0
  0
LINE
  5
307
  8
0
  6
CONTINUOUS
 62
     7
 10
25.49245946185528
 20
181.7690132198246
 30
0.0
 11
25.45582542275528
 21
181.7972509202247
 31
0.0
  0
LINE
  5
308
  8
0
  6
CONTINUOUS
 62
     7
 10
25.45582542275528
 20
181.7972509202247
 30
0.0
 11
25.37733309045528
 21
181.9660810765247
 31
0.0
  0
LINE
  5
309
  8
0
  6
CONTINUOUS
 62
     7
 10
25.37733309045528
 20
181.9660810765247
 30
0.0
 11
25.33586083055528
 21
182.1475883958247
 31
0.0
  0
LINE
  5
30A
  8
0
  6
CONTINUOUS
 62
     7
 10
25.33586083055528
 20
182.1475883958247
 30
0.0
 11
25.33324055445527
 21
182.3337523278247
 31
0.0
  0
LINE
  5
30B
  8
0
  6
CONTINUOUS
 62
     7
 10
25.33324055445527
 20
182.3337523278247
 30
0.0
 11
25.36958821195528
 21
182.5163548824247
 31
0.0
  0
LINE
  5
30C
  8
0
  6
CONTINUOUS
 62
     7
 10
25.36958821195528
 20
182.5163548824247
 30
0.0
 11
25.44329820275527
 21
182.6873270806247
 31
0.0
  0
LINE
  5
30D
  8
0
  6
CONTINUOUS
 62
     7
 10
25.44329820275527
 20
182.6873270806247
 30
0.0
 11
25.46790979875529
 21
182.7186008927247
 31
0.0
  0
LINE
  5
30E
  8
0
  6
CONTINUOUS
 62
     7
 10
25.46790979875529
 20
182.7186008927247
 30
0.0
 11
25.50259783935528
 21
182.7381102380247
 31
0.0
  0
LINE
  5
30F
  8
0
  6
CONTINUOUS
 62
     7
 10
25.50259783935528
 20
182.7381102380247
 30
0.0
 11
25.54210687135527
 21
182.7428972360247
 31
0.0
  0
LINE
  5
310
  8
0
  6
CONTINUOUS
 62
     7
 10
25.54210687135527
 20
182.7428972360247
 30
0.0
 11
25.58045035305528
 21
182.7322354552247
 31
0.0
  0
LINE
  5
311
  8
0
  6
CONTINUOUS
 62
     7
 10
25.58045035305528
 20
182.7322354552247
 30
0.0
 11
25.61181892715528
 21
182.7077453968247
 31
0.0
  0
LINE
  5
312
  8
0
  6
CONTINUOUS
 62
     7
 10
25.61181892715528
 20
182.7077453968247
 30
0.0
 11
25.64181356765528
 21
182.6676798996247
 31
0.0
  0
LINE
  5
313
  8
0
  6
CONTINUOUS
 62
     7
 10
26.16124895475528
 20
181.6787717876247
 30
0.0
 11
26.30040228445527
 21
181.6255262133247
 31
0.0
  0
LINE
  5
314
  8
0
  6
CONTINUOUS
 62
     7
 10
26.63711520915528
 20
182.5029475626247
 30
0.0
 11
26.51140621935528
 21
182.5532836851247
 31
0.0
  0
LINE
  5
315
  8
0
  6
CONTINUOUS
 62
     7
 10
25.91371878125528
 20
181.5276293096247
 30
0.0
 11
26.22432370745528
 21
181.4081182715247
 31
0.0
  0
LINE
  5
316
  8
0
  6
CONTINUOUS
 62
     7
 10
26.43350201735528
 20
182.8272117314247
 30
0.0
 11
25.91371878125528
 21
181.5276293096247
 31
0.0
  0
LINE
  5
317
  8
0
  6
CONTINUOUS
 62
     7
 10
26.51140621935528
 20
182.5532836851247
 30
0.0
 11
26.16124895475528
 21
181.6787717876247
 31
0.0
  0
LINE
  5
318
  8
0
  6
CONTINUOUS
 62
     7
 10
26.72083715055528
 20
182.7121263382247
 30
0.0
 11
26.43350201735528
 21
182.8272117314247
 31
0.0
  0
LINE
  5
319
  8
0
  6
CONTINUOUS
 62
     7
 10
26.86420564615529
 20
177.2875746724247
 30
0.0
 11
26.71497354355528
 21
177.2263644275247
 31
0.0
  0
LINE
  5
31A
  8
0
  6
CONTINUOUS
 62
     7
 10
26.60369749255529
 20
177.3280089733247
 30
0.0
 11
26.52577745805527
 21
177.5177491841247
 31
0.0
  0
LINE
  5
31B
  8
0
  6
CONTINUOUS
 62
     7
 10
26.54575944955528
 20
177.6735557255247
 30
0.0
 11
26.70687965195528
 21
177.7395715949247
 31
0.0
  0
LINE
  5
31C
  8
0
  6
CONTINUOUS
 62
     7
 10
25.51073177795529
 20
177.6265984413247
 30
0.0
 11
25.51073177795529
 21
177.9345979926246
 31
0.0
  0
LINE
  5
31D
  8
0
  6
CONTINUOUS
 62
     7
 10
25.51073177795529
 20
177.9345979926246
 30
0.0
 11
25.33673161715528
 21
177.9345979926246
 31
0.0
  0
LINE
  5
31E
  8
0
  6
CONTINUOUS
 62
     7
 10
25.33673161715528
 20
177.9345979926246
 30
0.0
 11
25.33673161715528
 21
177.6275968191246
 31
0.0
  0
LINE
  5
31F
  8
0
  6
CONTINUOUS
 62
     7
 10
25.33673161715528
 20
177.6275968191246
 30
0.0
 11
25.22073166515529
 21
177.6275968191246
 31
0.0
  0
LINE
  5
320
  8
0
  6
CONTINUOUS
 62
     7
 10
25.22073166515529
 20
177.6275968191246
 30
0.0
 11
25.22073166515529
 21
177.4085981783246
 31
0.0
  0
LINE
  5
321
  8
0
  6
CONTINUOUS
 62
     7
 10
25.22073166515529
 20
177.4085981783246
 30
0.0
 11
25.33573184235527
 21
177.4085981783246
 31
0.0
  0
LINE
  5
322
  8
0
  6
CONTINUOUS
 62
     7
 10
25.87173173275528
 20
177.3325985309247
 30
0.0
 11
25.87173173275528
 21
177.6265984413247
 31
0.0
  0
LINE
  5
323
  8
0
  6
CONTINUOUS
 62
     7
 10
25.87173173275528
 20
177.6265984413247
 30
0.0
 11
25.51073177795529
 21
177.6265984413247
 31
0.0
  0
LINE
  5
324
  8
0
  6
CONTINUOUS
 62
     7
 10
25.72973181565529
 20
177.4015983578247
 30
0.0
 11
25.51073177795529
 21
177.4015983578247
 31
0.0
  0
LINE
  5
325
  8
0
  6
CONTINUOUS
 62
     7
 10
27.87073182015529
 20
180.4705968138246
 30
0.0
 11
28.07573186775528
 21
180.5605998275247
 31
0.0
  0
LINE
  5
326
  8
0
  6
CONTINUOUS
 62
     7
 10
28.60173179845528
 20
180.7405984041247
 30
0.0
 11
28.36773176285529
 21
181.2785973784247
 31
0.0
  0
LINE
  5
327
  8
0
  6
CONTINUOUS
 62
     7
 10
28.36773176285529
 20
181.2785973784247
 30
0.0
 11
27.08373188115527
 21
180.7195989427247
 31
0.0
  0
LINE
  5
328
  8
0
  6
CONTINUOUS
 62
     7
 10
27.08373188115527
 20
180.7195989427247
 30
0.0
 11
27.15573173095528
 21
180.5545983848247
 31
0.0
  0
LINE
  5
329
  8
0
  6
CONTINUOUS
 62
     7
 10
27.15573173095528
 20
180.5545983848247
 30
0.0
 11
27.72573176385528
 21
180.8025984105247
 31
0.0
  0
LINE
  5
32A
  8
0
  6
CONTINUOUS
 62
     7
 10
27.72573176385528
 20
180.8025984105247
 30
0.0
 11
27.87073182015529
 21
180.4705968138246
 31
0.0
  0
LINE
  5
32B
  8
0
  6
CONTINUOUS
 62
     7
 10
28.07573186775528
 20
180.5605998275247
 30
0.0
 11
27.93273182665529
 21
180.8915993211247
 31
0.0
  0
LINE
  5
32C
  8
0
  6
CONTINUOUS
 62
     7
 10
27.93273182665529
 20
180.8915993211247
 30
0.0
 11
28.23273178265528
 21
181.0225991544247
 31
0.0
  0
LINE
  5
32D
  8
0
  6
CONTINUOUS
 62
     7
 10
28.23273178265528
 20
181.0225991544247
 30
0.0
 11
28.39573185965529
 21
180.6505991158247
 31
0.0
  0
LINE
  5
32E
  8
0
  6
CONTINUOUS
 62
     7
 10
28.39573185965529
 20
180.6505991158247
 30
0.0
 11
28.60173179845528
 21
180.7405984041247
 31
0.0
  0
LINE
  5
32F
  8
0
  6
CONTINUOUS
 62
     7
 10
28.21973180005529
 20
178.8865996536247
 30
0.0
 11
28.14473181105528
 21
178.7085978326247
 31
0.0
  0
LINE
  5
330
  8
0
  6
CONTINUOUS
 62
     7
 10
28.14473181105528
 20
178.7085978326247
 30
0.0
 11
27.23273185155529
 21
179.0925970313247
 31
0.0
  0
LINE
  5
331
  8
0
  6
CONTINUOUS
 62
     7
 10
27.23273185155529
 20
179.0925970313247
 30
0.0
 11
27.16773182225528
 21
178.9375988778247
 31
0.0
  0
LINE
  5
332
  8
0
  6
CONTINUOUS
 62
     7
 10
27.16773182225528
 20
178.9375988778247
 30
0.0
 11
28.45773180785528
 21
178.3945968386247
 31
0.0
  0
LINE
  5
333
  8
0
  6
CONTINUOUS
 62
     7
 10
28.45773180785528
 20
178.3945968386247
 30
0.0
 11
28.51573184205528
 21
178.5315981147247
 31
0.0
  0
LINE
  5
334
  8
0
  6
CONTINUOUS
 62
     7
 10
28.37773183905529
 20
178.8205986854247
 30
0.0
 11
28.21973180005529
 21
178.8865996536247
 31
0.0
  0
LINE
  5
335
  8
0
  6
CONTINUOUS
 62
     7
 10
27.83273176365528
 20
181.6635986802247
 30
0.0
 11
27.98873178735528
 21
181.8245982763247
 31
0.0
  0
LINE
  5
336
  8
0
  6
CONTINUOUS
 62
     7
 10
27.98873178735528
 20
181.8245982763247
 30
0.0
 11
27.56873184885528
 21
182.2335978982246
 31
0.0
  0
LINE
  5
337
  8
0
  6
CONTINUOUS
 62
     7
 10
27.56873184885528
 20
182.2335978982246
 30
0.0
 11
26.59273186775528
 21
181.2305970129247
 31
0.0
  0
LINE
  5
338
  8
0
  6
CONTINUOUS
 62
     7
 10
26.59273186775528
 20
181.2305970129247
 30
0.0
 11
27.02273188235527
 21
180.8125970897247
 31
0.0
  0
LINE
  5
339
  8
0
  6
CONTINUOUS
 62
     7
 10
27.02273188235527
 20
180.8125970897247
 30
0.0
 11
27.17973191365528
 21
180.9745987889247
 31
0.0
  0
LINE
  5
33A
  8
0
  6
CONTINUOUS
 62
     7
 10
27.17973191365528
 20
180.9745987889247
 30
0.0
 11
26.87973172475528
 21
181.2665982184247
 31
0.0
  0
LINE
  5
33B
  8
0
  6
CONTINUOUS
 62
     7
 10
26.87973172475528
 20
181.2665982184247
 30
0.0
 11
27.15573173095528
 21
181.5495973465247
 31
0.0
  0
LINE
  5
33C
  8
0
  6
CONTINUOUS
 62
     7
 10
27.15573173095528
 20
181.5495973465247
 30
0.0
 11
27.41473184045528
 21
181.2985984620247
 31
0.0
  0
LINE
  5
33D
  8
0
  6
CONTINUOUS
 62
     7
 10
27.41473184045528
 20
181.2985984620247
 30
0.0
 11
27.57173187175528
 21
181.4595980581247
 31
0.0
  0
LINE
  5
33E
  8
0
  6
CONTINUOUS
 62
     7
 10
27.57173187175528
 20
181.4595980581247
 30
0.0
 11
27.31273176225528
 21
181.7115990457247
 31
0.0
  0
LINE
  5
33F
  8
0
  6
CONTINUOUS
 62
     7
 10
27.31273176225528
 20
181.7115990457247
 30
0.0
 11
27.54073186855528
 21
181.9465978083247
 31
0.0
  0
LINE
  5
340
  8
0
  6
CONTINUOUS
 62
     7
 10
27.54073186855528
 20
181.9465978083247
 30
0.0
 11
27.83273176365528
 21
181.6635986802247
 31
0.0
  0
LINE
  5
341
  8
0
  6
CONTINUOUS
 62
     7
 10
27.02973170285527
 20
178.6675972876247
 30
0.0
 11
26.60773174915528
 21
178.2505994674247
 31
0.0
  0
LINE
  5
342
  8
0
  6
CONTINUOUS
 62
     7
 10
26.60773174915528
 20
178.2505994674247
 30
0.0
 11
26.76673179565528
 21
178.0895998713247
 31
0.0
  0
LINE
  5
343
  8
0
  6
CONTINUOUS
 62
     7
 10
26.76673179565528
 20
178.0895998713247
 30
0.0
 11
27.03673175615528
 21
178.3575972554247
 31
0.0
  0
LINE
  5
344
  8
0
  6
CONTINUOUS
 62
     7
 10
27.66873179545527
 20
178.0215984222247
 30
0.0
 11
27.54473178255528
 21
177.8985967871247
 31
0.0
  0
LINE
  5
345
  8
0
  6
CONTINUOUS
 62
     7
 10
25.94873185345529
 20
180.5845981476247
 30
0.0
 11
25.84873179045528
 21
180.5845981476247
 31
0.0
  0
LINE
  5
346
  8
0
  6
CONTINUOUS
 62
     7
 10
27.13353016485527
 20
179.9546292063247
 30
0.0
 11
25.94873185345529
 21
180.5845981476247
 31
0.0
  0
LINE
  5
347
  8
0
  6
CONTINUOUS
 62
     7
 10
25.84873179045528
 20
180.0346000132247
 30
0.0
 11
23.97710822595528
 21
180.0346000132247
 31
0.0
  0
LINE
  5
348
  8
0
  6
CONTINUOUS
 62
     7
 10
25.84873179045528
 20
180.5845981476247
 30
0.0
 11
25.84873179045528
 21
180.0346000132247
 31
0.0
  0
LINE
  5
349
  8
0
  6
CONTINUOUS
 62
     7
 10
25.94873185345529
 20
178.8845991728247
 30
0.0
 11
27.13353016485527
 21
179.5145681140247
 31
0.0
  0
LINE
  5
34A
  8
0
  6
CONTINUOUS
 62
     7
 10
25.84873179045528
 20
178.8845991728247
 30
0.0
 11
25.94873185345529
 21
178.8845991728247
 31
0.0
  0
LINE
  5
34B
  8
0
  6
CONTINUOUS
 62
     7
 10
25.84873179045528
 20
179.4345973071247
 30
0.0
 11
25.84873179045528
 21
178.8845991728247
 31
0.0
  0
LINE
  5
34C
  8
0
  6
CONTINUOUS
 62
     7
 10
23.97710822595528
 20
179.4345973071247
 30
0.0
 11
25.84873179045528
 21
179.4345973071247
 31
0.0
  0
LINE
  5
34D
  8
0
  6
CONTINUOUS
 62
     7
 10
23.97710822595528
 20
187.9345973071247
 30
0.0
 11
25.84873179045528
 21
187.9345973071247
 31
0.0
  0
LINE
  5
34E
  8
0
  6
CONTINUOUS
 62
     7
 10
25.84873179045528
 20
187.9345973071247
 30
0.0
 11
25.84873179045528
 21
187.3845991728247
 31
0.0
  0
LINE
  5
34F
  8
0
  6
CONTINUOUS
 62
     7
 10
25.84873179045528
 20
187.3845991728247
 30
0.0
 11
25.94873185345529
 21
187.3845991728247
 31
0.0
  0
LINE
  5
350
  8
0
  6
CONTINUOUS
 62
     7
 10
25.94873185345529
 20
187.3845991728247
 30
0.0
 11
27.13353016485527
 21
188.0145681140247
 31
0.0
  0
LINE
  5
351
  8
0
  6
CONTINUOUS
 62
     7
 10
25.84873179045528
 20
189.0845981476247
 30
0.0
 11
25.84873179045528
 21
188.5346000132247
 31
0.0
  0
LINE
  5
352
  8
0
  6
CONTINUOUS
 62
     7
 10
25.84873179045528
 20
188.5346000132247
 30
0.0
 11
23.97710822595528
 21
188.5346000132247
 31
0.0
  0
LINE
  5
353
  8
0
  6
CONTINUOUS
 62
     7
 10
27.13353016485527
 20
188.4546292063247
 30
0.0
 11
25.94873185345529
 21
189.0845981476247
 31
0.0
  0
LINE
  5
354
  8
0
  6
CONTINUOUS
 62
     7
 10
25.94873185345529
 20
189.0845981476247
 30
0.0
 11
25.84873179045528
 21
189.0845981476247
 31
0.0
  0
LINE
  5
355
  8
0
  6
CONTINUOUS
 62
     7
 10
27.66873179545527
 20
186.5215984222247
 30
0.0
 11
27.54473178255528
 21
186.3985967871247
 31
0.0
  0
LINE
  5
356
  8
0
  6
CONTINUOUS
 62
     7
 10
26.76673179565528
 20
186.5895998713247
 30
0.0
 11
27.03673175615528
 21
186.8575972554247
 31
0.0
  0
LINE
  5
357
  8
0
  6
CONTINUOUS
 62
     7
 10
26.60773174915528
 20
186.7505994674247
 30
0.0
 11
26.76673179565528
 21
186.5895998713247
 31
0.0
  0
LINE
  5
358
  8
0
  6
CONTINUOUS
 62
     7
 10
27.02973170285527
 20
187.1675972876247
 30
0.0
 11
26.60773174915528
 21
186.7505994674247
 31
0.0
  0
LINE
  5
359
  8
0
  6
CONTINUOUS
 62
     7
 10
27.41473184045528
 20
189.7985984620247
 30
0.0
 11
27.57173187175528
 21
189.9595980581247
 31
0.0
  0
LINE
  5
35A
  8
0
  6
CONTINUOUS
 62
     7
 10
27.15573173095528
 20
190.0495973465247
 30
0.0
 11
27.41473184045528
 21
189.7985984620247
 31
0.0
  0
LINE
  5
35B
  8
0
  6
CONTINUOUS
 62
     7
 10
26.87973172475528
 20
189.7665982184247
 30
0.0
 11
27.15573173095528
 21
190.0495973465247
 31
0.0
  0
LINE
  5
35C
  8
0
  6
CONTINUOUS
 62
     7
 10
27.17973191365528
 20
189.4745987889247
 30
0.0
 11
26.87973172475528
 21
189.7665982184247
 31
0.0
  0
LINE
  5
35D
  8
0
  6
CONTINUOUS
 62
     7
 10
27.02273188235527
 20
189.3125970897247
 30
0.0
 11
27.17973191365528
 21
189.4745987889247
 31
0.0
  0
LINE
  5
35E
  8
0
  6
CONTINUOUS
 62
     7
 10
26.59273186775528
 20
189.7305970129247
 30
0.0
 11
27.02273188235527
 21
189.3125970897247
 31
0.0
  0
LINE
  5
35F
  8
0
  6
CONTINUOUS
 62
     7
 10
28.37773183905529
 20
187.3205986854247
 30
0.0
 11
28.21973180005529
 21
187.3865996536247
 31
0.0
  0
LINE
  5
360
  8
0
  6
CONTINUOUS
 62
     7
 10
28.45773180785528
 20
186.8945968386247
 30
0.0
 11
28.51573184205528
 21
187.0315981147247
 31
0.0
  0
LINE
  5
361
  8
0
  6
CONTINUOUS
 62
     7
 10
27.16773182225528
 20
187.4375988778247
 30
0.0
 11
28.45773180785528
 21
186.8945968386247
 31
0.0
  0
LINE
  5
362
  8
0
  6
CONTINUOUS
 62
     7
 10
27.23273185155529
 20
187.5925970313247
 30
0.0
 11
27.16773182225528
 21
187.4375988778247
 31
0.0
  0
LINE
  5
363
  8
0
  6
CONTINUOUS
 62
     7
 10
28.14473181105528
 20
187.2085978326247
 30
0.0
 11
27.23273185155529
 21
187.5925970313247
 31
0.0
  0
LINE
  5
364
  8
0
  6
CONTINUOUS
 62
     7
 10
28.21973180005529
 20
187.3865996536247
 30
0.0
 11
28.14473181105528
 21
187.2085978326247
 31
0.0
  0
LINE
  5
365
  8
0
  6
CONTINUOUS
 62
     7
 10
28.39573185965529
 20
189.1505991158247
 30
0.0
 11
28.60173179845528
 21
189.2405984041247
 31
0.0
  0
LINE
  5
366
  8
0
  6
CONTINUOUS
 62
     7
 10
28.23273178265528
 20
189.5225991544247
 30
0.0
 11
28.39573185965529
 21
189.1505991158247
 31
0.0
  0
LINE
  5
367
  8
0
  6
CONTINUOUS
 62
     7
 10
27.93273182665529
 20
189.3915993211247
 30
0.0
 11
28.23273178265528
 21
189.5225991544247
 31
0.0
  0
LINE
  5
368
  8
0
  6
CONTINUOUS
 62
     7
 10
28.07573186775528
 20
189.0605998275247
 30
0.0
 11
27.93273182665529
 21
189.3915993211247
 31
0.0
  0
LINE
  5
369
  8
0
  6
CONTINUOUS
 62
     7
 10
27.72573176385528
 20
189.3025984105247
 30
0.0
 11
27.87073182015529
 21
188.9705968138246
 31
0.0
  0
LINE
  5
36A
  8
0
  6
CONTINUOUS
 62
     7
 10
27.15573173095528
 20
189.0545983848247
 30
0.0
 11
27.72573176385528
 21
189.3025984105247
 31
0.0
  0
LINE
  5
36B
  8
0
  6
CONTINUOUS
 62
     7
 10
27.08373188115527
 20
189.2195989427247
 30
0.0
 11
27.15573173095528
 21
189.0545983848247
 31
0.0
  0
LINE
  5
36C
  8
0
  6
CONTINUOUS
 62
     7
 10
28.36773176285529
 20
189.7785973784247
 30
0.0
 11
27.08373188115527
 21
189.2195989427247
 31
0.0
  0
LINE
  5
36D
  8
0
  6
CONTINUOUS
 62
     7
 10
28.60173179845528
 20
189.2405984041247
 30
0.0
 11
28.36773176285529
 21
189.7785973784247
 31
0.0
  0
LINE
  5
36E
  8
0
  6
CONTINUOUS
 62
     7
 10
27.87073182015529
 20
188.9705968138246
 30
0.0
 11
28.07573186775528
 21
189.0605998275247
 31
0.0
  0
LINE
  5
36F
  8
0
  6
CONTINUOUS
 62
     7
 10
25.51073177795529
 20
185.9015983578247
 30
0.0
 11
25.50973177035527
 21
185.3895981845247
 31
0.0
  0
LINE
  5
370
  8
0
  6
CONTINUOUS
 62
     7
 10
25.50973177035527
 20
185.3895981845247
 30
0.0
 11
25.72973181565529
 21
185.9015983578247
 31
0.0
  0
LINE
  5
371
  8
0
  6
CONTINUOUS
 62
     7
 10
25.72973181565529
 20
185.9015983578247
 30
0.0
 11
25.51073177795529
 21
185.9015983578247
 31
0.0
  0
LINE
  5
372
  8
0
  6
CONTINUOUS
 62
     7
 10
25.87173173275528
 20
186.1265984413247
 30
0.0
 11
25.51073177795529
 21
186.1265984413247
 31
0.0
  0
LINE
  5
373
  8
0
  6
CONTINUOUS
 62
     7
 10
25.87173173275528
 20
185.8325985309247
 30
0.0
 11
25.87173173275528
 21
186.1265984413247
 31
0.0
  0
LINE
  5
374
  8
0
  6
CONTINUOUS
 62
     7
 10
25.52173186165528
 20
185.0345966455247
 30
0.0
 11
25.87173173275528
 21
185.8325985309247
 31
0.0
  0
LINE
  5
375
  8
0
  6
CONTINUOUS
 62
     7
 10
25.33473160195528
 20
185.0345966455247
 30
0.0
 11
25.52173186165528
 21
185.0345966455247
 31
0.0
  0
LINE
  5
376
  8
0
  6
CONTINUOUS
 62
     7
 10
25.33573184235527
 20
185.9085981783246
 30
0.0
 11
25.33473160195528
 21
185.0345966455247
 31
0.0
  0
LINE
  5
377
  8
0
  6
CONTINUOUS
 62
     7
 10
25.22073166515529
 20
185.9085981783246
 30
0.0
 11
25.33573184235527
 21
185.9085981783246
 31
0.0
  0
LINE
  5
378
  8
0
  6
CONTINUOUS
 62
     7
 10
25.22073166515529
 20
186.1275968191246
 30
0.0
 11
25.22073166515529
 21
185.9085981783246
 31
0.0
  0
LINE
  5
379
  8
0
  6
CONTINUOUS
 62
     7
 10
25.33673161715528
 20
186.1275968191246
 30
0.0
 11
25.22073166515529
 21
186.1275968191246
 31
0.0
  0
LINE
  5
37A
  8
0
  6
CONTINUOUS
 62
     7
 10
25.33673161715528
 20
186.4345979926246
 30
0.0
 11
25.33673161715528
 21
186.1275968191246
 31
0.0
  0
LINE
  5
37B
  8
0
  6
CONTINUOUS
 62
     7
 10
25.51073177795529
 20
186.4345979926246
 30
0.0
 11
25.33673161715528
 21
186.4345979926246
 31
0.0
  0
LINE
  5
37C
  8
0
  6
CONTINUOUS
 62
     7
 10
25.51073177795529
 20
186.1265984413247
 30
0.0
 11
25.51073177795529
 21
186.4345979926246
 31
0.0
  0
LINE
  5
37D
  8
0
  6
CONTINUOUS
 62
     7
 10
26.54575944955528
 20
186.1735557255247
 30
0.0
 11
26.70687965195528
 21
186.2395715949247
 31
0.0
  0
LINE
  5
37E
  8
0
  6
CONTINUOUS
 62
     7
 10
26.60369749255529
 20
185.8280089733247
 30
0.0
 11
26.52577745805527
 21
186.0177491841247
 31
0.0
  0
LINE
  5
37F
  8
0
  6
CONTINUOUS
 62
     7
 10
26.86420564615529
 20
185.7875746724247
 30
0.0
 11
26.71497354355528
 21
185.7263644275247
 31
0.0
  0
LINE
  5
380
  8
0
  6
CONTINUOUS
 62
     7
 10
25.91371878125528
 20
190.0276293096247
 30
0.0
 11
26.22432370745528
 21
189.9081182715247
 31
0.0
  0
LINE
  5
381
  8
0
  6
CONTINUOUS
 62
     7
 10
25.49743714815529
 20
190.0170420345247
 30
0.0
 11
25.58045757075529
 21
190.0150825319247
 31
0.0
  0
LINE
  5
382
  8
0
  6
CONTINUOUS
 62
     7
 10
25.41941071005528
 20
190.0454697248247
 30
0.0
 11
25.49743714815529
 21
190.0170420345247
 31
0.0
  0
LINE
  5
383
  8
0
  6
CONTINUOUS
 62
     7
 10
25.58045757075529
 20
190.0150825319247
 30
0.0
 11
25.65973966455528
 21
190.0397886571247
 31
0.0
  0
LINE
  5
384
  8
0
  6
CONTINUOUS
 62
     7
 10
23.95873183455528
 20
187.3705995318246
 30
0.0
 11
23.88373196195528
 21
187.5485976276247
 31
0.0
  0
LINE
  5
385
  8
0
  6
CONTINUOUS
 62
     7
 10
22.92173162175529
 20
186.8035991725247
 30
0.0
 11
22.75973178525528
 21
187.1905972299247
 31
0.0
  0
LINE
  5
386
  8
0
  6
CONTINUOUS
 62
     7
 10
22.71373190065528
 20
186.7165987429247
 30
0.0
 11
22.92173162175529
 21
186.8035991725247
 31
0.0
  0
LINE
  5
387
  8
0
  6
CONTINUOUS
 62
     7
 10
22.48273177145528
 20
187.2705978390246
 30
0.0
 11
22.71373190065528
 21
186.7165987429247
 31
0.0
  0
LINE
  5
388
  8
0
  6
CONTINUOUS
 62
     7
 10
22.70273158405529
 20
187.3625976083247
 30
0.0
 11
22.48273177145528
 21
187.2705978390246
 31
0.0
  0
LINE
  5
389
  8
0
  6
CONTINUOUS
 62
     7
 10
24.56073176195528
 20
189.7705991801247
 30
0.0
 11
24.91073163305528
 21
189.9205979940247
 31
0.0
  0
LINE
  5
38A
  8
0
  6
CONTINUOUS
 62
     7
 10
23.84273188265529
 20
189.7975963589247
 30
0.0
 11
23.95973160935527
 21
189.9175991353246
 31
0.0
  0
LINE
  5
38B
  8
0
  6
CONTINUOUS
 62
     7
 10
24.38373204395528
 20
189.6185998854247
 30
0.0
 11
24.52373171305528
 21
189.7605967757247
 31
0.0
  0
LINE
  5
38C
  8
0
  6
CONTINUOUS
 62
     7
 10
24.13773203345528
 20
189.7965979811247
 30
0.0
 11
24.38373204395528
 21
189.6185998854247
 31
0.0
  0
LINE
  5
38D
  8
0
  6
CONTINUOUS
 62
     7
 10
23.96673189555529
 20
189.6215987441247
 30
0.0
 11
24.13773203345528
 21
189.7965979811247
 31
0.0
  0
LINE
  5
38E
  8
0
  6
CONTINUOUS
 62
     7
 10
24.14473185395528
 20
189.3745970961247
 30
0.0
 11
23.96673189555529
 21
189.6215987441247
 31
0.0
  0
LINE
  5
38F
  8
0
  6
CONTINUOUS
 62
     7
 10
24.00473171915527
 20
189.2325964805247
 30
0.0
 11
24.14473185395528
 21
189.3745970961247
 31
0.0
  0
LINE
  5
390
  8
0
  6
CONTINUOUS
 62
     7
 10
23.45119223075528
 20
186.3266726073247
 30
0.0
 11
23.33231216375528
 21
186.4450474319247
 31
0.0
  0
LINE
  5
391
  8
0
  6
CONTINUOUS
 62
     7
 10
23.51015053765528
 20
188.9261578259247
 30
0.0
 11
23.44716938285528
 21
188.7708541986247
 31
0.0
  0
LINE
  5
392
  8
0
  6
CONTINUOUS
 62
     7
 10
24.84373182135528
 20
186.1195986208247
 30
0.0
 11
24.99873183745528
 21
186.0555981335247
 31
0.0
  0
LINE
  5
393
  8
0
  6
CONTINUOUS
 62
     7
 10
24.87973162975528
 20
185.8535979923247
 30
0.0
 11
24.71573177795529
 21
185.9175984797247
 31
0.0
  0
LINE
  5
394
  8
0
  6
CONTINUOUS
 62
     7
 10
24.49273170975528
 20
185.4585980114247
 30
0.0
 11
24.18873172325527
 21
185.5845985052247
 31
0.0
  0
LINE
  5
395
  8
0
  6
CONTINUOUS
 62
     7
 10
24.52973175865527
 20
185.1925973829247
 30
0.0
 11
24.87973162975528
 21
185.8535979923247
 31
0.0
  0
LINE
  5
396
  8
0
  6
CONTINUOUS
 62
     7
 10
24.18873172325527
 20
185.5845985052247
 30
0.0
 11
24.10073198455528
 21
185.3695971009247
 31
0.0
  0
LINE
  5
397
  8
0
  6
CONTINUOUS
 62
     7
 10
24.62173199355529
 20
185.6865969536247
 30
0.0
 11
24.49273170975528
 21
185.4585980114247
 31
0.0
  0
LINE
  5
398
  8
0
  6
CONTINUOUS
 62
     7
 10
24.10073198455528
 20
185.3695971009247
 30
0.0
 11
24.52973175865527
 21
185.1925973829247
 31
0.0
  0
LINE
  5
39B
  8
0
  6
CONTINUOUS
 62
     7
 10
23.97710822595528
 20
170.9345973071247
 30
0.0
 11
25.84873179045528
 21
170.9345973071247
 31
0.0
  0
LINE
  5
39C
  8
0
  6
CONTINUOUS
 62
     7
 10
25.84873179045528
 20
170.9345973071247
 30
0.0
 11
25.84873179045528
 21
170.3845991728247
 31
0.0
  0
LINE
  5
39D
  8
0
  6
CONTINUOUS
 62
     7
 10
25.84873179045528
 20
170.3845991728247
 30
0.0
 11
25.94873185345529
 21
170.3845991728247
 31
0.0
  0
LINE
  5
39E
  8
0
  6
CONTINUOUS
 62
     7
 10
25.94873185345529
 20
170.3845991728247
 30
0.0
 11
27.13353016485527
 21
171.0145681140247
 31
0.0
  0
LINE
  5
39F
  8
0
  6
CONTINUOUS
 62
     7
 10
25.84873179045528
 20
172.0845981476247
 30
0.0
 11
25.84873179045528
 21
171.5346000132247
 31
0.0
  0
LINE
  5
3A0
  8
0
  6
CONTINUOUS
 62
     7
 10
25.84873179045528
 20
171.5346000132247
 30
0.0
 11
23.97710822595528
 21
171.5346000132247
 31
0.0
  0
LINE
  5
3A1
  8
0
  6
CONTINUOUS
 62
     7
 10
27.13353016485527
 20
171.4546292063247
 30
0.0
 11
25.94873185345529
 21
172.0845981476247
 31
0.0
  0
LINE
  5
3A2
  8
0
  6
CONTINUOUS
 62
     7
 10
25.94873185345529
 20
172.0845981476247
 30
0.0
 11
25.84873179045528
 21
172.0845981476247
 31
0.0
  0
LINE
  5
3A3
  8
0
  6
CONTINUOUS
 62
     7
 10
27.66873179545527
 20
169.5215984222247
 30
0.0
 11
27.54473178255528
 21
169.3985967871247
 31
0.0
  0
LINE
  5
3A4
  8
0
  6
CONTINUOUS
 62
     7
 10
26.76673179565528
 20
169.5895998713247
 30
0.0
 11
27.03673175615528
 21
169.8575972554247
 31
0.0
  0
LINE
  5
3A5
  8
0
  6
CONTINUOUS
 62
     7
 10
26.60773174915528
 20
169.7505994674247
 30
0.0
 11
26.76673179565528
 21
169.5895998713247
 31
0.0
  0
LINE
  5
3A6
  8
0
  6
CONTINUOUS
 62
     7
 10
27.02973170285527
 20
170.1675972876247
 30
0.0
 11
26.60773174915528
 21
169.7505994674247
 31
0.0
  0
LINE
  5
3A7
  8
0
  6
CONTINUOUS
 62
     7
 10
27.54073186855528
 20
173.4465978083247
 30
0.0
 11
27.83273176365528
 21
173.1635986802247
 31
0.0
  0
LINE
  5
3A8
  8
0
  6
CONTINUOUS
 62
     7
 10
27.31273176225528
 20
173.2115990457247
 30
0.0
 11
27.54073186855528
 21
173.4465978083247
 31
0.0
  0
LINE
  5
3A9
  8
0
  6
CONTINUOUS
 62
     7
 10
27.57173187175528
 20
172.9595980581247
 30
0.0
 11
27.31273176225528
 21
173.2115990457247
 31
0.0
  0
LINE
  5
3AA
  8
0
  6
CONTINUOUS
 62
     7
 10
27.41473184045528
 20
172.7985984620247
 30
0.0
 11
27.57173187175528
 21
172.9595980581247
 31
0.0
  0
LINE
  5
3AB
  8
0
  6
CONTINUOUS
 62
     7
 10
27.15573173095528
 20
173.0495973465247
 30
0.0
 11
27.41473184045528
 21
172.7985984620247
 31
0.0
  0
LINE
  5
3AC
  8
0
  6
CONTINUOUS
 62
     7
 10
26.87973172475528
 20
172.7665982184247
 30
0.0
 11
27.15573173095528
 21
173.0495973465247
 31
0.0
  0
LINE
  5
3AD
  8
0
  6
CONTINUOUS
 62
     7
 10
27.17973191365528
 20
172.4745987889247
 30
0.0
 11
26.87973172475528
 21
172.7665982184247
 31
0.0
  0
LINE
  5
3AE
  8
0
  6
CONTINUOUS
 62
     7
 10
27.02273188235527
 20
172.3125970897247
 30
0.0
 11
27.17973191365528
 21
172.4745987889247
 31
0.0
  0
LINE
  5
3AF
  8
0
  6
CONTINUOUS
 62
     7
 10
26.59273186775528
 20
172.7305970129247
 30
0.0
 11
27.02273188235527
 21
172.3125970897247
 31
0.0
  0
LINE
  5
3B0
  8
0
  6
CONTINUOUS
 62
     7
 10
27.56873184885528
 20
173.7335978982246
 30
0.0
 11
26.59273186775528
 21
172.7305970129247
 31
0.0
  0
LINE
  5
3B1
  8
0
  6
CONTINUOUS
 62
     7
 10
27.98873178735528
 20
173.3245982763247
 30
0.0
 11
27.56873184885528
 21
173.7335978982246
 31
0.0
  0
LINE
  5
3B2
  8
0
  6
CONTINUOUS
 62
     7
 10
27.83273176365528
 20
173.1635986802247
 30
0.0
 11
27.98873178735528
 21
173.3245982763247
 31
0.0
  0
LINE
  5
3B3
  8
0
  6
CONTINUOUS
 62
     7
 10
28.37773183905529
 20
170.3205986854247
 30
0.0
 11
28.21973180005529
 21
170.3865996536247
 31
0.0
  0
LINE
  5
3B4
  8
0
  6
CONTINUOUS
 62
     7
 10
28.45773180785528
 20
169.8945968386247
 30
0.0
 11
28.51573184205528
 21
170.0315981147247
 31
0.0
  0
LINE
  5
3B5
  8
0
  6
CONTINUOUS
 62
     7
 10
27.16773182225528
 20
170.4375988778247
 30
0.0
 11
28.45773180785528
 21
169.8945968386247
 31
0.0
  0
LINE
  5
3B6
  8
0
  6
CONTINUOUS
 62
     7
 10
27.23273185155529
 20
170.5925970313247
 30
0.0
 11
27.16773182225528
 21
170.4375988778247
 31
0.0
  0
LINE
  5
3B7
  8
0
  6
CONTINUOUS
 62
     7
 10
28.14473181105528
 20
170.2085978326247
 30
0.0
 11
27.23273185155529
 21
170.5925970313247
 31
0.0
  0
LINE
  5
3B8
  8
0
  6
CONTINUOUS
 62
     7
 10
28.21973180005529
 20
170.3865996536247
 30
0.0
 11
28.14473181105528
 21
170.2085978326247
 31
0.0
  0
LINE
  5
3B9
  8
0
  6
CONTINUOUS
 62
     7
 10
28.39573185965529
 20
172.1505991158247
 30
0.0
 11
28.60173179845528
 21
172.2405984041247
 31
0.0
  0
LINE
  5
3BA
  8
0
  6
CONTINUOUS
 62
     7
 10
28.23273178265528
 20
172.5225991544247
 30
0.0
 11
28.39573185965529
 21
172.1505991158247
 31
0.0
  0
LINE
  5
3BB
  8
0
  6
CONTINUOUS
 62
     7
 10
27.93273182665529
 20
172.3915993211247
 30
0.0
 11
28.23273178265528
 21
172.5225991544247
 31
0.0
  0
LINE
  5
3BC
  8
0
  6
CONTINUOUS
 62
     7
 10
28.07573186775528
 20
172.0605998275247
 30
0.0
 11
27.93273182665529
 21
172.3915993211247
 31
0.0
  0
LINE
  5
3BD
  8
0
  6
CONTINUOUS
 62
     7
 10
27.72573176385528
 20
172.3025984105247
 30
0.0
 11
27.87073182015529
 21
171.9705968138246
 31
0.0
  0
LINE
  5
3BE
  8
0
  6
CONTINUOUS
 62
     7
 10
27.15573173095528
 20
172.0545983848247
 30
0.0
 11
27.72573176385528
 21
172.3025984105247
 31
0.0
  0
LINE
  5
3BF
  8
0
  6
CONTINUOUS
 62
     7
 10
27.08373188115527
 20
172.2195989427247
 30
0.0
 11
27.15573173095528
 21
172.0545983848247
 31
0.0
  0
LINE
  5
3C0
  8
0
  6
CONTINUOUS
 62
     7
 10
28.36773176285529
 20
172.7785973784247
 30
0.0
 11
27.08373188115527
 21
172.2195989427247
 31
0.0
  0
LINE
  5
3C1
  8
0
  6
CONTINUOUS
 62
     7
 10
28.60173179845528
 20
172.2405984041247
 30
0.0
 11
28.36773176285529
 21
172.7785973784247
 31
0.0
  0
LINE
  5
3C2
  8
0
  6
CONTINUOUS
 62
     7
 10
27.87073182015529
 20
171.9705968138246
 30
0.0
 11
28.07573186775528
 21
172.0605998275247
 31
0.0
  0
LINE
  5
3C3
  8
0
  6
CONTINUOUS
 62
     7
 10
25.72973181565529
 20
168.9015983578247
 30
0.0
 11
25.51073177795529
 21
168.9015983578247
 31
0.0
  0
LINE
  5
3C4
  8
0
  6
CONTINUOUS
 62
     7
 10
25.87173173275528
 20
169.1265984413247
 30
0.0
 11
25.51073177795529
 21
169.1265984413247
 31
0.0
  0
LINE
  5
3C5
  8
0
  6
CONTINUOUS
 62
     7
 10
25.87173173275528
 20
168.8325985309247
 30
0.0
 11
25.87173173275528
 21
169.1265984413247
 31
0.0
  0
LINE
  5
3C6
  8
0
  6
CONTINUOUS
 62
     7
 10
25.22073166515529
 20
168.9085981783246
 30
0.0
 11
25.33573184235527
 21
168.9085981783246
 31
0.0
  0
LINE
  5
3C7
  8
0
  6
CONTINUOUS
 62
     7
 10
25.22073166515529
 20
169.1275968191246
 30
0.0
 11
25.22073166515529
 21
168.9085981783246
 31
0.0
  0
LINE
  5
3C8
  8
0
  6
CONTINUOUS
 62
     7
 10
25.33673161715528
 20
169.1275968191246
 30
0.0
 11
25.22073166515529
 21
169.1275968191246
 31
0.0
  0
LINE
  5
3C9
  8
0
  6
CONTINUOUS
 62
     7
 10
25.33673161715528
 20
169.4345979926246
 30
0.0
 11
25.33673161715528
 21
169.1275968191246
 31
0.0
  0
LINE
  5
3CA
  8
0
  6
CONTINUOUS
 62
     7
 10
25.51073177795529
 20
169.4345979926246
 30
0.0
 11
25.33673161715528
 21
169.4345979926246
 31
0.0
  0
LINE
  5
3CB
  8
0
  6
CONTINUOUS
 62
     7
 10
25.51073177795529
 20
169.1265984413247
 30
0.0
 11
25.51073177795529
 21
169.4345979926246
 31
0.0
  0
LINE
  5
3CC
  8
0
  6
CONTINUOUS
 62
     7
 10
26.54575944955528
 20
169.1735557255247
 30
0.0
 11
26.70687965195528
 21
169.2395715949247
 31
0.0
  0
LINE
  5
3CD
  8
0
  6
CONTINUOUS
 62
     7
 10
26.60369749255529
 20
168.8280089733247
 30
0.0
 11
26.52577745805527
 21
169.0177491841247
 31
0.0
  0
LINE
  5
3CE
  8
0
  6
CONTINUOUS
 62
     7
 10
26.86420564615529
 20
168.7875746724247
 30
0.0
 11
26.71497354355528
 21
168.7263644275247
 31
0.0
  0
LINE
  5
3CF
  8
0
  6
CONTINUOUS
 62
     7
 10
26.72083715055528
 20
174.2121263382247
 30
0.0
 11
26.43350201735528
 21
174.3272117314247
 31
0.0
  0
LINE
  5
3D0
  8
0
  6
CONTINUOUS
 62
     7
 10
26.51140621935528
 20
174.0532836851247
 30
0.0
 11
26.16124895475528
 21
173.1787717876247
 31
0.0
  0
LINE
  5
3D1
  8
0
  6
CONTINUOUS
 62
     7
 10
26.43350201735528
 20
174.3272117314247
 30
0.0
 11
25.91371878125528
 21
173.0276293096247
 31
0.0
  0
LINE
  5
3D2
  8
0
  6
CONTINUOUS
 62
     7
 10
25.91371878125528
 20
173.0276293096247
 30
0.0
 11
26.22432370745528
 21
172.9081182715247
 31
0.0
  0
LINE
  5
3D3
  8
0
  6
CONTINUOUS
 62
     7
 10
26.63711520915528
 20
174.0029475626247
 30
0.0
 11
26.51140621935528
 21
174.0532836851247
 31
0.0
  0
LINE
  5
3D4
  8
0
  6
CONTINUOUS
 62
     7
 10
26.16124895475528
 20
173.1787717876247
 30
0.0
 11
26.30040228445527
 21
173.1255262133247
 31
0.0
  0
LINE
  5
3D5
  8
0
  6
CONTINUOUS
 62
     7
 10
25.61181892715528
 20
174.2077453968247
 30
0.0
 11
25.64181356765528
 21
174.1676798996247
 31
0.0
  0
LINE
  5
3D6
  8
0
  6
CONTINUOUS
 62
     7
 10
25.58045035305528
 20
174.2322354552247
 30
0.0
 11
25.61181892715528
 21
174.2077453968247
 31
0.0
  0
LINE
  5
3D7
  8
0
  6
CONTINUOUS
 62
     7
 10
25.54210687135527
 20
174.2428972360247
 30
0.0
 11
25.58045035305528
 21
174.2322354552247
 31
0.0
  0
LINE
  5
3D8
  8
0
  6
CONTINUOUS
 62
     7
 10
25.50259783935528
 20
174.2381102380247
 30
0.0
 11
25.54210687135527
 21
174.2428972360247
 31
0.0
  0
LINE
  5
3D9
  8
0
  6
CONTINUOUS
 62
     7
 10
25.46790979875529
 20
174.2186008927247
 30
0.0
 11
25.50259783935528
 21
174.2381102380247
 31
0.0
  0
LINE
  5
3DA
  8
0
  6
CONTINUOUS
 62
     7
 10
25.44329820275527
 20
174.1873270806247
 30
0.0
 11
25.46790979875529
 21
174.2186008927247
 31
0.0
  0
LINE
  5
3DB
  8
0
  6
CONTINUOUS
 62
     7
 10
25.36958821195528
 20
174.0163548824247
 30
0.0
 11
25.44329820275527
 21
174.1873270806247
 31
0.0
  0
LINE
  5
3DC
  8
0
  6
CONTINUOUS
 62
     7
 10
25.33324055445527
 20
173.8337523278247
 30
0.0
 11
25.36958821195528
 21
174.0163548824247
 31
0.0
  0
LINE
  5
3DD
  8
0
  6
CONTINUOUS
 62
     7
 10
25.33586083055528
 20
173.6475883958247
 30
0.0
 11
25.33324055445527
 21
173.8337523278247
 31
0.0
  0
LINE
  5
3DE
  8
0
  6
CONTINUOUS
 62
     7
 10
25.37733309045528
 20
173.4660810765247
 30
0.0
 11
25.33586083055528
 21
173.6475883958247
 31
0.0
  0
LINE
  5
3DF
  8
0
  6
CONTINUOUS
 62
     7
 10
25.45582542275528
 20
173.2972509202247
 30
0.0
 11
25.37733309045528
 21
173.4660810765247
 31
0.0
  0
LINE
  5
3E0
  8
0
  6
CONTINUOUS
 62
     7
 10
25.49245946185528
 20
173.2690132198246
 30
0.0
 11
25.45582542275528
 21
173.2972509202247
 31
0.0
  0
LINE
  5
3E1
  8
0
  6
CONTINUOUS
 62
     7
 10
25.53698250165527
 20
173.2564738926247
 30
0.0
 11
25.49245946185528
 21
173.2690132198246
 31
0.0
  0
LINE
  5
3E2
  8
0
  6
CONTINUOUS
 62
     7
 10
25.58296841645527
 20
173.2614508805247
 30
0.0
 11
25.53698250165527
 21
173.2564738926247
 31
0.0
  0
LINE
  5
3E3
  8
0
  6
CONTINUOUS
 62
     7
 10
25.62378060145528
 20
173.2832177517247
 30
0.0
 11
25.58296841645527
 21
173.2614508805247
 31
0.0
  0
LINE
  5
3E4
  8
0
  6
CONTINUOUS
 62
     7
 10
25.72694506575527
 20
173.0885713336247
 30
0.0
 11
25.78479719425528
 21
173.1544456419247
 31
0.0
  0
LINE
  5
3E5
  8
0
  6
CONTINUOUS
 62
     7
 10
25.49743714815529
 20
173.0170420345247
 30
0.0
 11
25.58045757075529
 21
173.0150825319247
 31
0.0
  0
LINE
  5
3E6
  8
0
  6
CONTINUOUS
 62
     7
 10
25.41941071005528
 20
173.0454697248247
 30
0.0
 11
25.49743714815529
 21
173.0170420345247
 31
0.0
  0
LINE
  5
3E7
  8
0
  6
CONTINUOUS
 62
     7
 10
25.35458413955529
 20
173.0973704693247
 30
0.0
 11
25.41941071005528
 21
173.0454697248247
 31
0.0
  0
LINE
  5
3E8
  8
0
  6
CONTINUOUS
 62
     7
 10
25.28563506975527
 20
173.2094085750247
 30
0.0
 11
25.35458413955529
 21
173.0973704693247
 31
0.0
  0
LINE
  5
3E9
  8
0
  6
CONTINUOUS
 62
     7
 10
25.23079972785529
 20
173.3289866683247
 30
0.0
 11
25.28563506975527
 21
173.2094085750247
 31
0.0
  0
LINE
  5
3EA
  8
0
  6
CONTINUOUS
 62
     7
 10
25.19088976165529
 20
173.4543426868247
 30
0.0
 11
25.23079972785529
 21
173.3289866683247
 31
0.0
  0
LINE
  5
3EB
  8
0
  6
CONTINUOUS
 62
     7
 10
25.16649516375529
 20
173.5836139855247
 30
0.0
 11
25.19088976165529
 21
173.4543426868247
 31
0.0
  0
LINE
  5
3EC
  8
0
  6
CONTINUOUS
 62
     7
 10
25.15797728745528
 20
173.7148894903247
 30
0.0
 11
25.16649516375529
 21
173.5836139855247
 31
0.0
  0
LINE
  5
3ED
  8
0
  6
CONTINUOUS
 62
     7
 10
25.16246346835529
 20
173.8481282231247
 30
0.0
 11
25.15797728745528
 21
173.7148894903247
 31
0.0
  0
LINE
  5
3EE
  8
0
  6
CONTINUOUS
 62
     7
 10
25.18204499115528
 20
173.9799960491247
 30
0.0
 11
25.16246346835529
 21
173.8481282231247
 31
0.0
  0
LINE
  5
3EF
  8
0
  6
CONTINUOUS
 62
     7
 10
25.21646807045528
 20
174.1087905106247
 30
0.0
 11
25.18204499115528
 21
173.9799960491247
 31
0.0
  0
LINE
  5
3F0
  8
0
  6
CONTINUOUS
 62
     7
 10
25.26528846545529
 20
174.2328426775247
 30
0.0
 11
25.21646807045528
 21
174.1087905106247
 31
0.0
  0
LINE
  5
3F1
  8
0
  6
CONTINUOUS
 62
     7
 10
25.32785145645528
 20
174.3505096969247
 30
0.0
 11
25.26528846545529
 21
174.2328426775247
 31
0.0
  0
LINE
  5
3F2
  8
0
  6
CONTINUOUS
 62
     7
 10
25.39296766815528
 20
174.4144170520247
 30
0.0
 11
25.32785145645528
 21
174.3505096969247
 31
0.0
  0
LINE
  5
3F3
  8
0
  6
CONTINUOUS
 62
     7
 10
25.47640159805528
 20
174.4513682064247
 30
0.0
 11
25.39296766815528
 21
174.4144170520247
 31
0.0
  0
LINE
  5
3F4
  8
0
  6
CONTINUOUS
 62
     7
 10
25.56749938135528
 20
174.4566357669247
 30
0.0
 11
25.47640159805528
 21
174.4513682064247
 31
0.0
  0
LINE
  5
3F5
  8
0
  6
CONTINUOUS
 62
     7
 10
25.65352867435529
 20
173.3186378118247
 30
0.0
 11
25.62378060145528
 21
173.2832177517247
 31
0.0
  0
LINE
  5
3F6
  8
0
  6
CONTINUOUS
 62
     7
 10
25.85140608325529
 20
174.1484611270247
 30
0.0
 11
25.81935717795528
 21
174.2285138902247
 31
0.0
  0
LINE
  5
3F7
  8
0
  6
CONTINUOUS
 62
     7
 10
25.87321463115528
 20
174.0650369760247
 30
0.0
 11
25.85140608325529
 21
174.1484611270247
 31
0.0
  0
LINE
  5
3F8
  8
0
  6
CONTINUOUS
 62
     7
 10
25.69765497075528
 20
174.0292034086247
 30
0.0
 11
25.70384593755529
 21
173.9795415637247
 31
0.0
  0
LINE
  5
3F9
  8
0
  6
CONTINUOUS
 62
     7
 10
25.83174889055528
 20
173.2284857866247
 30
0.0
 11
25.86666696775528
 21
173.3089036283247
 31
0.0
  0
LINE
  5
3FA
  8
0
  6
CONTINUOUS
 62
     7
 10
25.65973966455528
 20
173.0397886571247
 30
0.0
 11
25.72694506575527
 21
173.0885713336247
 31
0.0
  0
LINE
  5
3FB
  8
0
  6
CONTINUOUS
 62
     7
 10
25.58045757075529
 20
173.0150825319247
 30
0.0
 11
25.65973966455528
 21
173.0397886571247
 31
0.0
  0
LINE
  5
3FC
  8
0
  6
CONTINUOUS
 62
     7
 10
25.72669523845528
 20
174.3735655185247
 30
0.0
 11
25.65463694815529
 21
174.4295491811247
 31
0.0
  0
LINE
  5
3FD
  8
0
  6
CONTINUOUS
 62
     7
 10
25.66752039905528
 20
173.3497588870247
 30
0.0
 11
25.65352867435529
 21
173.3186378118247
 31
0.0
  0
LINE
  5
3FE
  8
0
  6
CONTINUOUS
 62
     7
 10
25.67958940825528
 20
173.3816771743247
 30
0.0
 11
25.66752039905528
 21
173.3497588870247
 31
0.0
  0
LINE
  5
3FF
  8
0
  6
CONTINUOUS
 62
     7
 10
25.77756919975528
 20
174.3039435682247
 30
0.0
 11
25.72669523845528
 21
174.3735655185247
 31
0.0
  0
LINE
  5
400
  8
0
  6
CONTINUOUS
 62
     7
 10
25.88870857915528
 20
173.3937582907247
 30
0.0
 11
25.89734170665528
 21
173.4810045895247
 31
0.0
  0
LINE
  5
401
  8
0
  6
CONTINUOUS
 62
     7
 10
25.86666696775528
 20
173.3089036283247
 30
0.0
 11
25.88870857915528
 21
173.3937582907247
 31
0.0
  0
LINE
  5
402
  8
0
  6
CONTINUOUS
 62
     7
 10
25.78479719425528
 20
173.1544456419247
 30
0.0
 11
25.83174889055528
 21
173.2284857866247
 31
0.0
  0
LINE
  5
403
  8
0
  6
CONTINUOUS
 62
     7
 10
25.88444219045528
 20
173.9795415637247
 30
0.0
 11
25.87321463115528
 21
174.0650369760247
 31
0.0
  0
LINE
  5
404
  8
0
  6
CONTINUOUS
 62
     7
 10
25.70384593755529
 20
173.9795415637247
 30
0.0
 11
25.88444219045528
 21
173.9795415637247
 31
0.0
  0
LINE
  5
405
  8
0
  6
CONTINUOUS
 62
     7
 10
25.68509492165528
 20
174.0776545343247
 30
0.0
 11
25.69765497075528
 21
174.0292034086247
 31
0.0
  0
LINE
  5
406
  8
0
  6
CONTINUOUS
 62
     7
 10
25.66637626925528
 20
174.1240716514247
 30
0.0
 11
25.68509492165528
 21
174.0776545343247
 31
0.0
  0
LINE
  5
407
  8
0
  6
CONTINUOUS
 62
     7
 10
25.65463694815529
 20
174.4295491811247
 30
0.0
 11
25.56749938135528
 21
174.4566357669247
 31
0.0
  0
LINE
  5
408
  8
0
  6
CONTINUOUS
 62
     7
 10
25.89734170665528
 20
173.4810045895247
 30
0.0
 11
25.70384593755529
 21
173.4810045895247
 31
0.0
  0
LINE
  5
409
  8
0
  6
CONTINUOUS
 62
     7
 10
25.70384593755529
 20
173.4810045895247
 30
0.0
 11
25.69778582155529
 21
173.4474210974247
 31
0.0
  0
LINE
  5
40A
  8
0
  6
CONTINUOUS
 62
     7
 10
25.81935717795528
 20
174.2285138902247
 30
0.0
 11
25.77756919975528
 21
174.3039435682247
 31
0.0
  0
LINE
  5
40B
  8
0
  6
CONTINUOUS
 62
     7
 10
25.64181356765528
 20
174.1676798996247
 30
0.0
 11
25.66637626925528
 21
174.1240716514247
 31
0.0
  0
LINE
  5
40C
  8
0
  6
CONTINUOUS
 62
     7
 10
25.69778582155529
 20
173.4474210974247
 30
0.0
 11
25.68969030005528
 21
173.4142734644247
 31
0.0
  0
LINE
  5
40D
  8
0
  6
CONTINUOUS
 62
     7
 10
25.68969030005528
 20
173.4142734644247
 30
0.0
 11
25.67958940825528
 21
173.3816771743247
 31
0.0
  0
LINE
  5
40E
  8
0
  6
CONTINUOUS
 62
     7
 10
23.95873183455528
 20
170.3705995318246
 30
0.0
 11
23.88373196195528
 21
170.5485976276247
 31
0.0
  0
LINE
  5
40F
  8
0
  6
CONTINUOUS
 62
     7
 10
22.92173162175529
 20
169.8035991725247
 30
0.0
 11
22.75973178525528
 21
170.1905972299247
 31
0.0
  0
LINE
  5
410
  8
0
  6
CONTINUOUS
 62
     7
 10
22.71373190065528
 20
169.7165987429247
 30
0.0
 11
22.92173162175529
 21
169.8035991725247
 31
0.0
  0
LINE
  5
411
  8
0
  6
CONTINUOUS
 62
     7
 10
22.48273177145528
 20
170.2705978390246
 30
0.0
 11
22.71373190065528
 21
169.7165987429247
 31
0.0
  0
LINE
  5
412
  8
0
  6
CONTINUOUS
 62
     7
 10
22.70273158405529
 20
170.3625976083247
 30
0.0
 11
22.48273177145528
 21
170.2705978390246
 31
0.0
  0
LINE
  5
413
  8
0
  6
CONTINUOUS
 62
     7
 10
24.25873179065528
 20
173.9235988793247
 30
0.0
 11
24.38873184915528
 21
173.6175998089247
 31
0.0
  0
LINE
  5
414
  8
0
  6
CONTINUOUS
 62
     7
 10
24.38873184915528
 20
173.6175998089247
 30
0.0
 11
24.55273170095528
 21
173.6905968723247
 31
0.0
  0
LINE
  5
415
  8
0
  6
CONTINUOUS
 62
     7
 10
24.59073199035528
 20
173.8265997705247
 30
0.0
 11
24.54373186525528
 21
173.9285982188246
 31
0.0
  0
LINE
  5
416
  8
0
  6
CONTINUOUS
 62
     7
 10
24.41873161195528
 20
173.9915966031247
 30
0.0
 11
24.25873179065528
 21
173.9235988793247
 31
0.0
  0
LINE
  5
417
  8
0
  6
CONTINUOUS
 62
     7
 10
24.56073176195528
 20
172.7705991801247
 30
0.0
 11
24.91073163305528
 21
172.9205979940247
 31
0.0
  0
LINE
  5
418
  8
0
  6
CONTINUOUS
 62
     7
 10
24.01173200535529
 20
174.0585996744246
 30
0.0
 11
24.56073176195528
 21
172.7705991801247
 31
0.0
  0
LINE
  5
419
  8
0
  6
CONTINUOUS
 62
     7
 10
24.37373196785528
 20
174.2115973469247
 30
0.0
 11
24.01173200535529
 21
174.0585996744246
 31
0.0
  0
LINE
  5
41A
  8
0
  6
CONTINUOUS
 62
     7
 10
24.65673202725527
 20
173.4875983533247
 30
0.0
 11
24.47673158795529
 21
173.4105966028247
 31
0.0
  0
LINE
  5
41B
  8
0
  6
CONTINUOUS
 62
     7
 10
24.47673158795529
 20
173.4105966028247
 30
0.0
 11
24.63273184445528
 21
173.0465984878247
 31
0.0
  0
LINE
  5
41C
  8
0
  6
CONTINUOUS
 62
     7
 10
24.63273184445528
 20
173.0465984878247
 30
0.0
 11
24.81673184855528
 21
173.1245986160247
 31
0.0
  0
LINE
  5
41D
  8
0
  6
CONTINUOUS
 62
     7
 10
23.54073191135528
 20
173.2115990457247
 30
0.0
 11
23.84273188265529
 21
172.7975963589247
 31
0.0
  0
LINE
  5
41E
  8
0
  6
CONTINUOUS
 62
     7
 10
23.84273188265529
 20
172.7975963589247
 30
0.0
 11
23.95973160935527
 21
172.9175991353246
 31
0.0
  0
LINE
  5
41F
  8
0
  6
CONTINUOUS
 62
     7
 10
24.38373204395528
 20
172.6185998854247
 30
0.0
 11
24.52373171305528
 21
172.7605967757247
 31
0.0
  0
LINE
  5
420
  8
0
  6
CONTINUOUS
 62
     7
 10
24.13773203345528
 20
172.7965979811247
 30
0.0
 11
24.38373204395528
 21
172.6185998854247
 31
0.0
  0
LINE
  5
421
  8
0
  6
CONTINUOUS
 62
     7
 10
23.96673189555529
 20
172.6215987441247
 30
0.0
 11
24.13773203345528
 21
172.7965979811247
 31
0.0
  0
LINE
  5
422
  8
0
  6
CONTINUOUS
 62
     7
 10
24.14473185395528
 20
172.3745970961247
 30
0.0
 11
23.96673189555529
 21
172.6215987441247
 31
0.0
  0
LINE
  5
423
  8
0
  6
CONTINUOUS
 62
     7
 10
24.00473171915527
 20
172.2325964805247
 30
0.0
 11
24.14473185395528
 21
172.3745970961247
 31
0.0
  0
LINE
  5
424
  8
0
  6
CONTINUOUS
 62
     7
 10
23.19573184555529
 20
173.4065993663247
 30
0.0
 11
24.00473171915527
 21
172.2325964805247
 31
0.0
  0
LINE
  5
425
  8
0
  6
CONTINUOUS
 62
     7
 10
24.52373171305528
 20
172.7605967757247
 30
0.0
 11
23.34073178545528
 21
173.5535993215247
 31
0.0
  0
LINE
  5
426
  8
0
  6
CONTINUOUS
 62
     7
 10
23.95973160935527
 20
172.9175991353246
 30
0.0
 11
23.54073191135528
 21
173.2115990457247
 31
0.0
  0
LINE
  5
427
  8
0
  6
CONTINUOUS
 62
     7
 10
23.34073178545528
 20
173.5535993215247
 30
0.0
 11
23.19573184555529
 21
173.4065993663247
 31
0.0
  0
LINE
  5
428
  8
0
  6
CONTINUOUS
 62
     7
 10
23.45119223075528
 20
169.3266726073247
 30
0.0
 11
23.33231216375528
 21
169.4450474319247
 31
0.0
  0
LINE
  5
429
  8
0
  6
CONTINUOUS
 62
     7
 10
23.51015053765528
 20
171.9261578259247
 30
0.0
 11
23.44716938285528
 21
171.7708541986247
 31
0.0
  0
LINE
  5
42A
  8
0
  6
CONTINUOUS
 62
     7
 10
24.84373182135528
 20
169.1195986208247
 30
0.0
 11
24.99873183745528
 21
169.0555981335247
 31
0.0
  0
LINE
  5
42B
  8
0
  6
CONTINUOUS
 62
     7
 10
24.87973162975528
 20
168.8535979923247
 30
0.0
 11
24.71573177795529
 21
168.9175984797247
 31
0.0
  0
LINE
  5
42E
  8
0
  6
CONTINUOUS
 62
     7
 10
25.51073177795529
 20
168.9015983578247
 30
0.0
 11
25.50973177035527
 21
168.3895981845247
 31
0.0
  0
LINE
  5
42F
  8
0
  6
CONTINUOUS
 62
     7
 10
25.50973177035527
 20
168.3895981845247
 30
0.0
 11
25.72973181565529
 21
168.9015983578247
 31
0.0
  0
LINE
  5
430
  8
0
  6
CONTINUOUS
 62
     7
 10
25.52173186165528
 20
168.0345966455247
 30
0.0
 11
25.87173173275528
 21
168.8325985309247
 31
0.0
  0
LINE
  5
431
  8
0
  6
CONTINUOUS
 62
     7
 10
25.33473160195528
 20
168.0345966455247
 30
0.0
 11
25.52173186165528
 21
168.0345966455247
 31
0.0
  0
LINE
  5
432
  8
0
  6
CONTINUOUS
 62
     7
 10
25.33573184235527
 20
168.9085981783246
 30
0.0
 11
25.33473160195528
 21
168.0345966455247
 31
0.0
  0
LINE
  5
433
  8
0
  6
CONTINUOUS
 62
     7
 10
24.49273170975528
 20
168.4585980114247
 30
0.0
 11
24.18873172325527
 21
168.5845985052247
 31
0.0
  0
LINE
  5
434
  8
0
  6
CONTINUOUS
 62
     7
 10
24.52973175865527
 20
168.1925973829247
 30
0.0
 11
24.87973162975528
 21
168.8535979923247
 31
0.0
  0
LINE
  5
435
  8
0
  6
CONTINUOUS
 62
     7
 10
24.18873172325527
 20
168.5845985052247
 30
0.0
 11
24.10073198455528
 21
168.3695971009247
 31
0.0
  0
LINE
  5
436
  8
0
  6
CONTINUOUS
 62
     7
 10
24.62173199355529
 20
168.6865969536247
 30
0.0
 11
24.49273170975528
 21
168.4585980114247
 31
0.0
  0
LINE
  5
437
  8
0
  6
CONTINUOUS
 62
     7
 10
24.10073198455528
 20
168.3695971009247
 30
0.0
 11
24.52973175865527
 21
168.1925973829247
 31
0.0
  0
LINE
  5
438
  8
0
  6
CONTINUOUS
 62
     7
 10
24.10073198455528
 20
176.8695971009247
 30
0.0
 11
24.52973175865527
 21
176.6925973829247
 31
0.0
  0
LINE
  5
439
  8
0
  6
CONTINUOUS
 62
     7
 10
24.62173199355529
 20
177.1865969536247
 30
0.0
 11
24.49273170975528
 21
176.9585980114247
 31
0.0
  0
LINE
  5
43A
  8
0
  6
CONTINUOUS
 62
     7
 10
24.18873172325527
 20
177.0845985052247
 30
0.0
 11
24.10073198455528
 21
176.8695971009247
 31
0.0
  0
LINE
  5
43B
  8
0
  6
CONTINUOUS
 62
     7
 10
24.52973175865527
 20
176.6925973829247
 30
0.0
 11
24.87973162975528
 21
177.3535979923247
 31
0.0
  0
LINE
  5
43C
  8
0
  6
CONTINUOUS
 62
     7
 10
24.49273170975528
 20
176.9585980114247
 30
0.0
 11
24.18873172325527
 21
177.0845985052247
 31
0.0
  0
LINE
  5
43D
  8
0
  6
CONTINUOUS
 62
     7
 10
25.33573184235527
 20
177.4085981783246
 30
0.0
 11
25.33473160195528
 21
176.5345966455247
 31
0.0
  0
LINE
  5
43E
  8
0
  6
CONTINUOUS
 62
     7
 10
25.33473160195528
 20
176.5345966455247
 30
0.0
 11
25.52173186165528
 21
176.5345966455247
 31
0.0
  0
LINE
  5
43F
  8
0
  6
CONTINUOUS
 62
     7
 10
25.52173186165528
 20
176.5345966455247
 30
0.0
 11
25.87173173275528
 21
177.3325985309247
 31
0.0
  0
LINE
  5
440
  8
0
  6
CONTINUOUS
 62
     7
 10
25.50973177035527
 20
176.8895981845247
 30
0.0
 11
25.72973181565529
 21
177.4015983578247
 31
0.0
  0
LINE
  5
441
  8
0
  6
CONTINUOUS
 62
     7
 10
25.51073177795529
 20
177.4015983578247
 30
0.0
 11
25.50973177035527
 21
176.8895981845247
 31
0.0
  0
LINE
  5
442
  8
0
  6
CONTINUOUS
 62
     7
 10
27.54073186855528
 20
190.4465978083247
 30
0.0
 11
27.83273176365528
 21
190.1635986802247
 31
0.0
  0
LINE
  5
443
  8
0
  6
CONTINUOUS
 62
     7
 10
27.31273176225528
 20
190.2115990457247
 30
0.0
 11
27.54073186855528
 21
190.4465978083247
 31
0.0
  0
LINE
  5
444
  8
0
  6
CONTINUOUS
 62
     7
 10
27.57173187175528
 20
189.9595980581247
 30
0.0
 11
27.31273176225528
 21
190.2115990457247
 31
0.0
  0
LINE
  5
445
  8
0
  6
CONTINUOUS
 62
     7
 10
27.56873184885528
 20
190.7335978982246
 30
0.0
 11
26.59273186775528
 21
189.7305970129247
 31
0.0
  0
LINE
  5
446
  8
0
  6
CONTINUOUS
 62
     7
 10
27.98873178735528
 20
190.3245982763247
 30
0.0
 11
27.56873184885528
 21
190.7335978982246
 31
0.0
  0
LINE
  5
447
  8
0
  6
CONTINUOUS
 62
     7
 10
27.83273176365528
 20
190.1635986802247
 30
0.0
 11
27.98873178735528
 21
190.3245982763247
 31
0.0
  0
LINE
  5
448
  8
0
  6
CONTINUOUS
 62
     7
 10
26.72083715055528
 20
191.2121263382247
 30
0.0
 11
26.43350201735528
 21
191.3272117314247
 31
0.0
  0
LINE
  5
449
  8
0
  6
CONTINUOUS
 62
     7
 10
26.51140621935528
 20
191.0532836851247
 30
0.0
 11
26.16124895475528
 21
190.1787717876247
 31
0.0
  0
LINE
  5
44A
  8
0
  6
CONTINUOUS
 62
     7
 10
26.43350201735528
 20
191.3272117314247
 30
0.0
 11
25.91371878125528
 21
190.0276293096247
 31
0.0
  0
LINE
  5
44B
  8
0
  6
CONTINUOUS
 62
     7
 10
26.63711520915528
 20
191.0029475626247
 30
0.0
 11
26.51140621935528
 21
191.0532836851247
 31
0.0
  0
LINE
  5
44C
  8
0
  6
CONTINUOUS
 62
     7
 10
26.16124895475528
 20
190.1787717876247
 30
0.0
 11
26.30040228445527
 21
190.1255262133247
 31
0.0
  0
LINE
  5
44D
  8
0
  6
CONTINUOUS
 62
     7
 10
25.61181892715528
 20
191.2077453968247
 30
0.0
 11
25.64181356765528
 21
191.1676798996247
 31
0.0
  0
LINE
  5
44E
  8
0
  6
CONTINUOUS
 62
     7
 10
25.58045035305528
 20
191.2322354552247
 30
0.0
 11
25.61181892715528
 21
191.2077453968247
 31
0.0
  0
LINE
  5
44F
  8
0
  6
CONTINUOUS
 62
     7
 10
25.54210687135527
 20
191.2428972360247
 30
0.0
 11
25.58045035305528
 21
191.2322354552247
 31
0.0
  0
LINE
  5
450
  8
0
  6
CONTINUOUS
 62
     7
 10
25.50259783935528
 20
191.2381102380247
 30
0.0
 11
25.54210687135527
 21
191.2428972360247
 31
0.0
  0
LINE
  5
451
  8
0
  6
CONTINUOUS
 62
     7
 10
25.46790979875529
 20
191.2186008927247
 30
0.0
 11
25.50259783935528
 21
191.2381102380247
 31
0.0
  0
LINE
  5
452
  8
0
  6
CONTINUOUS
 62
     7
 10
25.44329820275527
 20
191.1873270806247
 30
0.0
 11
25.46790979875529
 21
191.2186008927247
 31
0.0
  0
LINE
  5
453
  8
0
  6
CONTINUOUS
 62
     7
 10
25.36958821195528
 20
191.0163548824247
 30
0.0
 11
25.44329820275527
 21
191.1873270806247
 31
0.0
  0
LINE
  5
454
  8
0
  6
CONTINUOUS
 62
     7
 10
25.33324055445527
 20
190.8337523278247
 30
0.0
 11
25.36958821195528
 21
191.0163548824247
 31
0.0
  0
LINE
  5
455
  8
0
  6
CONTINUOUS
 62
     7
 10
25.33586083055528
 20
190.6475883958247
 30
0.0
 11
25.33324055445527
 21
190.8337523278247
 31
0.0
  0
LINE
  5
456
  8
0
  6
CONTINUOUS
 62
     7
 10
25.37733309045528
 20
190.4660810765247
 30
0.0
 11
25.33586083055528
 21
190.6475883958247
 31
0.0
  0
LINE
  5
457
  8
0
  6
CONTINUOUS
 62
     7
 10
25.45582542275528
 20
190.2972509202247
 30
0.0
 11
25.37733309045528
 21
190.4660810765247
 31
0.0
  0
LINE
  5
458
  8
0
  6
CONTINUOUS
 62
     7
 10
25.49245946185528
 20
190.2690132198246
 30
0.0
 11
25.45582542275528
 21
190.2972509202247
 31
0.0
  0
LINE
  5
459
  8
0
  6
CONTINUOUS
 62
     7
 10
25.53698250165527
 20
190.2564738926247
 30
0.0
 11
25.49245946185528
 21
190.2690132198246
 31
0.0
  0
LINE
  5
45A
  8
0
  6
CONTINUOUS
 62
     7
 10
25.58296841645527
 20
190.2614508805247
 30
0.0
 11
25.53698250165527
 21
190.2564738926247
 31
0.0
  0
LINE
  5
45B
  8
0
  6
CONTINUOUS
 62
     7
 10
25.62378060145528
 20
190.2832177517247
 30
0.0
 11
25.58296841645527
 21
190.2614508805247
 31
0.0
  0
LINE
  5
45C
  8
0
  6
CONTINUOUS
 62
     7
 10
25.72694506575527
 20
190.0885713336247
 30
0.0
 11
25.78479719425528
 21
190.1544456419247
 31
0.0
  0
LINE
  5
45D
  8
0
  6
CONTINUOUS
 62
     7
 10
25.35458413955529
 20
190.0973704693247
 30
0.0
 11
25.41941071005528
 21
190.0454697248247
 31
0.0
  0
LINE
  5
45E
  8
0
  6
CONTINUOUS
 62
     7
 10
25.28563506975527
 20
190.2094085750247
 30
0.0
 11
25.35458413955529
 21
190.0973704693247
 31
0.0
  0
LINE
  5
45F
  8
0
  6
CONTINUOUS
 62
     7
 10
25.23079972785529
 20
190.3289866683247
 30
0.0
 11
25.28563506975527
 21
190.2094085750247
 31
0.0
  0
LINE
  5
460
  8
0
  6
CONTINUOUS
 62
     7
 10
25.19088976165529
 20
190.4543426868247
 30
0.0
 11
25.23079972785529
 21
190.3289866683247
 31
0.0
  0
LINE
  5
461
  8
0
  6
CONTINUOUS
 62
     7
 10
25.16649516375529
 20
190.5836139855247
 30
0.0
 11
25.19088976165529
 21
190.4543426868247
 31
0.0
  0
LINE
  5
462
  8
0
  6
CONTINUOUS
 62
     7
 10
25.15797728745528
 20
190.7148894903247
 30
0.0
 11
25.16649516375529
 21
190.5836139855247
 31
0.0
  0
LINE
  5
463
  8
0
  6
CONTINUOUS
 62
     7
 10
25.16246346835529
 20
190.8481282231247
 30
0.0
 11
25.15797728745528
 21
190.7148894903247
 31
0.0
  0
LINE
  5
464
  8
0
  6
CONTINUOUS
 62
     7
 10
25.18204499115528
 20
190.9799960491247
 30
0.0
 11
25.16246346835529
 21
190.8481282231247
 31
0.0
  0
LINE
  5
465
  8
0
  6
CONTINUOUS
 62
     7
 10
25.21646807045528
 20
191.1087905106247
 30
0.0
 11
25.18204499115528
 21
190.9799960491247
 31
0.0
  0
LINE
  5
466
  8
0
  6
CONTINUOUS
 62
     7
 10
25.26528846545529
 20
191.2328426775247
 30
0.0
 11
25.21646807045528
 21
191.1087905106247
 31
0.0
  0
LINE
  5
467
  8
0
  6
CONTINUOUS
 62
     7
 10
25.32785145645528
 20
191.3505096969247
 30
0.0
 11
25.26528846545529
 21
191.2328426775247
 31
0.0
  0
LINE
  5
468
  8
0
  6
CONTINUOUS
 62
     7
 10
25.39296766815528
 20
191.4144170520247
 30
0.0
 11
25.32785145645528
 21
191.3505096969247
 31
0.0
  0
LINE
  5
469
  8
0
  6
CONTINUOUS
 62
     7
 10
25.47640159805528
 20
191.4513682064247
 30
0.0
 11
25.39296766815528
 21
191.4144170520247
 31
0.0
  0
LINE
  5
46A
  8
0
  6
CONTINUOUS
 62
     7
 10
25.56749938135528
 20
191.4566357669247
 30
0.0
 11
25.47640159805528
 21
191.4513682064247
 31
0.0
  0
LINE
  5
46B
  8
0
  6
CONTINUOUS
 62
     7
 10
25.65352867435529
 20
190.3186378118247
 30
0.0
 11
25.62378060145528
 21
190.2832177517247
 31
0.0
  0
LINE
  5
46C
  8
0
  6
CONTINUOUS
 62
     7
 10
25.85140608325529
 20
191.1484611270247
 30
0.0
 11
25.81935717795528
 21
191.2285138902247
 31
0.0
  0
LINE
  5
46D
  8
0
  6
CONTINUOUS
 62
     7
 10
25.87321463115528
 20
191.0650369760247
 30
0.0
 11
25.85140608325529
 21
191.1484611270247
 31
0.0
  0
LINE
  5
46E
  8
0
  6
CONTINUOUS
 62
     7
 10
25.69765497075528
 20
191.0292034086247
 30
0.0
 11
25.70384593755529
 21
190.9795415637247
 31
0.0
  0
LINE
  5
46F
  8
0
  6
CONTINUOUS
 62
     7
 10
25.83174889055528
 20
190.2284857866247
 30
0.0
 11
25.86666696775528
 21
190.3089036283247
 31
0.0
  0
LINE
  5
470
  8
0
  6
CONTINUOUS
 62
     7
 10
25.65973966455528
 20
190.0397886571247
 30
0.0
 11
25.72694506575527
 21
190.0885713336247
 31
0.0
  0
LINE
  5
471
  8
0
  6
CONTINUOUS
 62
     7
 10
25.72669523845528
 20
191.3735655185247
 30
0.0
 11
25.65463694815529
 21
191.4295491811247
 31
0.0
  0
LINE
  5
472
  8
0
  6
CONTINUOUS
 62
     7
 10
25.66752039905528
 20
190.3497588870247
 30
0.0
 11
25.65352867435529
 21
190.3186378118247
 31
0.0
  0
LINE
  5
473
  8
0
  6
CONTINUOUS
 62
     7
 10
25.67958940825528
 20
190.3816771743247
 30
0.0
 11
25.66752039905528
 21
190.3497588870247
 31
0.0
  0
LINE
  5
474
  8
0
  6
CONTINUOUS
 62
     7
 10
25.77756919975528
 20
191.3039435682247
 30
0.0
 11
25.72669523845528
 21
191.3735655185247
 31
0.0
  0
LINE
  5
475
  8
0
  6
CONTINUOUS
 62
     7
 10
25.88870857915528
 20
190.3937582907247
 30
0.0
 11
25.89734170665528
 21
190.4810045895247
 31
0.0
  0
LINE
  5
476
  8
0
  6
CONTINUOUS
 62
     7
 10
25.86666696775528
 20
190.3089036283247
 30
0.0
 11
25.88870857915528
 21
190.3937582907247
 31
0.0
  0
LINE
  5
477
  8
0
  6
CONTINUOUS
 62
     7
 10
25.78479719425528
 20
190.1544456419247
 30
0.0
 11
25.83174889055528
 21
190.2284857866247
 31
0.0
  0
LINE
  5
478
  8
0
  6
CONTINUOUS
 62
     7
 10
25.88444219045528
 20
190.9795415637247
 30
0.0
 11
25.87321463115528
 21
191.0650369760247
 31
0.0
  0
LINE
  5
479
  8
0
  6
CONTINUOUS
 62
     7
 10
25.70384593755529
 20
190.9795415637247
 30
0.0
 11
25.88444219045528
 21
190.9795415637247
 31
0.0
  0
LINE
  5
47A
  8
0
  6
CONTINUOUS
 62
     7
 10
25.68509492165528
 20
191.0776545343247
 30
0.0
 11
25.69765497075528
 21
191.0292034086247
 31
0.0
  0
LINE
  5
47B
  8
0
  6
CONTINUOUS
 62
     7
 10
25.66637626925528
 20
191.1240716514247
 30
0.0
 11
25.68509492165528
 21
191.0776545343247
 31
0.0
  0
LINE
  5
47C
  8
0
  6
CONTINUOUS
 62
     7
 10
25.65463694815529
 20
191.4295491811247
 30
0.0
 11
25.56749938135528
 21
191.4566357669247
 31
0.0
  0
LINE
  5
47D
  8
0
  6
CONTINUOUS
 62
     7
 10
25.89734170665528
 20
190.4810045895247
 30
0.0
 11
25.70384593755529
 21
190.4810045895247
 31
0.0
  0
LINE
  5
47E
  8
0
  6
CONTINUOUS
 62
     7
 10
25.70384593755529
 20
190.4810045895247
 30
0.0
 11
25.69778582155529
 21
190.4474210974247
 31
0.0
  0
LINE
  5
47F
  8
0
  6
CONTINUOUS
 62
     7
 10
25.81935717795528
 20
191.2285138902247
 30
0.0
 11
25.77756919975528
 21
191.3039435682247
 31
0.0
  0
LINE
  5
480
  8
0
  6
CONTINUOUS
 62
     7
 10
25.64181356765528
 20
191.1676798996247
 30
0.0
 11
25.66637626925528
 21
191.1240716514247
 31
0.0
  0
LINE
  5
481
  8
0
  6
CONTINUOUS
 62
     7
 10
25.69778582155529
 20
190.4474210974247
 30
0.0
 11
25.68969030005528
 21
190.4142734644247
 31
0.0
  0
LINE
  5
482
  8
0
  6
CONTINUOUS
 62
     7
 10
25.68969030005528
 20
190.4142734644247
 30
0.0
 11
25.67958940825528
 21
190.3816771743247
 31
0.0
  0
LINE
  5
483
  8
0
  6
CONTINUOUS
 62
     7
 10
24.25873179065528
 20
190.9235988793247
 30
0.0
 11
24.38873184915528
 21
190.6175998089247
 31
0.0
  0
LINE
  5
484
  8
0
  6
CONTINUOUS
 62
     7
 10
24.38873184915528
 20
190.6175998089247
 30
0.0
 11
24.55273170095528
 21
190.6905968723247
 31
0.0
  0
LINE
  5
485
  8
0
  6
CONTINUOUS
 62
     7
 10
24.59073199035528
 20
190.8265997705247
 30
0.0
 11
24.54373186525528
 21
190.9285982188246
 31
0.0
  0
LINE
  5
486
  8
0
  6
CONTINUOUS
 62
     7
 10
24.41873161195528
 20
190.9915966031247
 30
0.0
 11
24.25873179065528
 21
190.9235988793247
 31
0.0
  0
LINE
  5
487
  8
0
  6
CONTINUOUS
 62
     7
 10
24.01173200535529
 20
191.0585996744246
 30
0.0
 11
24.56073176195528
 21
189.7705991801247
 31
0.0
  0
LINE
  5
488
  8
0
  6
CONTINUOUS
 62
     7
 10
24.37373196785528
 20
191.2115973469247
 30
0.0
 11
24.01173200535529
 21
191.0585996744246
 31
0.0
  0
LINE
  5
489
  8
0
  6
CONTINUOUS
 62
     7
 10
24.65673202725527
 20
190.4875983533247
 30
0.0
 11
24.47673158795529
 21
190.4105966028247
 31
0.0
  0
LINE
  5
48A
  8
0
  6
CONTINUOUS
 62
     7
 10
24.47673158795529
 20
190.4105966028247
 30
0.0
 11
24.63273184445528
 21
190.0465984878247
 31
0.0
  0
LINE
  5
48B
  8
0
  6
CONTINUOUS
 62
     7
 10
24.63273184445528
 20
190.0465984878247
 30
0.0
 11
24.81673184855528
 21
190.1245986160247
 31
0.0
  0
LINE
  5
48C
  8
0
  6
CONTINUOUS
 62
     7
 10
23.54073191135528
 20
190.2115990457247
 30
0.0
 11
23.84273188265529
 21
189.7975963589247
 31
0.0
  0
LINE
  5
48D
  8
0
  6
CONTINUOUS
 62
     7
 10
23.19573184555529
 20
190.4065993663247
 30
0.0
 11
24.00473171915527
 21
189.2325964805247
 31
0.0
  0
LINE
  5
48E
  8
0
  6
CONTINUOUS
 62
     7
 10
24.52373171305528
 20
189.7605967757247
 30
0.0
 11
23.34073178545528
 21
190.5535993215247
 31
0.0
  0
LINE
  5
48F
  8
0
  6
CONTINUOUS
 62
     7
 10
23.95973160935527
 20
189.9175991353246
 30
0.0
 11
23.54073191135528
 21
190.2115990457247
 31
0.0
  0
LINE
  5
490
  8
0
  6
CONTINUOUS
 62
     7
 10
23.34073178545528
 20
190.5535993215247
 30
0.0
 11
23.19573184555529
 21
190.4065993663247
 31
0.0
  0
LINE
  5
491
  8
1
  6
CONTINUOUS
 62
     7
 10
23.78973581435
 20
147.2516306408002
 30
0.0
 11
23.78973581435
 21
163.2516314007002
 31
0.0
  0
LINE
  5
492
  8
1
  6
CONTINUOUS
 62
     7
 10
37.53973620555
 20
163.2516314007002
 30
0.0
 11
23.78973581435
 21
163.2516314007002
 31
0.0
  0
LINE
  5
493
  8
1
  6
CONTINUOUS
 62
     7
 10
37.53973620555
 20
147.2516306408002
 30
0.0
 11
23.78973581435
 21
147.2516306408002
 31
0.0
  0
LINE
  5
494
  8
0
  6
CONTINUOUS
 62
     7
 10
27.28973592245001
 20
149.8516308807002
 30
0.0
 11
34.03973563185001
 21
149.8516308807002
 31
0.0
  0
LINE
  5
495
  8
0
  6
CONTINUOUS
 62
     7
 10
34.03973563185001
 20
149.8254476778002
 30
0.0
 11
27.28973592245001
 21
149.8254476778002
 31
0.0
  0
LINE
  5
496
  8
0
  6
CONTINUOUS
 62
     7
 10
31.39129835255
 20
158.5826300748003
 30
0.0
 11
34.03973563185001
 21
158.5826300748003
 31
0.0
  0
LINE
  5
497
  8
0
  6
CONTINUOUS
 62
     7
 10
31.39129835255
 20
159.0326302417001
 30
0.0
 11
34.03973563185001
 21
159.0326302417001
 31
0.0
  0
LINE
  5
498
  8
0
  6
CONTINUOUS
 62
     7
 10
31.39129835255
 20
159.0326302417001
 30
0.0
 11
31.39129835255
 21
158.5826300748003
 31
0.0
  0
LINE
  5
499
  8
0
  6
CONTINUOUS
 62
     7
 10
31.39129835255
 20
152.9366303899001
 30
0.0
 11
34.03973563185001
 21
152.9366303899001
 31
0.0
  0
LINE
  5
49A
  8
0
  6
CONTINUOUS
 62
     7
 10
31.39129835255
 20
152.4866302230003
 30
0.0
 11
34.03973563185001
 21
152.4866302230003
 31
0.0
  0
LINE
  5
49B
  8
0
  6
CONTINUOUS
 62
     7
 10
31.39129835255
 20
152.9366303899001
 30
0.0
 11
31.39129835255
 21
152.4866302230003
 31
0.0
  0
LINE
  5
49C
  8
0
  6
CONTINUOUS
 62
     7
 10
31.39129835255
 20
157.5666297890003
 30
0.0
 11
34.03973563185001
 21
157.5666297890003
 31
0.0
  0
LINE
  5
49D
  8
0
  6
CONTINUOUS
 62
     7
 10
31.39129835255
 20
158.0166299559002
 30
0.0
 11
34.03973563185001
 21
158.0166299559002
 31
0.0
  0
LINE
  5
49E
  8
0
  6
CONTINUOUS
 62
     7
 10
31.39129835255
 20
158.0166299559002
 30
0.0
 11
31.39129835255
 21
157.5666297890003
 31
0.0
  0
LINE
  5
49F
  8
0
  6
CONTINUOUS
 62
     7
 10
31.39129835255
 20
156.5506313659002
 30
0.0
 11
34.03973563185001
 21
156.5506313659002
 31
0.0
  0
LINE
  5
4A0
  8
0
  6
CONTINUOUS
 62
     7
 10
31.39129835255
 20
157.0006315328002
 30
0.0
 11
34.03973563185001
 21
157.0006315328002
 31
0.0
  0
LINE
  5
4A1
  8
0
  6
CONTINUOUS
 62
     7
 10
31.39129835255
 20
157.0006315328002
 30
0.0
 11
31.39129835255
 21
156.5506313659002
 31
0.0
  0
LINE
  5
4A2
  8
0
  6
CONTINUOUS
 62
     7
 10
31.39129835255
 20
154.5186307944003
 30
0.0
 11
34.03973563185001
 21
154.5186307944003
 31
0.0
  0
LINE
  5
4A3
  8
0
  6
CONTINUOUS
 62
     7
 10
31.39129835255
 20
154.9686309613003
 30
0.0
 11
34.03973563185001
 21
154.9686309613003
 31
0.0
  0
LINE
  5
4A4
  8
0
  6
CONTINUOUS
 62
     7
 10
31.39129835255
 20
154.9686309613003
 30
0.0
 11
31.39129835255
 21
154.5186307944003
 31
0.0
  0
LINE
  5
4A5
  8
0
  6
CONTINUOUS
 62
     7
 10
31.39129835255
 20
155.5346310802003
 30
0.0
 11
34.03973563185001
 21
155.5346310802003
 31
0.0
  0
LINE
  5
4A6
  8
0
  6
CONTINUOUS
 62
     7
 10
31.39129835255
 20
155.9846312471001
 30
0.0
 11
34.03973563185001
 21
155.9846312471001
 31
0.0
  0
LINE
  5
4A7
  8
0
  6
CONTINUOUS
 62
     7
 10
31.39129835255
 20
155.9846312471001
 30
0.0
 11
31.39129835255
 21
155.5346310802003
 31
0.0
  0
LINE
  5
4A8
  8
0
  6
CONTINUOUS
 62
     7
 10
31.39129835255
 20
153.5026305087002
 30
0.0
 11
34.03973563185001
 21
153.5026305087002
 31
0.0
  0
LINE
  5
4A9
  8
0
  6
CONTINUOUS
 62
     7
 10
31.39129835255
 20
153.9526306756002
 30
0.0
 11
34.03973563185001
 21
153.9526306756002
 31
0.0
  0
LINE
  5
4AA
  8
0
  6
CONTINUOUS
 62
     7
 10
31.39129835255
 20
153.9526306756002
 30
0.0
 11
31.39129835255
 21
153.5026305087002
 31
0.0
  0
LINE
  5
4AB
  8
0
  6
CONTINUOUS
 62
     7
 10
31.39129835255
 20
151.4706308685003
 30
0.0
 11
34.03973563185001
 21
151.4706308685003
 31
0.0
  0
LINE
  5
4AC
  8
0
  6
CONTINUOUS
 62
     7
 10
31.39129835255
 20
151.9206301041002
 30
0.0
 11
34.03973563185001
 21
151.9206301041002
 31
0.0
  0
LINE
  5
4AD
  8
0
  6
CONTINUOUS
 62
     7
 10
31.39129835255
 20
151.9206301041002
 30
0.0
 11
31.39129835255
 21
151.4706308685003
 31
0.0
  0
LINE
  5
4AE
  8
0
  6
CONTINUOUS
 62
     7
 10
23.78973581435
 20
157.2516304173003
 30
0.0
 11
23.78973581435
 21
153.2516316243002
 31
0.0
  0
LINE
  5
4AF
  8
0
  6
CONTINUOUS
 62
     7
 10
24.33973581135
 20
153.2516316243002
 30
0.0
 11
24.33973581135
 21
157.2516304173003
 31
0.0
  0
LINE
  5
4B0
  8
0
  6
CONTINUOUS
 62
     7
 10
37.53973620555
 20
147.2516306408002
 30
0.0
 11
37.53973620555
 21
163.2516314007002
 31
0.0
  0
LINE
  5
4B1
  8
0
  6
CONTINUOUS
 62
     7
 10
27.28973592245001
 20
161.2016302265002
 30
0.0
 11
34.03973563185001
 21
161.2016302265002
 31
0.0
  0
LINE
  5
4B2
  8
0
  6
CONTINUOUS
 62
     7
 10
23.78973581435
 20
157.2516304173003
 30
0.0
 11
25.53973563555
 21
157.2516304173003
 31
0.0
  0
LINE
  5
4B3
  8
0
  6
CONTINUOUS
 62
     7
 10
25.53973563555
 20
157.2516304173003
 30
0.0
 11
25.53973563555
 21
158.4016312577003
 31
0.0
  0
LINE
  5
4B4
  8
0
  6
CONTINUOUS
 62
     7
 10
25.53973563555
 20
158.4016312577003
 30
0.0
 11
26.03973571755
 21
158.4016312577003
 31
0.0
  0
LINE
  5
4B5
  8
0
  6
CONTINUOUS
 62
     7
 10
26.03973571755
 20
158.4016312577003
 30
0.0
 11
26.03973571755
 21
159.7516298957002
 31
0.0
  0
LINE
  5
4B6
  8
0
  6
CONTINUOUS
 62
     7
 10
26.03973571755
 20
159.7516298957002
 30
0.0
 11
27.28973592245001
 21
159.7516298957002
 31
0.0
  0
LINE
  5
4B7
  8
0
  6
CONTINUOUS
 62
     7
 10
27.28973592245001
 20
159.7516298957002
 30
0.0
 11
27.28973592245001
 21
161.2016302265002
 31
0.0
  0
LINE
  5
4B8
  8
0
  6
CONTINUOUS
 62
     7
 10
34.03973563185001
 20
161.2016302265002
 30
0.0
 11
34.03973563185001
 21
149.3016308837003
 31
0.0
  0
LINE
  5
4B9
  8
0
  6
CONTINUOUS
 62
     7
 10
34.03973563185001
 20
149.3016308837003
 30
0.0
 11
27.28973592245001
 21
149.3016308837003
 31
0.0
  0
LINE
  5
4BA
  8
0
  6
CONTINUOUS
 62
     7
 10
27.28973592245001
 20
149.3016308837003
 30
0.0
 11
27.28973592245001
 21
150.7516302832003
 31
0.0
  0
LINE
  5
4BB
  8
0
  6
CONTINUOUS
 62
     7
 10
27.28973592245001
 20
150.7516302832003
 30
0.0
 11
26.03973571755
 21
150.7516302832003
 31
0.0
  0
LINE
  5
4BC
  8
0
  6
CONTINUOUS
 62
     7
 10
26.03973571755
 20
150.7516302832003
 30
0.0
 11
26.03973571755
 21
152.1016307838002
 31
0.0
  0
LINE
  5
4BD
  8
0
  6
CONTINUOUS
 62
     7
 10
26.03973571755
 20
152.1016307838002
 30
0.0
 11
25.53973563555
 21
152.1016307838002
 31
0.0
  0
LINE
  5
4BE
  8
0
  6
CONTINUOUS
 62
     7
 10
25.53973563555
 20
152.1016307838002
 30
0.0
 11
25.53973563555
 21
153.2516316243002
 31
0.0
  0
LINE
  5
4BF
  8
0
  6
CONTINUOUS
 62
     7
 10
25.53973563555
 20
153.2516316243002
 30
0.0
 11
23.78973581435
 21
153.2516316243002
 31
0.0
  0
ARC
  5
4C0
  8
0
  6
CONTINUOUS
 62
     7
 10
36.2897371829
 20
201.4017596287244
 30
0.0
 40
0.5000012313760372
 50
180.0000249918997
 51
269.9998682864945
  0
ARC
  5
4C1
  8
0
  6
CONTINUOUS
 62
     7
 10
37.7897343993
 20
201.4017598937244
 30
0.0
 40
0.5000014963020017
 50
270.0001620778034
 51
359.9999446439641
  0
ARC
  5
4C2
  8
0
  6
CONTINUOUS
 62
     7
 10
36.28973453670001
 20
204.0017581538244
 30
0.0
 40
0.4999985851983197
 50
179.9999352055087
 51
270.0001715163168
  0
ARC
  5
4C3
  8
0
  6
CONTINUOUS
 62
     7
 10
37.78973704550002
 20
204.0017584188244
 30
0.0
 40
0.4999988502015181
 50
269.9998588457785
 51
0.00003443014359
  0
ARC
  5
4C4
  8
0
  6
CONTINUOUS
 62
     7
 10
37.7897333394
 20
206.6017595708244
 30
0.0
 40
0.50000255630614
 50
270.0002835324323
 51
359.999823187272
  0
ARC
  5
4C5
  8
0
  6
CONTINUOUS
 62
     7
 10
36.2897382428
 20
206.6017593058244
 30
0.0
 40
0.5000022912916284
 50
180.0001464482581
 51
269.9997468301344
  0
ARC
  5
4C6
  8
0
  6
CONTINUOUS
 62
     7
 10
37.78974075149999
 20
209.2017551925244
 30
0.0
 40
0.4999951441243658
 50
269.9994341642932
 51
0.00024567282468
  0
ARC
  5
4C7
  8
0
  6
CONTINUOUS
 62
     7
 10
36.28973083070001
 20
209.2017549275244
 30
0.0
 40
0.4999948791607995
 50
179.999723962839
 51
270.0005962031831
  0
ARC
  5
4C8
  8
0
  6
CONTINUOUS
 62
     7
 10
36.289736123
 20
211.8017595285244
 30
0.0
 40
0.5000001714766976
 50
179.9999035366288
 51
269.9999897417671
  0
ARC
  5
4C9
  8
0
  6
CONTINUOUS
 62
     7
 10
37.7897354592
 20
211.8017597934244
 30
0.0
 40
0.5000004364001263
 50
270.0000406226595
 51
0.00006609979341
  0
ARC
  5
4CA
  8
0
  6
CONTINUOUS
 62
     7
 10
37.7897333394
 20
212.3016294554244
 30
0.0
 40
0.5000025563023988
 50
0.00017681387116
 51
89.99971646756767
  0
ARC
  5
4CB
  8
0
  6
CONTINUOUS
 62
     7
 10
37.7897392014
 20
211.8016293913244
 30
0.0
 40
0.4999966942114837
 50
269.9996117955961
 51
0.00006804124987
  0
ARC
  5
4CC
  8
0
  6
CONTINUOUS
 62
     7
 10
36.2897323808
 20
211.8016291264244
 30
0.0
 40
0.4999964292007261
 50
179.9999015995233
 51
270.0004185713507
  0
ARC
  5
4CD
  8
0
  6
CONTINUOUS
 62
     7
 10
36.2897382428
 20
212.3016297204244
 30
0.0
 40
0.5000022913048876
 50
90.00025316596955
 51
179.9998535517419
  0
ARC
  5
4CE
  8
0
  6
CONTINUOUS
 62
     7
 10
37.7897333394
 20
209.7016301468244
 30
0.0
 40
0.5000025563023988
 50
0.00017681387116
 51
89.99971646756767
  0
ARC
  5
4CF
  8
0
  6
CONTINUOUS
 62
     7
 10
37.78974075149999
 20
209.2016285326244
 30
0.0
 40
0.4999951441243658
 50
269.9994341642932
 51
0.00024567282468
  0
ARC
  5
4D0
  8
0
  6
CONTINUOUS
 62
     7
 10
36.28973083070001
 20
209.2016282677244
 30
0.0
 40
0.4999948791058032
 50
179.9997239690271
 51
270.0005962031831
  0
ARC
  5
4D1
  8
0
  6
CONTINUOUS
 62
     7
 10
36.2897382428
 20
209.7016304118244
 30
0.0
 40
0.5000022913048876
 50
90.00025316596955
 51
179.9998535517419
  0
ARC
  5
4D2
  8
0
  6
CONTINUOUS
 62
     7
 10
37.7897333394
 20
207.1016308382244
 30
0.0
 40
0.5000025563023988
 50
0.00017681387116
 51
89.99971646756767
  0
ARC
  5
4D3
  8
0
  6
CONTINUOUS
 62
     7
 10
37.7897333394
 20
206.6016329109244
 30
0.0
 40
0.500002556206124
 50
270.0002835324324
 51
359.9998231872752
  0
ARC
  5
4D4
  8
0
  6
CONTINUOUS
 62
     7
 10
36.2897382428
 20
206.6016326459244
 30
0.0
 40
0.5000022912016239
 50
180.0001464473428
 51
269.9997468301344
  0
ARC
  5
4D5
  8
0
  6
CONTINUOUS
 62
     7
 10
36.2897382428
 20
207.1016311032244
 30
0.0
 40
0.5000022913048876
 50
90.00025316596955
 51
179.9998535517419
  0
ARC
  5
4D6
  8
0
  6
CONTINUOUS
 62
     7
 10
37.78974075149999
 20
204.5016352165244
 30
0.0
 40
0.4999951442046245
 50
359.9997543247717
 51
90.00056583570682
  0
ARC
  5
4D7
  8
0
  6
CONTINUOUS
 62
     7
 10
37.7897333394
 20
204.0016336023244
 30
0.0
 40
0.500002556206124
 50
270.0002835324324
 51
359.9998231872752
  0
ARC
  5
4D8
  8
0
  6
CONTINUOUS
 62
     7
 10
36.2897382428
 20
204.0016333374244
 30
0.0
 40
0.5000022912016241
 50
180.0001464588006
 51
269.9997468301344
  0
ARC
  5
4D9
  8
0
  6
CONTINUOUS
 62
     7
 10
36.28973083070001
 20
204.5016354815244
 30
0.0
 40
0.4999948791270702
 50
89.99940379693005
 51
180.0002760371642
  0
ARC
  5
4DA
  8
0
  6
CONTINUOUS
 62
     7
 10
37.78973810540002
 20
201.9016332618244
 30
0.0
 40
0.4999977903018508
 50
359.9998441089535
 51
90.00026261065106
  0
ARC
  5
4DB
  8
0
  6
CONTINUOUS
 62
     7
 10
37.7897343993
 20
201.4016332338244
 30
0.0
 40
0.5000014963020017
 50
270.0001620778034
 51
359.9999446439608
  0
ARC
  5
4DC
  8
0
  6
CONTINUOUS
 62
     7
 10
36.2897371829
 20
201.4016329689244
 30
0.0
 40
0.5000012313000376
 50
180.0000249923557
 51
269.9998682864945
  0
ARC
  5
4DD
  8
0
  6
CONTINUOUS
 62
     7
 10
36.28973347680001
 20
201.9016335267244
 30
0.0
 40
0.499997525306554
 50
89.99970702231056
 51
180.0001862515105
  0
ARC
  5
4DE
  8
0
  6
CONTINUOUS
 62
     7
 10
36.28973585840001
 20
217.5016310461
 30
0.0
 40
0.5
 50
90.0
 51
180.0
  0
ARC
  5
4DF
  8
0
  6
CONTINUOUS
 62
     7
 10
36.28973585840001
 20
217.0016310461
 30
0.0
 40
0.5
 50
180.0
 51
270.0
  0
ARC
  5
4E0
  8
0
  6
CONTINUOUS
 62
     7
 10
37.78973585840001
 20
217.5016310461
 30
0.0
 40
0.5
 50
0.0
 51
90.0
  0
ARC
  5
4E1
  8
0
  6
CONTINUOUS
 62
     7
 10
36.28973585840001
 20
214.9016310461
 30
0.0
 40
0.5
 50
90.0
 51
180.0
  0
ARC
  5
4E2
  8
0
  6
CONTINUOUS
 62
     7
 10
36.28973585840001
 20
214.4016310461
 30
0.0
 40
0.5
 50
180.0
 51
270.0
  0
ARC
  5
4E3
  8
0
  6
CONTINUOUS
 62
     7
 10
37.78973585840001
 20
214.4016310461
 30
0.0
 40
0.5
 50
270.0
 51
0.0
  0
ARC
  5
4E4
  8
0
  6
CONTINUOUS
 62
     7
 10
37.78973585840001
 20
214.9016310461
 30
0.0
 40
0.5
 50
0.0
 51
90.0
  0
ARC
  5
4E5
  8
0
  6
CONTINUOUS
 62
     7
 10
37.78973585840001
 20
217.0016310461
 30
0.0
 40
0.5
 50
270.0
 51
0.0
  0
ARC
  5
4E6
  8
0
  6
CONTINUOUS
 62
     7
 10
153.6397374543999
 20
124.2516310461
 30
0.0
 40
2.099999999999994
 50
0.0
 51
165.0000000000068
  0
ARC
  5
4E7
  8
0
  6
CONTINUOUS
 62
     7
 10
153.6397374543999
 20
124.2516310461
 30
0.0
 40
2.093891192547005
 50
0.0
 51
44.48350880719572
  0
ARC
  5
4E8
  8
0
  6
CONTINUOUS
 62
     7
 10
153.6398965548999
 20
124.2516310461
 30
0.0
 40
2.089078436855822
 50
44.53924874040906
 51
165.0011293685073
  0
ARC
  5
4E9
  8
0
  6
CONTINUOUS
 62
     7
 10
164.8397374544
 20
186.9516310461
 30
0.0
 40
1.499999999999987
 50
302.2309526354978
 51
57.76904736450394
  0
ARC
  5
4EA
  8
0
  6
CONTINUOUS
 62
     7
 10
153.6397374543999
 20
124.2516310461
 30
0.0
 40
2.0
 50
270.0
 51
90.0
  0
ARC
  5
4EB
  8
0
  6
CONTINUOUS
 62
     7
 10
153.6397374543999
 20
124.2516310461
 30
0.0
 40
2.0
 50
90.0
 51
270.0
  0
ARC
  5
4EC
  8
0
  6
CONTINUOUS
 62
     7
 10
159.3397374544
 20
190.8516310461
 30
0.0
 40
0.300000000000044
 50
311.8103148957754
 51
0.0
  0
ARC
  5
4ED
  8
0
  6
CONTINUOUS
 62
     7
 10
159.3397374544
 20
210.7516310461
 30
0.0
 40
0.3000000000001188
 50
326.4426902380451
 51
0.0
  0
ARC
  5
4EE
  8
0
  6
CONTINUOUS
 62
     7
 10
159.3397374544
 20
211.6516310461
 30
0.0
 40
0.2999999999998977
 50
0.0
 51
25.72007213963911
  0
ARC
  5
4EF
  8
0
  6
CONTINUOUS
 62
     7
 10
22.7639999271
 20
201.6016310461
 30
0.0
 40
0.3000000000002716
 50
265.3608368898946
 51
270.0
  0
ARC
  5
4F0
  8
0
  6
CONTINUOUS
 62
     7
 10
22.7639999271
 20
207.9016310461
 30
0.0
 40
0.3000000000000114
 50
90.0
 51
94.63916311008578
  0
ARC
  5
4F1
  8
0
  6
CONTINUOUS
 62
     7
 10
22.7639999271
 20
207.9016310461
 30
0.0
 40
0.5999999999996064
 50
92.31767990139736
 51
134.9999999999928
  0
ARC
  5
4F2
  8
0
  6
CONTINUOUS
 62
     7
 10
22.1897358584
 20
207.3273669774
 30
0.0
 40
0.6000000000000264
 50
134.9999999999921
 51
180.0
  0
ARC
  5
4F3
  8
0
  6
CONTINUOUS
 62
     7
 10
23.4397358584
 20
201.6016310461
 30
0.0
 40
0.6000000000000227
 50
270.0
 51
0.0
  0
ARC
  5
4F4
  8
0
  6
CONTINUOUS
 62
     7
 10
23.4397358584
 20
207.9016310461
 30
0.0
 40
0.5999999999999908
 50
0.0
 51
90.0
  0
ARC
  5
4F5
  8
0
  6
CONTINUOUS
 62
     7
 10
22.1897358584
 20
202.1758951148
 30
0.0
 40
0.5999999999999872
 50
180.0
 51
225.0000000000079
  0
ARC
  5
4F6
  8
0
  6
CONTINUOUS
 62
     7
 10
22.7639999271
 20
201.6016310461
 30
0.0
 40
0.600000000000034
 50
225.0000000000072
 51
267.6823200986026
  0
ARC
  5
4F7
  8
0
  6
CONTINUOUS
 62
     7
 10
22.7639999271
 20
201.6016310461
 30
0.0
 40
0.3000000000000622
 50
225.0000000000024
 51
265.3608368898946
  0
ARC
  5
4F8
  8
0
  6
CONTINUOUS
 62
     7
 10
22.1897358584
 20
201.6016310461
 30
0.0
 40
0.5999999999998781
 50
234.3146652872939
 51
270.0
  0
ARC
  5
4F9
  8
0
  6
CONTINUOUS
 62
     7
 10
22.1897358584
 20
207.9016310461
 30
0.0
 40
0.5999999999999943
 50
90.0
 51
125.6853347127061
  0
ARC
  5
4FA
  8
0
  6
CONTINUOUS
 62
     7
 10
23.3897358584
 20
207.8516310461
 30
0.0
 40
0.3499999999999979
 50
0.0
 51
90.0
  0
ARC
  5
4FB
  8
0
  6
CONTINUOUS
 62
     7
 10
23.3897358584
 20
201.6516310461
 30
0.0
 40
0.3499999999999943
 50
270.0
 51
0.0
  0
ARC
  5
4FC
  8
0
  6
CONTINUOUS
 62
     7
 10
22.1397358584
 20
201.6016310461
 30
0.0
 40
0.6000000000003003
 50
240.0000000000176
 51
270.0
  0
ARC
  5
4FD
  8
0
  6
CONTINUOUS
 62
     7
 10
22.1397358584
 20
207.9016310461
 30
0.0
 40
0.5999999999999943
 50
90.0
 51
119.9999999999824
  0
ARC
  5
4FE
  8
0
  6
CONTINUOUS
 62
     7
 10
24.55565063855528
 20
177.3753660025247
 30
0.0
 40
0.1999999999635402
 50
185.9602774647083
 51
289.2934123068523
  0
ARC
  5
4FF
  8
0
  6
CONTINUOUS
 62
     7
 10
25.09810268055529
 20
177.4461309268247
 30
0.0
 40
0.7470000000285856
 50
144.5299377042781
 51
187.0383553450137
  0
ARC
  5
500
  8
0
  6
CONTINUOUS
 62
     7
 10
24.54333780175529
 20
177.7596013847247
 30
0.0
 40
0.4989999999997958
 50
335.8690188562056
 51
26.28774400995829
  0
ARC
  5
501
  8
0
  6
CONTINUOUS
 62
     7
 10
24.83504023555528
 20
177.7048667227247
 30
0.0
 40
0.3869999999549519
 50
94.6403177438101
 51
153.1598724684325
  0
ARC
  5
502
  8
0
  6
CONTINUOUS
 62
     7
 10
24.72198368605528
 20
177.5124465277247
 30
0.0
 40
0.1841185913528201
 50
171.8342537721792
 51
217.4074942332105
  0
ARC
  5
503
  8
0
  6
CONTINUOUS
 62
     7
 10
24.80488070365529
 20
177.8786013262246
 30
0.0
 40
0.2119999999998026
 50
28.7584060384016
 51
90.31050412260494
  0
ARC
  5
504
  8
0
  6
CONTINUOUS
 62
     7
 10
24.63879796385528
 20
177.4662005049247
 30
0.0
 40
0.0910000000002197
 50
226.1291921214714
 51
327.7177057081228
  0
ARC
  5
505
  8
0
  6
CONTINUOUS
 62
     7
 10
25.01882593825528
 20
177.4958218216247
 30
0.0
 40
0.4809999999523608
 50
136.8801417045821
 51
174.8978192828223
  0
ARC
  5
506
  8
0
  6
CONTINUOUS
 62
     7
 10
24.75941723525529
 20
177.7675212172246
 30
0.0
 40
0.1079999999510464
 50
41.15667573741129
 51
148.096465698512
  0
ARC
  5
507
  8
0
  6
CONTINUOUS
 62
     7
 10
24.64067053655528
 20
177.7263370997247
 30
0.0
 40
0.2294059112935573
 50
332.2714001967826
 51
29.29824900933999
  0
ARC
  5
508
  8
0
  6
CONTINUOUS
 62
     7
 10
23.19095222555528
 20
181.1401246737247
 30
0.0
 40
0.7346315517206371
 50
239.7564103460731
 51
282.0633691930132
  0
ARC
  5
509
  8
0
  6
CONTINUOUS
 62
     7
 10
23.00144340775528
 20
180.6159225462247
 30
0.0
 40
0.2818579296130367
 50
20.78448518478887
 51
75.56765894997531
  0
ARC
  5
50A
  8
0
  6
CONTINUOUS
 62
     7
 10
22.97679238465528
 20
180.8880632197247
 30
0.0
 40
0.4131096417457611
 50
174.3534102430173
 51
247.834787409984
  0
ARC
  5
50B
  8
0
  6
CONTINUOUS
 62
     7
 10
23.14213452265528
 20
181.0501662390247
 30
0.0
 40
0.4527662555046547
 50
219.544009332233
 51
274.3438702947195
  0
ARC
  5
50C
  8
0
  6
CONTINUOUS
 62
     7
 10
23.16598744555527
 20
180.6986302095247
 30
0.0
 40
0.1004735583162429
 50
275.9645975595294
 51
9.92105401017372
  0
ARC
  5
50D
  8
0
  6
CONTINUOUS
 62
     7
 10
22.89876456735529
 20
180.3936642640247
 30
0.0
 40
0.5245459888672139
 50
70.75112932681013
 51
93.74480340369342
  0
ARC
  5
50E
  8
0
  6
CONTINUOUS
 62
     7
 10
22.57853990255528
 20
179.2204274794247
 30
0.0
 40
1.906342180395729
 50
48.96919906519553
 51
80.56753822390526
  0
ARC
  5
50F
  8
0
  6
CONTINUOUS
 62
     7
 10
22.82598213755529
 20
180.8304740949247
 30
0.0
 40
0.2782152135372176
 50
76.49356190420143
 51
159.3233819884963
  0
ARC
  5
510
  8
0
  6
CONTINUOUS
 62
     7
 10
23.25383556845527
 20
180.6279394023246
 30
0.0
 40
0.2252676130045727
 50
293.7288868944005
 51
25.87207390307447
  0
ARC
  5
511
  8
0
  6
CONTINUOUS
 62
     7
 10
23.34038817235528
 20
180.3369604650246
 30
0.0
 40
0.4062322462492751
 50
32.15102104332266
 51
73.38811702100115
  0
ARC
  5
512
  8
0
  6
CONTINUOUS
 62
     7
 10
23.61508841405528
 20
180.5093985373246
 30
0.0
 40
0.0818945578554423
 50
272.0238889882891
 51
32.28259699335342
  0
ARC
  5
513
  8
0
  6
CONTINUOUS
 62
     7
 10
23.56080611445528
 20
180.6782754724246
 30
0.0
 40
0.2571568506887353
 50
258.6394487834779
 51
282.8461094594976
  0
ARC
  5
514
  8
0
  6
CONTINUOUS
 62
     7
 10
23.60442088765528
 20
180.6102510541247
 30
0.0
 40
0.3740561774426103
 50
245.1404811090691
 51
311.7628322240248
  0
ARC
  5
515
  8
0
  6
CONTINUOUS
 62
     7
 10
23.70644108785528
 20
180.4851155230247
 30
0.0
 40
0.2128895703112152
 50
313.7140678790557
 51
54.52661993919487
  0
ARC
  5
516
  8
0
  6
CONTINUOUS
 62
     7
 10
22.89076323665528
 20
180.8109181221247
 30
0.0
 40
0.1093709969078778
 50
103.8914542196576
 51
206.6252217792813
  0
ARC
  5
517
  8
0
  6
CONTINUOUS
 62
     7
 10
24.04021529645527
 20
178.2444779533247
 30
0.0
 40
0.1134478779351543
 50
43.43807795972395
 51
128.5151805121683
  0
ARC
  5
518
  8
0
  6
CONTINUOUS
 62
     7
 10
22.82157228625528
 20
178.9485943145247
 30
0.0
 40
1.699682393540065
 50
298.4468770543298
 51
326.7906538107088
  0
ARC
  5
519
  8
0
  6
CONTINUOUS
 62
     7
 10
23.86599167795528
 20
178.0287128390247
 30
0.0
 40
0.1029436535919109
 50
159.9272378959983
 51
302.9983005390141
  0
ARC
  5
51A
  8
0
  6
CONTINUOUS
 62
     7
 10
24.14721114285528
 20
177.9919965947247
 30
0.0
 40
0.3847166655800247
 50
117.4999908066967
 51
169.2061930481055
  0
ARC
  5
51B
  8
0
  6
CONTINUOUS
 62
     7
 10
24.03600845035528
 20
178.2576895576247
 30
0.0
 40
0.1081418335543332
 50
351.7379474164719
 51
36.80811844267514
  0
ARC
  5
51C
  8
0
  6
CONTINUOUS
 62
     7
 10
23.85169414195528
 20
178.2749562812247
 30
0.0
 40
0.4688542120463433
 50
326.7196103053388
 51
27.19125271328305
  0
ARC
  5
51D
  8
0
  6
CONTINUOUS
 62
     7
 10
24.06805928465528
 20
178.1494706299246
 30
0.0
 40
0.3945750937899342
 50
59.43051002489209
 51
132.772165765255
  0
ARC
  5
51E
  8
0
  6
CONTINUOUS
 62
     7
 10
24.18527422895528
 20
177.8887473215247
 30
0.0
 40
0.6717541725482876
 50
124.9856864080964
 51
170.762993456414
  0
ARC
  5
51F
  8
0
  6
CONTINUOUS
 62
     7
 10
23.71591130535528
 20
177.9559944937247
 30
0.0
 40
0.1978863847565718
 50
168.1659905825189
 51
285.829156348196
  0
ARC
  5
520
  8
0
  6
CONTINUOUS
 62
     7
 10
23.40127162985527
 20
178.0578583939247
 30
0.0
 40
0.4704109662693178
 50
293.203271814421
 51
321.5919847306287
  0
ARC
  5
521
  8
0
  6
CONTINUOUS
 62
     7
 10
23.50793006755528
 20
177.7570230726247
 30
0.0
 40
0.1532632266934716
 50
237.6197660410605
 51
300.8886108182737
  0
ARC
  5
522
  8
0
  6
CONTINUOUS
 62
     7
 10
23.55647607335529
 20
177.7121182084246
 30
0.0
 40
0.1555878096912823
 50
132.5851004217715
 51
212.9072626709456
  0
ARC
  5
523
  8
0
  6
CONTINUOUS
 62
     7
 10
24.06039944765529
 20
177.3849173973247
 30
0.0
 40
0.9186164597252376
 50
142.4283012280886
 51
157.810792883858
  0
ARC
  5
524
  8
0
  6
CONTINUOUS
 62
     7
 10
23.44881367725527
 20
177.6485280944247
 30
0.0
 40
0.2531066665895841
 50
160.7804610174994
 51
226.3287984620752
  0
ARC
  5
525
  8
0
  6
CONTINUOUS
 62
     7
 10
23.46159413905528
 20
177.7428939489247
 30
0.0
 40
0.3348892851850661
 50
235.9406070550666
 51
300.4289517391744
  0
ARC
  5
526
  8
0
  6
CONTINUOUS
 62
     7
 10
23.70034411555528
 20
178.3371345642247
 30
0.0
 40
0.4527594248336074
 50
299.3202620610097
 51
347.8898666694656
  0
ARC
  5
527
  8
0
  6
CONTINUOUS
 62
     7
 10
23.45036579805527
 20
179.7079740654247
 30
0.0
 40
0.3103931715411145
 50
358.7267499142521
 51
75.15014976961503
  0
ARC
  5
528
  8
0
  6
CONTINUOUS
 62
     7
 10
22.70457410785528
 20
179.6968326268247
 30
0.0
 40
0.1768723913094461
 50
4.51920799857859
 51
160.4273123865245
  0
ARC
  5
529
  8
0
  6
CONTINUOUS
 62
     7
 10
22.62856249205528
 20
179.7171441234247
 30
0.0
 40
0.276665806974745
 50
110.027905820306
 51
243.5835817781577
  0
ARC
  5
52A
  8
0
  6
CONTINUOUS
 62
     7
 10
22.70167603695528
 20
179.5924200742247
 30
0.0
 40
0.4196917408532556
 50
46.7665623221982
 51
113.5765011945982
  0
ARC
  5
52B
  8
0
  6
CONTINUOUS
 62
     7
 10
23.32534420085528
 20
179.6759357892247
 30
0.0
 40
0.2160880985386223
 50
12.38167116960126
 51
169.3964593733705
  0
ARC
  5
52C
  8
0
  6
CONTINUOUS
 62
     7
 10
22.71110412725528
 20
179.7462548033247
 30
0.0
 40
0.1734610229510125
 50
176.7511509962779
 51
348.1953693879391
  0
ARC
  5
52D
  8
0
  6
CONTINUOUS
 62
     7
 10
23.33701331935528
 20
179.5715361065247
 30
0.0
 40
0.477192075291315
 50
66.15622163969785
 51
136.8003447533581
  0
ARC
  5
52E
  8
0
  6
CONTINUOUS
 62
     7
 10
23.39438686885528
 20
179.7850760825247
 30
0.0
 40
0.3758034327311423
 50
277.7617310200988
 51
347.0842064087662
  0
ARC
  5
52F
  8
0
  6
CONTINUOUS
 62
     7
 10
22.69991555755529
 20
179.8698542949247
 30
0.0
 40
0.4451933391504745
 50
244.1031223418017
 51
312.8149957297925
  0
ARC
  5
530
  8
0
  6
CONTINUOUS
 62
     7
 10
23.32526584645528
 20
179.8219558318247
 30
0.0
 40
0.426435766041605
 50
220.8056961226144
 51
286.3263726746775
  0
ARC
  5
531
  8
0
  6
CONTINUOUS
 62
     7
 10
23.32396965155527
 20
179.7645114560247
 30
0.0
 40
0.216595622953577
 50
193.0242802980912
 51
348.7538502382459
  0
ARC
  5
532
  8
0
  6
CONTINUOUS
 62
     7
 10
24.67056237295528
 20
181.8764554417247
 30
0.0
 40
0.1119999999808692
 50
21.55204173031744
 51
97.09339824624445
  0
ARC
  5
533
  8
0
  6
CONTINUOUS
 62
     7
 10
24.29476574075528
 20
181.6157347192247
 30
0.0
 40
0.5670000000230383
 50
14.48935726400557
 51
32.16688486879531
  0
ARC
  5
534
  8
0
  6
CONTINUOUS
 62
     7
 10
24.74290914825528
 20
181.7088253707247
 30
0.0
 40
0.1120000000000596
 50
311.2336270146583
 51
25.81531948236861
  0
ARC
  5
535
  8
0
  6
CONTINUOUS
 62
     7
 10
24.30862560675529
 20
182.3221052147246
 30
0.0
 40
0.436763138500729
 50
337.0213682832182
 51
40.29983905891091
  0
ARC
  5
536
  8
0
  6
CONTINUOUS
 62
     7
 10
24.43801605005528
 20
182.4834830296246
 30
0.0
 40
0.2369999999996903
 50
30.73276383352983
 51
105.738156925511
  0
ARC
  5
537
  8
0
  6
CONTINUOUS
 62
     7
 10
24.65813149975529
 20
181.7102070024247
 30
0.0
 40
0.3842917763818335
 50
311.0953333909852
 51
33.73030259484062
  0
ARC
  5
538
  8
0
  6
CONTINUOUS
 62
     7
 10
24.63125228115528
 20
181.7881879712247
 30
0.0
 40
0.3719999999999444
 50
21.3464246851178
 51
77.66338904211744
  0
ARC
  5
539
  8
0
  6
CONTINUOUS
 62
     7
 10
24.44540254165528
 20
182.3890083878247
 30
0.0
 40
0.1059999999997748
 50
21.93094952410085
 51
104.5728421498523
  0
ARC
  5
53A
  8
0
  6
CONTINUOUS
 62
     7
 10
24.40912855825528
 20
182.3040314756247
 30
0.0
 40
0.1829999999999875
 50
321.6945342045523
 51
7.08348872808142
  0
ARC
  5
53B
  8
0
  6
CONTINUOUS
 62
     7
 10
22.93386619115528
 20
181.2373767079247
 30
0.0
 40
2.385999999999569
 50
264.4409788798999
 51
293.4594283274964
  0
ARC
  5
53C
  8
0
  6
CONTINUOUS
 62
     7
 10
22.91076369755528
 20
181.7678941641247
 30
0.0
 40
3.081000000000246
 50
267.1902112960001
 51
289.8853400982999
  0
ARC
  5
53D
  8
0
  6
CONTINUOUS
 62
     7
 10
26.60317419345528
 20
182.4475323204247
 30
0.0
 40
0.2895773878265839
 50
351.8762312816169
 51
66.02572734940675
  0
ARC
  5
53E
  8
0
  6
CONTINUOUS
 62
     7
 10
26.55511659125529
 20
182.3827246612247
 30
0.0
 40
0.1455257070115381
 50
347.1709442678362
 51
55.7042002368869
  0
ARC
  5
53F
  8
0
  6
CONTINUOUS
 62
     7
 10
26.32300973135529
 20
181.7460745511247
 30
0.0
 40
0.1226490792859568
 50
259.3781877539651
 51
324.371120302634
  0
ARC
  5
540
  8
0
  6
CONTINUOUS
 62
     7
 10
25.51511116725529
 20
182.4365947199247
 30
0.0
 40
1.18503638536243
 50
319.9848147702004
 51
355.8294220559896
  0
ARC
  5
541
  8
0
  6
CONTINUOUS
 62
     7
 10
26.29400716485527
 20
181.6249052868247
 30
0.0
 40
0.2277109358343503
 50
252.1806411650475
 51
303.9158030468397
  0
ARC
  5
542
  8
0
  6
CONTINUOUS
 62
     7
 10
25.61551843235527
 20
182.4235061034247
 30
0.0
 40
1.274439260273488
 50
309.2036295280967
 51
359.2404399984898
  0
ARC
  5
543
  8
0
  6
CONTINUOUS
 62
     7
 10
26.32990805435529
 20
177.8408391860247
 30
0.0
 40
0.2625696136677627
 50
79.6897198981953
 51
186.1947285175144
  0
ARC
  5
544
  8
0
  6
CONTINUOUS
 62
     7
 10
26.34460506325527
 20
177.4646354157246
 30
0.0
 40
0.1474355615830495
 50
224.3820486423408
 51
277.4202190451511
  0
ARC
  5
545
  8
0
  6
CONTINUOUS
 62
     7
 10
26.67753549675528
 20
177.7847550475247
 30
0.0
 40
0.6092961774564887
 50
177.3895219653693
 51
223.9985869812278
  0
ARC
  5
546
  8
0
  6
CONTINUOUS
 62
     7
 10
26.19871118015529
 20
177.6044580743246
 30
0.0
 40
0.5258242051342858
 50
14.88960694463778
 51
70.19135384801015
  0
ARC
  5
547
  8
0
  6
CONTINUOUS
 62
     7
 10
26.63902634555528
 20
177.2019516888247
 30
0.0
 40
0.1309135825809805
 50
105.6562034621875
 51
179.390779211407
  0
ARC
  5
548
  8
0
  6
CONTINUOUS
 62
     7
 10
26.43542294095528
 20
177.6612251541246
 30
0.0
 40
0.1695573812314226
 50
235.6171310910074
 51
302.2006017047118
  0
ARC
  5
549
  8
0
  6
CONTINUOUS
 62
     7
 10
26.70449843375528
 20
177.8087701806247
 30
0.0
 40
0.4644813367015616
 50
186.4758450785618
 51
218.2374603060509
  0
ARC
  5
54A
  8
0
  6
CONTINUOUS
 62
     7
 10
26.36711025595528
 20
177.7652237612247
 30
0.0
 40
0.1244438939245547
 50
119.9471552215618
 51
184.0734018822098
  0
ARC
  5
54B
  8
0
  6
CONTINUOUS
 62
     7
 10
26.34330897915528
 20
177.7655325398247
 30
0.0
 40
0.1141450730381313
 50
45.32774933182493
 51
109.6165720640512
  0
ARC
  5
54C
  8
0
  6
CONTINUOUS
 62
     7
 10
26.04622233295528
 20
177.4507023625247
 30
0.0
 40
0.5469930231314005
 50
24.04265750447579
 51
46.38274114509773
  0
ARC
  5
54D
  8
0
  6
CONTINUOUS
 62
     7
 10
28.08074082355528
 20
179.0658781665246
 30
0.0
 40
1.076000000020356
 50
64.6909335141366
 51
93.73053564263199
  0
ARC
  5
54E
  8
0
  6
CONTINUOUS
 62
     7
 10
27.94157137495527
 20
179.1079137489247
 30
0.0
 40
1.033999999999419
 50
86.16483381310442
 51
118.1510990201648
  0
ARC
  5
54F
  8
0
  6
CONTINUOUS
 62
     7
 10
27.64234526455528
 20
179.7319161558247
 30
0.0
 40
0.3440000000002486
 50
123.2501155145858
 51
222.2553467042342
  0
ARC
  5
550
  8
0
  6
CONTINUOUS
 62
     7
 10
27.93000359995529
 20
180.2549073737247
 30
0.0
 40
0.9289999999997742
 50
234.2876956863742
 51
275.1090039353192
  0
ARC
  5
551
  8
0
  6
CONTINUOUS
 62
     7
 10
28.07253121455528
 20
180.4369847904246
 30
0.0
 40
1.10900000000022
 50
266.9090028690792
 51
295.0865045161968
  0
ARC
  5
552
  8
0
  6
CONTINUOUS
 62
     7
 10
28.32765320935528
 20
179.7698535971247
 30
0.0
 40
0.3999999999998756
 50
302.5269675843026
 51
353.0710486667232
  0
ARC
  5
553
  8
0
  6
CONTINUOUS
 62
     7
 10
28.40269916625528
 20
179.7465776860247
 30
0.0
 40
0.3230000000000401
 50
355.5645545882834
 51
64.70077354962122
  0
ARC
  5
554
  8
0
  6
CONTINUOUS
 62
     7
 10
28.01597576125528
 20
178.5162968504246
 30
0.0
 40
1.4489999999742
 50
83.03316944689865
 51
106.3641915923313
  0
ARC
  5
555
  8
0
  6
CONTINUOUS
 62
     7
 10
28.15165770815528
 20
179.2487348651247
 30
0.0
 40
0.7070000000511139
 50
64.0770032182054
 51
86.75062464309077
  0
ARC
  5
556
  8
0
  6
CONTINUOUS
 62
     7
 10
28.38694345585528
 20
179.7270187784246
 30
0.0
 40
0.1739999999835693
 50
2.82623448557612
 51
64.90812372593228
  0
ARC
  5
557
  8
0
  6
CONTINUOUS
 62
     7
 10
28.35148888045528
 20
179.7627716362247
 30
0.0
 40
0.2110000000104132
 50
283.4960795991651
 51
352.6006702700849
  0
ARC
  5
558
  8
0
  6
CONTINUOUS
 62
     7
 10
28.00409096645528
 20
181.1344786900247
 30
0.0
 40
1.626000000023937
 50
257.0871859192303
 51
284.1189964683079
  0
ARC
  5
559
  8
0
  6
CONTINUOUS
 62
     7
 10
27.67856033665528
 20
179.7642910235247
 30
0.0
 40
0.2179999999782525
 50
188.0937194349306
 51
260.0071468435267
  0
ARC
  5
55A
  8
0
  6
CONTINUOUS
 62
     7
 10
27.66822088245527
 20
179.7086333866247
 30
0.0
 40
0.2069999999999782
 50
106.9907746771345
 51
173.0730937688455
  0
ARC
  5
55B
  8
0
  6
CONTINUOUS
 62
     7
 10
28.58286764665527
 20
178.7411042510247
 30
0.0
 40
0.2200000000003458
 50
158.8177212006474
 51
252.2320367335182
  0
ARC
  5
55C
  8
0
  6
CONTINUOUS
 62
     7
 10
26.32716330665528
 20
177.9915638256247
 30
0.0
 40
0.9749999999910807
 50
15.71214488672151
 51
43.89735806060302
  0
ARC
  5
55D
  8
0
  6
CONTINUOUS
 62
     7
 10
38.88203269255529
 20
179.7497527845246
 30
0.0
 40
11.71199999974218
 50
187.3294643322973
 51
189.108954165448
  0
ARC
  5
55E
  8
0
  6
CONTINUOUS
 62
     7
 10
26.22982051115528
 20
178.0572398439247
 30
0.0
 40
0.8609999999214987
 50
0.82242359085476
 51
20.41688695961324
  0
ARC
  5
55F
  8
0
  6
CONTINUOUS
 62
     7
 10
27.94763222805528
 20
178.0826626537247
 30
0.0
 40
0.8570000000016947
 50
180.873472933906
 51
203.6704469710227
  0
ARC
  5
560
  8
0
  6
CONTINUOUS
 62
     7
 10
27.88608887525528
 20
178.2055838246247
 30
0.0
 40
0.8609999999997867
 50
212.8455205387304
 51
250.5741530779228
  0
ARC
  5
561
  8
0
  6
CONTINUOUS
 62
     7
 10
27.65771944525528
 20
177.6089268795247
 30
0.0
 40
0.2230000000002924
 50
254.9279071884938
 51
346.692719738598
  0
ARC
  5
562
  8
0
  6
CONTINUOUS
 62
     7
 10
27.30017794925529
 20
177.5802445578247
 30
0.0
 40
0.5749999999997226
 50
357.7428249418008
 51
50.13631638622869
  0
ARC
  5
563
  8
0
  6
CONTINUOUS
 62
     7
 10
27.32808191465529
 20
177.6301064603247
 30
0.0
 40
0.3450000000454712
 50
5.07052536801316
 51
51.09943577418059
  0
ARC
  5
564
  8
0
  6
CONTINUOUS
 62
     7
 10
27.60980111825528
 20
177.6635289085247
 30
0.0
 40
0.0620000000294778
 50
272.7093398489259
 51
357.2906601858597
  0
ARC
  5
565
  8
0
  6
CONTINUOUS
 62
     7
 10
27.60353871335528
 20
177.7693464975247
 30
0.0
 40
0.1680000000695921
 50
225.9505327614935
 51
273.1368397021249
  0
ARC
  5
566
  8
0
  6
CONTINUOUS
 62
     7
 10
27.69409609935528
 20
177.9717948297247
 30
0.0
 40
0.384000000000112
 50
191.4450880689698
 51
237.3156013786889
  0
ARC
  5
567
  8
0
  6
CONTINUOUS
 62
     7
 10
25.5487318135553
 20
179.7345982131247
 30
0.0
 40
1.599999999999751
 50
7.9043460755075
 51
169.1930771251042
  0
ARC
  5
568
  8
0
  6
CONTINUOUS
 62
     7
 10
25.5487318135553
 20
179.7345982131247
 30
0.0
 40
1.600000000000031
 50
190.8069228748968
 51
352.0956539244925
  0
ARC
  5
569
  8
0
  6
CONTINUOUS
 62
     7
 10
25.5487318135553
 20
188.2345982131247
 30
0.0
 40
1.600000000000031
 50
190.8069228748968
 51
352.0956539244925
  0
ARC
  5
56A
  8
0
  6
CONTINUOUS
 62
     7
 10
25.5487318135553
 20
188.2345982131247
 30
0.0
 40
1.599999999999751
 50
7.9043460755075
 51
169.1930771251042
  0
ARC
  5
56B
  8
0
  6
CONTINUOUS
 62
     7
 10
27.69409609935528
 20
186.4717948297247
 30
0.0
 40
0.384000000000112
 50
191.4450880689698
 51
237.3156013786889
  0
ARC
  5
56C
  8
0
  6
CONTINUOUS
 62
     7
 10
27.60353871335528
 20
186.2693464975247
 30
0.0
 40
0.1680000000695921
 50
225.9505327614935
 51
273.1368397021249
  0
ARC
  5
56D
  8
0
  6
CONTINUOUS
 62
     7
 10
27.60980111825528
 20
186.1635289085247
 30
0.0
 40
0.0620000000294778
 50
272.7093398489259
 51
357.2906601858597
  0
ARC
  5
56E
  8
0
  6
CONTINUOUS
 62
     7
 10
27.32808191465529
 20
186.1301064603247
 30
0.0
 40
0.3450000000454712
 50
5.07052536801316
 51
51.09943577418059
  0
ARC
  5
56F
  8
0
  6
CONTINUOUS
 62
     7
 10
27.30017794925529
 20
186.0802445578247
 30
0.0
 40
0.5749999999997226
 50
357.7428249418008
 51
50.13631638622869
  0
ARC
  5
570
  8
0
  6
CONTINUOUS
 62
     7
 10
27.65771944525528
 20
186.1089268795247
 30
0.0
 40
0.2230000000002924
 50
254.9279071884938
 51
346.692719738598
  0
ARC
  5
571
  8
0
  6
CONTINUOUS
 62
     7
 10
27.88608887525528
 20
186.7055838246247
 30
0.0
 40
0.8609999999997867
 50
212.8455205387304
 51
250.5741530779228
  0
ARC
  5
572
  8
0
  6
CONTINUOUS
 62
     7
 10
27.94763222805528
 20
186.5826626537247
 30
0.0
 40
0.8570000000016947
 50
180.873472933906
 51
203.6704469710227
  0
ARC
  5
573
  8
0
  6
CONTINUOUS
 62
     7
 10
26.22982051115528
 20
186.5572398439247
 30
0.0
 40
0.8609999999214987
 50
0.82242359085476
 51
20.41688695961324
  0
ARC
  5
574
  8
0
  6
CONTINUOUS
 62
     7
 10
38.88203269255529
 20
188.2497527845246
 30
0.0
 40
11.71199999974218
 50
187.3294643322973
 51
189.108954165448
  0
ARC
  5
575
  8
0
  6
CONTINUOUS
 62
     7
 10
26.32716330665528
 20
186.4915638256247
 30
0.0
 40
0.9749999999910807
 50
15.71214488672151
 51
43.89735806060302
  0
ARC
  5
576
  8
0
  6
CONTINUOUS
 62
     7
 10
28.58286764665527
 20
187.2411042510247
 30
0.0
 40
0.2200000000003458
 50
158.8177212006474
 51
252.2320367335182
  0
ARC
  5
577
  8
0
  6
CONTINUOUS
 62
     7
 10
27.66822088245527
 20
188.2086333866247
 30
0.0
 40
0.2069999999999782
 50
106.9907746771345
 51
173.0730937688455
  0
ARC
  5
578
  8
0
  6
CONTINUOUS
 62
     7
 10
27.67856033665528
 20
188.2642910235247
 30
0.0
 40
0.2179999999782525
 50
188.0937194349306
 51
260.0071468435267
  0
ARC
  5
579
  8
0
  6
CONTINUOUS
 62
     7
 10
28.00409096645528
 20
189.6344786900247
 30
0.0
 40
1.626000000023937
 50
257.0871859192303
 51
284.1189964683079
  0
ARC
  5
57A
  8
0
  6
CONTINUOUS
 62
     7
 10
28.35148888045528
 20
188.2627716362247
 30
0.0
 40
0.2110000000104132
 50
283.4960795991651
 51
352.6006702700849
  0
ARC
  5
57B
  8
0
  6
CONTINUOUS
 62
     7
 10
28.38694345585528
 20
188.2270187784246
 30
0.0
 40
0.1739999999835693
 50
2.82623448557612
 51
64.90812372593228
  0
ARC
  5
57C
  8
0
  6
CONTINUOUS
 62
     7
 10
28.15165770815528
 20
187.7487348651247
 30
0.0
 40
0.7070000000511139
 50
64.0770032182054
 51
86.75062464309077
  0
ARC
  5
57D
  8
0
  6
CONTINUOUS
 62
     7
 10
28.01597576125528
 20
187.0162968504246
 30
0.0
 40
1.4489999999742
 50
83.03316944689865
 51
106.3641915923313
  0
ARC
  5
57E
  8
0
  6
CONTINUOUS
 62
     7
 10
28.40269916625528
 20
188.2465776860247
 30
0.0
 40
0.3230000000000401
 50
355.5645545882834
 51
64.70077354962122
  0
ARC
  5
57F
  8
0
  6
CONTINUOUS
 62
     7
 10
28.32765320935528
 20
188.2698535971247
 30
0.0
 40
0.3999999999998756
 50
302.5269675843026
 51
353.0710486667232
  0
ARC
  5
580
  8
0
  6
CONTINUOUS
 62
     7
 10
28.07253121455528
 20
188.9369847904246
 30
0.0
 40
1.10900000000022
 50
266.9090028690792
 51
295.0865045161968
  0
ARC
  5
581
  8
0
  6
CONTINUOUS
 62
     7
 10
27.93000359995529
 20
188.7549073737247
 30
0.0
 40
0.9289999999997742
 50
234.2876956863742
 51
275.1090039353192
  0
ARC
  5
582
  8
0
  6
CONTINUOUS
 62
     7
 10
27.64234526455528
 20
188.2319161558247
 30
0.0
 40
0.3440000000002486
 50
123.2501155145858
 51
222.2553467042342
  0
ARC
  5
583
  8
0
  6
CONTINUOUS
 62
     7
 10
27.94157137495527
 20
187.6079137489247
 30
0.0
 40
1.033999999999419
 50
86.16483381310442
 51
118.1510990201648
  0
ARC
  5
584
  8
0
  6
CONTINUOUS
 62
     7
 10
28.08074082355528
 20
187.5658781665246
 30
0.0
 40
1.076000000020356
 50
64.6909335141366
 51
93.73053564263199
  0
ARC
  5
585
  8
0
  6
CONTINUOUS
 62
     7
 10
26.04622233295528
 20
185.9507023625247
 30
0.0
 40
0.5469930231314005
 50
24.04265750447579
 51
46.38274114509773
  0
ARC
  5
586
  8
0
  6
CONTINUOUS
 62
     7
 10
26.34330897915528
 20
186.2655325398247
 30
0.0
 40
0.1141450730381313
 50
45.32774933182493
 51
109.6165720640512
  0
ARC
  5
587
  8
0
  6
CONTINUOUS
 62
     7
 10
26.36711025595528
 20
186.2652237612247
 30
0.0
 40
0.1244438939245547
 50
119.9471552215618
 51
184.0734018822098
  0
ARC
  5
588
  8
0
  6
CONTINUOUS
 62
     7
 10
26.70449843375528
 20
186.3087701806247
 30
0.0
 40
0.4644813367015616
 50
186.4758450785618
 51
218.2374603060509
  0
ARC
  5
589
  8
0
  6
CONTINUOUS
 62
     7
 10
26.43542294095528
 20
186.1612251541246
 30
0.0
 40
0.1695573812314226
 50
235.6171310910074
 51
302.2006017047118
  0
ARC
  5
58A
  8
0
  6
CONTINUOUS
 62
     7
 10
26.63902634555528
 20
185.7019516888247
 30
0.0
 40
0.1309135825809805
 50
105.6562034621875
 51
179.390779211407
  0
ARC
  5
58B
  8
0
  6
CONTINUOUS
 62
     7
 10
26.95107957495527
 20
185.7573137251246
 30
0.0
 40
0.4462351496798341
 50
186.9466650590939
 51
220.3688454838484
  0
ARC
  5
58C
  8
0
  6
CONTINUOUS
 62
     7
 10
26.66337015585528
 20
185.5248403745246
 30
0.0
 40
0.0770130478426459
 50
227.2536099800629
 51
357.6441099516002
  0
ARC
  5
58D
  8
0
  6
CONTINUOUS
 62
     7
 10
26.35938882585528
 20
185.5784233626247
 30
0.0
 40
0.3851331419281808
 50
351.5267110726346
 51
22.58994754272825
  0
ARC
  5
58E
  8
0
  6
CONTINUOUS
 62
     7
 10
26.37115602225528
 20
185.5352520523246
 30
0.0
 40
0.5538642092790316
 50
350.0115217620445
 51
27.10165578826375
  0
ARC
  5
58F
  8
0
  6
CONTINUOUS
 62
     7
 10
26.86757143275528
 20
185.7220488176247
 30
0.0
 40
0.5344240192605395
 50
186.9527732326615
 51
237.3327838766872
  0
ARC
  5
590
  8
0
  6
CONTINUOUS
 62
     7
 10
26.19871118015529
 20
186.1044580743246
 30
0.0
 40
0.5258242051342858
 50
14.88960694463778
 51
70.19135384801015
  0
ARC
  5
591
  8
0
  6
CONTINUOUS
 62
     7
 10
26.67753549675528
 20
186.2847550475247
 30
0.0
 40
0.6092961774564887
 50
177.3895219653693
 51
223.9985869812278
  0
ARC
  5
592
  8
0
  6
CONTINUOUS
 62
     7
 10
26.34460506325527
 20
185.9646354157246
 30
0.0
 40
0.1474355615830495
 50
224.3820486423408
 51
277.4202190451511
  0
ARC
  5
593
  8
0
  6
CONTINUOUS
 62
     7
 10
26.32990805435529
 20
186.3408391860247
 30
0.0
 40
0.2625696136677627
 50
79.6897198981953
 51
186.1947285175144
  0
ARC
  5
594
  8
0
  6
CONTINUOUS
 62
     7
 10
26.63158512255528
 20
185.5219443538247
 30
0.0
 40
0.296811451767761
 50
305.529652159894
 51
343.8095745177703
  0
ARC
  5
595
  8
0
  6
CONTINUOUS
 62
     7
 10
26.68519963265528
 20
185.4508637950247
 30
0.0
 40
0.2078213590002271
 50
239.3043261244103
 51
304.8884626626679
  0
ARC
  5
596
  8
0
  6
CONTINUOUS
 62
     7
 10
26.76305297025527
 20
185.6698259827247
 30
0.0
 40
0.4261580242126298
 50
159.5911387412672
 51
181.6767731765259
  0
ARC
  5
597
  8
0
  6
CONTINUOUS
 62
     7
 10
26.29400716485527
 20
190.1249052868247
 30
0.0
 40
0.2277109358343503
 50
252.1806411650475
 51
303.9158030468397
  0
ARC
  5
598
  8
0
  6
CONTINUOUS
 62
     7
 10
22.91076369755528
 20
190.2678941641247
 30
0.0
 40
3.081000000000246
 50
267.1902112960001
 51
289.8853400982999
  0
ARC
  5
599
  8
0
  6
CONTINUOUS
 62
     7
 10
22.93386619115528
 20
189.7373767079247
 30
0.0
 40
2.385999999999569
 50
264.4409788798999
 51
293.4594283274964
  0
ARC
  5
59A
  8
0
  6
CONTINUOUS
 62
     7
 10
23.32396965155527
 20
188.2645114560247
 30
0.0
 40
0.216595622953577
 50
193.0242802980912
 51
348.7538502382459
  0
ARC
  5
59B
  8
0
  6
CONTINUOUS
 62
     7
 10
23.32526584645528
 20
188.3219558318247
 30
0.0
 40
0.426435766041605
 50
220.8056961226144
 51
286.3263726746775
  0
ARC
  5
59C
  8
0
  6
CONTINUOUS
 62
     7
 10
22.69991555755529
 20
188.3698542949247
 30
0.0
 40
0.4451933391504745
 50
244.1031223418017
 51
312.8149957297925
  0
ARC
  5
59D
  8
0
  6
CONTINUOUS
 62
     7
 10
23.39438686885528
 20
188.2850760825247
 30
0.0
 40
0.3758034327311423
 50
277.7617310200988
 51
347.0842064087662
  0
ARC
  5
59E
  8
0
  6
CONTINUOUS
 62
     7
 10
23.33701331935528
 20
188.0715361065247
 30
0.0
 40
0.477192075291315
 50
66.15622163969785
 51
136.8003447533581
  0
ARC
  5
59F
  8
0
  6
CONTINUOUS
 62
     7
 10
22.71110412725528
 20
188.2462548033247
 30
0.0
 40
0.1734610229510125
 50
176.7511509962779
 51
348.1953693879391
  0
ARC
  5
5A0
  8
0
  6
CONTINUOUS
 62
     7
 10
23.32534420085528
 20
188.1759357892247
 30
0.0
 40
0.2160880985386223
 50
12.38167116960126
 51
169.3964593733705
  0
ARC
  5
5A1
  8
0
  6
CONTINUOUS
 62
     7
 10
22.70167603695528
 20
188.0924200742247
 30
0.0
 40
0.4196917408532556
 50
46.7665623221982
 51
113.5765011945982
  0
ARC
  5
5A2
  8
0
  6
CONTINUOUS
 62
     7
 10
22.62856249205528
 20
188.2171441234247
 30
0.0
 40
0.276665806974745
 50
110.027905820306
 51
243.5835817781577
  0
ARC
  5
5A3
  8
0
  6
CONTINUOUS
 62
     7
 10
22.70457410785528
 20
188.1968326268247
 30
0.0
 40
0.1768723913094461
 50
4.51920799857859
 51
160.4273123865245
  0
ARC
  5
5A4
  8
0
  6
CONTINUOUS
 62
     7
 10
23.45036579805527
 20
188.2079740654247
 30
0.0
 40
0.3103931715411145
 50
358.7267499142521
 51
75.15014976961503
  0
ARC
  5
5A5
  8
0
  6
CONTINUOUS
 62
     7
 10
23.70034411555528
 20
186.8371345642247
 30
0.0
 40
0.4527594248336074
 50
299.3202620610097
 51
347.8898666694656
  0
ARC
  5
5A6
  8
0
  6
CONTINUOUS
 62
     7
 10
23.46159413905528
 20
186.2428939489247
 30
0.0
 40
0.3348892851850661
 50
235.9406070550666
 51
300.4289517391744
  0
ARC
  5
5A7
  8
0
  6
CONTINUOUS
 62
     7
 10
23.44881367725527
 20
186.1485280944247
 30
0.0
 40
0.2531066665895841
 50
160.7804610174994
 51
226.3287984620752
  0
ARC
  5
5A8
  8
0
  6
CONTINUOUS
 62
     7
 10
24.06039944765529
 20
185.8849173973247
 30
0.0
 40
0.9186164597252376
 50
142.4283012280886
 51
157.810792883858
  0
ARC
  5
5A9
  8
0
  6
CONTINUOUS
 62
     7
 10
23.55647607335529
 20
186.2121182084246
 30
0.0
 40
0.1555878096912823
 50
132.5851004217715
 51
212.9072626709456
  0
ARC
  5
5AA
  8
0
  6
CONTINUOUS
 62
     7
 10
23.50793006755528
 20
186.2570230726247
 30
0.0
 40
0.1532632266934716
 50
237.6197660410605
 51
300.8886108182737
  0
ARC
  5
5AB
  8
0
  6
CONTINUOUS
 62
     7
 10
23.40127162985527
 20
186.5578583939247
 30
0.0
 40
0.4704109662693178
 50
293.203271814421
 51
321.5919847306287
  0
ARC
  5
5AC
  8
0
  6
CONTINUOUS
 62
     7
 10
23.71591130535528
 20
186.4559944937247
 30
0.0
 40
0.1978863847565718
 50
168.1659905825189
 51
285.829156348196
  0
ARC
  5
5AD
  8
0
  6
CONTINUOUS
 62
     7
 10
24.18527422895528
 20
186.3887473215247
 30
0.0
 40
0.6717541725482876
 50
124.9856864080964
 51
170.762993456414
  0
ARC
  5
5AE
  8
0
  6
CONTINUOUS
 62
     7
 10
24.06805928465528
 20
186.6494706299246
 30
0.0
 40
0.3945750937899342
 50
59.43051002489209
 51
132.772165765255
  0
ARC
  5
5AF
  8
0
  6
CONTINUOUS
 62
     7
 10
23.85169414195528
 20
186.7749562812247
 30
0.0
 40
0.4688542120463433
 50
326.7196103053388
 51
27.19125271328305
  0
ARC
  5
5B0
  8
0
  6
CONTINUOUS
 62
     7
 10
24.03600845035528
 20
186.7576895576247
 30
0.0
 40
0.1081418335543332
 50
351.7379474164719
 51
36.80811844267514
  0
ARC
  5
5B1
  8
0
  6
CONTINUOUS
 62
     7
 10
24.14721114285528
 20
186.4919965947247
 30
0.0
 40
0.3847166655800247
 50
117.4999908066967
 51
169.2061930481055
  0
ARC
  5
5B2
  8
0
  6
CONTINUOUS
 62
     7
 10
23.86599167795528
 20
186.5287128390247
 30
0.0
 40
0.1029436535919109
 50
159.9272378959983
 51
302.9983005390141
  0
ARC
  5
5B3
  8
0
  6
CONTINUOUS
 62
     7
 10
22.82157228625528
 20
187.4485943145247
 30
0.0
 40
1.699682393540065
 50
298.4468770543298
 51
326.7906538107088
  0
ARC
  5
5B4
  8
0
  6
CONTINUOUS
 62
     7
 10
24.04021529645527
 20
186.7444779533247
 30
0.0
 40
0.1134478779351543
 50
43.43807795972395
 51
128.5151805121683
  0
ARC
  5
5B5
  8
0
  6
CONTINUOUS
 62
     7
 10
22.89076323665528
 20
189.3109181221247
 30
0.0
 40
0.1093709969078778
 50
103.8914542196576
 51
206.6252217792813
  0
ARC
  5
5B6
  8
0
  6
CONTINUOUS
 62
     7
 10
23.70644108785528
 20
188.9851155230247
 30
0.0
 40
0.2128895703112152
 50
313.7140678790557
 51
54.52661993919487
  0
ARC
  5
5B7
  8
0
  6
CONTINUOUS
 62
     7
 10
23.60442088765528
 20
189.1102510541247
 30
0.0
 40
0.3740561774426103
 50
245.1404811090691
 51
311.7628322240248
  0
ARC
  5
5B8
  8
0
  6
CONTINUOUS
 62
     7
 10
23.56080611445528
 20
189.1782754724246
 30
0.0
 40
0.2571568506887353
 50
258.6394487834779
 51
282.8461094594976
  0
ARC
  5
5B9
  8
0
  6
CONTINUOUS
 62
     7
 10
23.61508841405528
 20
189.0093985373246
 30
0.0
 40
0.0818945578554423
 50
272.0238889882891
 51
32.28259699335342
  0
ARC
  5
5BA
  8
0
  6
CONTINUOUS
 62
     7
 10
23.34038817235528
 20
188.8369604650246
 30
0.0
 40
0.4062322462492751
 50
32.15102104332266
 51
73.38811702100115
  0
ARC
  5
5BB
  8
0
  6
CONTINUOUS
 62
     7
 10
23.25383556845527
 20
189.1279394023246
 30
0.0
 40
0.2252676130045727
 50
293.7288868944005
 51
25.87207390307447
  0
ARC
  5
5BC
  8
0
  6
CONTINUOUS
 62
     7
 10
22.82598213755529
 20
189.3304740949247
 30
0.0
 40
0.2782152135372176
 50
76.49356190420143
 51
159.3233819884963
  0
ARC
  5
5BD
  8
0
  6
CONTINUOUS
 62
     7
 10
22.57853990255528
 20
187.7204274794247
 30
0.0
 40
1.906342180395729
 50
48.96919906519553
 51
80.56753822390526
  0
ARC
  5
5BE
  8
0
  6
CONTINUOUS
 62
     7
 10
22.89876456735529
 20
188.8936642640247
 30
0.0
 40
0.5245459888672139
 50
70.75112932681013
 51
93.74480340369342
  0
ARC
  5
5BF
  8
0
  6
CONTINUOUS
 62
     7
 10
23.16598744555527
 20
189.1986302095247
 30
0.0
 40
0.1004735583162429
 50
275.9645975595294
 51
9.92105401017372
  0
ARC
  5
5C0
  8
0
  6
CONTINUOUS
 62
     7
 10
23.14213452265528
 20
189.5501662390247
 30
0.0
 40
0.4527662555046547
 50
219.544009332233
 51
274.3438702947195
  0
ARC
  5
5C1
  8
0
  6
CONTINUOUS
 62
     7
 10
22.97679238465528
 20
189.3880632197247
 30
0.0
 40
0.4131096417457611
 50
174.3534102430173
 51
247.834787409984
  0
ARC
  5
5C2
  8
0
  6
CONTINUOUS
 62
     7
 10
23.00144340775528
 20
189.1159225462247
 30
0.0
 40
0.2818579296130367
 50
20.78448518478887
 51
75.56765894997531
  0
ARC
  5
5C3
  8
0
  6
CONTINUOUS
 62
     7
 10
23.19095222555528
 20
189.6401246737247
 30
0.0
 40
0.7346315517206371
 50
239.7564103460731
 51
282.0633691930132
  0
ARC
  5
5C4
  8
0
  6
CONTINUOUS
 62
     7
 10
24.64067053655528
 20
186.2263370997247
 30
0.0
 40
0.2294059112935573
 50
332.2714001967826
 51
29.29824900933999
  0
ARC
  5
5C5
  8
0
  6
CONTINUOUS
 62
     7
 10
24.75941723525529
 20
186.2675212172246
 30
0.0
 40
0.1079999999510464
 50
41.15667573741129
 51
148.096465698512
  0
ARC
  5
5C6
  8
0
  6
CONTINUOUS
 62
     7
 10
25.01882593825528
 20
185.9958218216247
 30
0.0
 40
0.4809999999523608
 50
136.8801417045821
 51
174.8978192828223
  0
ARC
  5
5C7
  8
0
  6
CONTINUOUS
 62
     7
 10
24.63879796385528
 20
185.9662005049247
 30
0.0
 40
0.0910000000002197
 50
226.1291921214714
 51
327.7177057081228
  0
ARC
  5
5C8
  8
0
  6
CONTINUOUS
 62
     7
 10
24.80488070365529
 20
186.3786013262246
 30
0.0
 40
0.2119999999998026
 50
28.7584060384016
 51
90.31050412260494
  0
ARC
  5
5C9
  8
0
  6
CONTINUOUS
 62
     7
 10
24.72198368605528
 20
186.0124465277247
 30
0.0
 40
0.1841185913528201
 50
171.8342537721792
 51
217.4074942332105
  0
ARC
  5
5CA
  8
0
  6
CONTINUOUS
 62
     7
 10
24.83504023555528
 20
186.2048667227247
 30
0.0
 40
0.3869999999549519
 50
94.6403177438101
 51
153.1598724684325
  0
ARC
  5
5CB
  8
0
  6
CONTINUOUS
 62
     7
 10
24.54333780175529
 20
186.2596013847247
 30
0.0
 40
0.4989999999997958
 50
335.8690188562056
 51
26.28774400995829
  0
ARC
  5
5CC
  8
0
  6
CONTINUOUS
 62
     7
 10
25.09810268055529
 20
185.9461309268247
 30
0.0
 40
0.7470000000285856
 50
144.5299377042781
 51
187.0383553450137
  0
ARC
  5
5CD
  8
0
  6
CONTINUOUS
 62
     7
 10
24.55565063855528
 20
185.8753660025247
 30
0.0
 40
0.1999999999635402
 50
185.9602774647083
 51
289.2934123068523
  0
ARC
  5
5CE
  8
0
  6
CONTINUOUS
 62
     7
 10
25.5487318135553
 20
171.2345982131247
 30
0.0
 40
1.600000000000031
 50
190.8069228748968
 51
352.0956539244925
  0
ARC
  5
5CF
  8
0
  6
CONTINUOUS
 62
     7
 10
25.5487318135553
 20
171.2345982131247
 30
0.0
 40
1.599999999999751
 50
7.9043460755075
 51
169.1930771251042
  0
ARC
  5
5D0
  8
0
  6
CONTINUOUS
 62
     7
 10
27.69409609935528
 20
169.4717948297247
 30
0.0
 40
0.384000000000112
 50
191.4450880689698
 51
237.3156013786889
  0
ARC
  5
5D1
  8
0
  6
CONTINUOUS
 62
     7
 10
27.60353871335528
 20
169.2693464975247
 30
0.0
 40
0.1680000000695921
 50
225.9505327614935
 51
273.1368397021249
  0
ARC
  5
5D2
  8
0
  6
CONTINUOUS
 62
     7
 10
27.60980111825528
 20
169.1635289085247
 30
0.0
 40
0.0620000000294778
 50
272.7093398489259
 51
357.2906601858597
  0
ARC
  5
5D3
  8
0
  6
CONTINUOUS
 62
     7
 10
27.32808191465529
 20
169.1301064603247
 30
0.0
 40
0.3450000000454712
 50
5.07052536801316
 51
51.09943577418059
  0
ARC
  5
5D4
  8
0
  6
CONTINUOUS
 62
     7
 10
27.30017794925529
 20
169.0802445578247
 30
0.0
 40
0.5749999999997226
 50
357.7428249418008
 51
50.13631638622869
  0
ARC
  5
5D5
  8
0
  6
CONTINUOUS
 62
     7
 10
27.65771944525528
 20
169.1089268795247
 30
0.0
 40
0.2230000000002924
 50
254.9279071884938
 51
346.692719738598
  0
ARC
  5
5D6
  8
0
  6
CONTINUOUS
 62
     7
 10
27.88608887525528
 20
169.7055838246247
 30
0.0
 40
0.8609999999997867
 50
212.8455205387304
 51
250.5741530779228
  0
ARC
  5
5D7
  8
0
  6
CONTINUOUS
 62
     7
 10
27.94763222805528
 20
169.5826626537247
 30
0.0
 40
0.8570000000016947
 50
180.873472933906
 51
203.6704469710227
  0
ARC
  5
5D8
  8
0
  6
CONTINUOUS
 62
     7
 10
26.22982051115528
 20
169.5572398439247
 30
0.0
 40
0.8609999999214987
 50
0.82242359085476
 51
20.41688695961324
  0
ARC
  5
5D9
  8
0
  6
CONTINUOUS
 62
     7
 10
38.88203269255529
 20
171.2497527845246
 30
0.0
 40
11.71199999974218
 50
187.3294643322973
 51
189.108954165448
  0
ARC
  5
5DA
  8
0
  6
CONTINUOUS
 62
     7
 10
26.32716330665528
 20
169.4915638256247
 30
0.0
 40
0.9749999999910807
 50
15.71214488672151
 51
43.89735806060302
  0
ARC
  5
5DB
  8
0
  6
CONTINUOUS
 62
     7
 10
28.58286764665527
 20
170.2411042510247
 30
0.0
 40
0.2200000000003458
 50
158.8177212006474
 51
252.2320367335182
  0
ARC
  5
5DC
  8
0
  6
CONTINUOUS
 62
     7
 10
27.66822088245527
 20
171.2086333866247
 30
0.0
 40
0.2069999999999782
 50
106.9907746771345
 51
173.0730937688455
  0
ARC
  5
5DD
  8
0
  6
CONTINUOUS
 62
     7
 10
27.67856033665528
 20
171.2642910235247
 30
0.0
 40
0.2179999999782525
 50
188.0937194349306
 51
260.0071468435267
  0
ARC
  5
5DE
  8
0
  6
CONTINUOUS
 62
     7
 10
28.00409096645528
 20
172.6344786900247
 30
0.0
 40
1.626000000023937
 50
257.0871859192303
 51
284.1189964683079
  0
ARC
  5
5DF
  8
0
  6
CONTINUOUS
 62
     7
 10
28.35148888045528
 20
171.2627716362247
 30
0.0
 40
0.2110000000104132
 50
283.4960795991651
 51
352.6006702700849
  0
ARC
  5
5E0
  8
0
  6
CONTINUOUS
 62
     7
 10
28.38694345585528
 20
171.2270187784246
 30
0.0
 40
0.1739999999835693
 50
2.82623448557612
 51
64.90812372593228
  0
ARC
  5
5E1
  8
0
  6
CONTINUOUS
 62
     7
 10
28.15165770815528
 20
170.7487348651247
 30
0.0
 40
0.7070000000511139
 50
64.0770032182054
 51
86.75062464309077
  0
ARC
  5
5E2
  8
0
  6
CONTINUOUS
 62
     7
 10
28.01597576125528
 20
170.0162968504246
 30
0.0
 40
1.4489999999742
 50
83.03316944689865
 51
106.3641915923313
  0
ARC
  5
5E3
  8
0
  6
CONTINUOUS
 62
     7
 10
28.40269916625528
 20
171.2465776860247
 30
0.0
 40
0.3230000000000401
 50
355.5645545882834
 51
64.70077354962122
  0
ARC
  5
5E4
  8
0
  6
CONTINUOUS
 62
     7
 10
28.32765320935528
 20
171.2698535971247
 30
0.0
 40
0.3999999999998756
 50
302.5269675843026
 51
353.0710486667232
  0
ARC
  5
5E5
  8
0
  6
CONTINUOUS
 62
     7
 10
28.07253121455528
 20
171.9369847904246
 30
0.0
 40
1.10900000000022
 50
266.9090028690792
 51
295.0865045161968
  0
ARC
  5
5E6
  8
0
  6
CONTINUOUS
 62
     7
 10
27.93000359995529
 20
171.7549073737247
 30
0.0
 40
0.9289999999997742
 50
234.2876956863742
 51
275.1090039353192
  0
ARC
  5
5E7
  8
0
  6
CONTINUOUS
 62
     7
 10
27.64234526455528
 20
171.2319161558247
 30
0.0
 40
0.3440000000002486
 50
123.2501155145858
 51
222.2553467042342
  0
ARC
  5
5E8
  8
0
  6
CONTINUOUS
 62
     7
 10
27.94157137495527
 20
170.6079137489247
 30
0.0
 40
1.033999999999419
 50
86.16483381310442
 51
118.1510990201648
  0
ARC
  5
5E9
  8
0
  6
CONTINUOUS
 62
     7
 10
28.08074082355528
 20
170.5658781665246
 30
0.0
 40
1.076000000020356
 50
64.6909335141366
 51
93.73053564263199
  0
ARC
  5
5EA
  8
0
  6
CONTINUOUS
 62
     7
 10
26.04622233295528
 20
168.9507023625247
 30
0.0
 40
0.5469930231314005
 50
24.04265750447579
 51
46.38274114509773
  0
ARC
  5
5EB
  8
0
  6
CONTINUOUS
 62
     7
 10
26.34330897915528
 20
169.2655325398247
 30
0.0
 40
0.1141450730381313
 50
45.32774933182493
 51
109.6165720640512
  0
ARC
  5
5EC
  8
0
  6
CONTINUOUS
 62
     7
 10
26.36711025595528
 20
169.2652237612247
 30
0.0
 40
0.1244438939245547
 50
119.9471552215618
 51
184.0734018822098
  0
ARC
  5
5ED
  8
0
  6
CONTINUOUS
 62
     7
 10
26.70449843375528
 20
169.3087701806247
 30
0.0
 40
0.4644813367015616
 50
186.4758450785618
 51
218.2374603060509
  0
ARC
  5
5EE
  8
0
  6
CONTINUOUS
 62
     7
 10
26.43542294095528
 20
169.1612251541246
 30
0.0
 40
0.1695573812314226
 50
235.6171310910074
 51
302.2006017047118
  0
ARC
  5
5EF
  8
0
  6
CONTINUOUS
 62
     7
 10
26.63902634555528
 20
168.7019516888247
 30
0.0
 40
0.1309135825809805
 50
105.6562034621875
 51
179.390779211407
  0
ARC
  5
5F0
  8
0
  6
CONTINUOUS
 62
     7
 10
26.35938882585528
 20
168.5784233626247
 30
0.0
 40
0.3851331419281808
 50
351.5267110726346
 51
22.58994754272825
  0
ARC
  5
5F1
  8
0
  6
CONTINUOUS
 62
     7
 10
26.19871118015529
 20
169.1044580743246
 30
0.0
 40
0.5258242051342858
 50
14.88960694463778
 51
70.19135384801015
  0
ARC
  5
5F2
  8
0
  6
CONTINUOUS
 62
     7
 10
26.67753549675528
 20
169.2847550475247
 30
0.0
 40
0.6092961774564887
 50
177.3895219653693
 51
223.9985869812278
  0
ARC
  5
5F3
  8
0
  6
CONTINUOUS
 62
     7
 10
26.34460506325527
 20
168.9646354157246
 30
0.0
 40
0.1474355615830495
 50
224.3820486423408
 51
277.4202190451511
  0
ARC
  5
5F4
  8
0
  6
CONTINUOUS
 62
     7
 10
26.32990805435529
 20
169.3408391860247
 30
0.0
 40
0.2625696136677627
 50
79.6897198981953
 51
186.1947285175144
  0
ARC
  5
5F5
  8
0
  6
CONTINUOUS
 62
     7
 10
26.76305297025527
 20
168.6698259827247
 30
0.0
 40
0.4261580242126298
 50
159.5911387412672
 51
181.6767731765259
  0
ARC
  5
5F6
  8
0
  6
CONTINUOUS
 62
     7
 10
25.61551843235527
 20
173.9235061034247
 30
0.0
 40
1.274439260273488
 50
309.2036295280967
 51
359.2404399984898
  0
ARC
  5
5F7
  8
0
  6
CONTINUOUS
 62
     7
 10
26.29400716485527
 20
173.1249052868247
 30
0.0
 40
0.2277109358343503
 50
252.1806411650475
 51
303.9158030468397
  0
ARC
  5
5F8
  8
0
  6
CONTINUOUS
 62
     7
 10
25.51511116725529
 20
173.9365947199247
 30
0.0
 40
1.18503638536243
 50
319.9848147702004
 51
355.8294220559896
  0
ARC
  5
5F9
  8
0
  6
CONTINUOUS
 62
     7
 10
26.32300973135529
 20
173.2460745511247
 30
0.0
 40
0.1226490792859568
 50
259.3781877539651
 51
324.371120302634
  0
ARC
  5
5FA
  8
0
  6
CONTINUOUS
 62
     7
 10
26.55511659125529
 20
173.8827246612247
 30
0.0
 40
0.1455257070115381
 50
347.1709442678362
 51
55.7042002368869
  0
ARC
  5
5FB
  8
0
  6
CONTINUOUS
 62
     7
 10
26.60317419345528
 20
173.9475323204247
 30
0.0
 40
0.2895773878265839
 50
351.8762312816169
 51
66.02572734940675
  0
ARC
  5
5FC
  8
0
  6
CONTINUOUS
 62
     7
 10
22.91076369755528
 20
173.2678941641247
 30
0.0
 40
3.081000000000246
 50
267.1902112960001
 51
289.8853400982999
  0
ARC
  5
5FD
  8
0
  6
CONTINUOUS
 62
     7
 10
22.93386619115528
 20
172.7373767079247
 30
0.0
 40
2.385999999999569
 50
264.4409788798999
 51
293.4594283274964
  0
ARC
  5
5FE
  8
0
  6
CONTINUOUS
 62
     7
 10
24.40912855825528
 20
173.8040314756247
 30
0.0
 40
0.1829999999999875
 50
321.6945342045523
 51
7.08348872808142
  0
ARC
  5
5FF
  8
0
  6
CONTINUOUS
 62
     7
 10
24.44540254165528
 20
173.8890083878247
 30
0.0
 40
0.1059999999997748
 50
21.93094952410085
 51
104.5728421498523
  0
ARC
  5
600
  8
0
  6
CONTINUOUS
 62
     7
 10
24.63125228115528
 20
173.2881879712247
 30
0.0
 40
0.3719999999999444
 50
21.3464246851178
 51
77.66338904211744
  0
ARC
  5
601
  8
0
  6
CONTINUOUS
 62
     7
 10
24.65813149975529
 20
173.2102070024247
 30
0.0
 40
0.3842917763818335
 50
311.0953333909852
 51
33.73030259484062
  0
ARC
  5
602
  8
0
  6
CONTINUOUS
 62
     7
 10
24.43801605005528
 20
173.9834830296246
 30
0.0
 40
0.2369999999996903
 50
30.73276383352983
 51
105.738156925511
  0
ARC
  5
603
  8
0
  6
CONTINUOUS
 62
     7
 10
24.30862560675529
 20
173.8221052147246
 30
0.0
 40
0.436763138500729
 50
337.0213682832182
 51
40.29983905891091
  0
ARC
  5
604
  8
0
  6
CONTINUOUS
 62
     7
 10
24.74290914825528
 20
173.2088253707247
 30
0.0
 40
0.1120000000000596
 50
311.2336270146583
 51
25.81531948236861
  0
ARC
  5
605
  8
0
  6
CONTINUOUS
 62
     7
 10
24.29476574075528
 20
173.1157347192247
 30
0.0
 40
0.5670000000230383
 50
14.48935726400557
 51
32.16688486879531
  0
ARC
  5
606
  8
0
  6
CONTINUOUS
 62
     7
 10
24.67056237295528
 20
173.3764554417247
 30
0.0
 40
0.1119999999808692
 50
21.55204173031744
 51
97.09339824624445
  0
ARC
  5
607
  8
0
  6
CONTINUOUS
 62
     7
 10
23.32396965155527
 20
171.2645114560247
 30
0.0
 40
0.216595622953577
 50
193.0242802980912
 51
348.7538502382459
  0
ARC
  5
608
  8
0
  6
CONTINUOUS
 62
     7
 10
23.32526584645528
 20
171.3219558318247
 30
0.0
 40
0.426435766041605
 50
220.8056961226144
 51
286.3263726746775
  0
ARC
  5
609
  8
0
  6
CONTINUOUS
 62
     7
 10
22.69991555755529
 20
171.3698542949247
 30
0.0
 40
0.4451933391504745
 50
244.1031223418017
 51
312.8149957297925
  0
ARC
  5
60A
  8
0
  6
CONTINUOUS
 62
     7
 10
23.39438686885528
 20
171.2850760825247
 30
0.0
 40
0.3758034327311423
 50
277.7617310200988
 51
347.0842064087662
  0
ARC
  5
60B
  8
0
  6
CONTINUOUS
 62
     7
 10
23.33701331935528
 20
171.0715361065247
 30
0.0
 40
0.477192075291315
 50
66.15622163969785
 51
136.8003447533581
  0
ARC
  5
60C
  8
0
  6
CONTINUOUS
 62
     7
 10
22.71110412725528
 20
171.2462548033247
 30
0.0
 40
0.1734610229510125
 50
176.7511509962779
 51
348.1953693879391
  0
ARC
  5
60D
  8
0
  6
CONTINUOUS
 62
     7
 10
23.32534420085528
 20
171.1759357892247
 30
0.0
 40
0.2160880985386223
 50
12.38167116960126
 51
169.3964593733705
  0
ARC
  5
60E
  8
0
  6
CONTINUOUS
 62
     7
 10
22.70167603695528
 20
171.0924200742247
 30
0.0
 40
0.4196917408532556
 50
46.7665623221982
 51
113.5765011945982
  0
ARC
  5
60F
  8
0
  6
CONTINUOUS
 62
     7
 10
22.62856249205528
 20
171.2171441234247
 30
0.0
 40
0.276665806974745
 50
110.027905820306
 51
243.5835817781577
  0
ARC
  5
610
  8
0
  6
CONTINUOUS
 62
     7
 10
22.70457410785528
 20
171.1968326268247
 30
0.0
 40
0.1768723913094461
 50
4.51920799857859
 51
160.4273123865245
  0
ARC
  5
611
  8
0
  6
CONTINUOUS
 62
     7
 10
23.45036579805527
 20
171.2079740654247
 30
0.0
 40
0.3103931715411145
 50
358.7267499142521
 51
75.15014976961503
  0
ARC
  5
612
  8
0
  6
CONTINUOUS
 62
     7
 10
23.70034411555528
 20
169.8371345642247
 30
0.0
 40
0.4527594248336074
 50
299.3202620610097
 51
347.8898666694656
  0
ARC
  5
613
  8
0
  6
CONTINUOUS
 62
     7
 10
23.46159413905528
 20
169.2428939489247
 30
0.0
 40
0.3348892851850661
 50
235.9406070550666
 51
300.4289517391744
  0
ARC
  5
614
  8
0
  6
CONTINUOUS
 62
     7
 10
23.44881367725527
 20
169.1485280944247
 30
0.0
 40
0.2531066665895841
 50
160.7804610174994
 51
226.3287984620752
  0
ARC
  5
615
  8
0
  6
CONTINUOUS
 62
     7
 10
24.06039944765529
 20
168.8849173973247
 30
0.0
 40
0.9186164597252376
 50
142.4283012280886
 51
157.810792883858
  0
ARC
  5
616
  8
0
  6
CONTINUOUS
 62
     7
 10
23.55647607335529
 20
169.2121182084246
 30
0.0
 40
0.1555878096912823
 50
132.5851004217715
 51
212.9072626709456
  0
ARC
  5
617
  8
0
  6
CONTINUOUS
 62
     7
 10
23.50793006755528
 20
169.2570230726247
 30
0.0
 40
0.1532632266934716
 50
237.6197660410605
 51
300.8886108182737
  0
ARC
  5
618
  8
0
  6
CONTINUOUS
 62
     7
 10
23.40127162985527
 20
169.5578583939247
 30
0.0
 40
0.4704109662693178
 50
293.203271814421
 51
321.5919847306287
  0
ARC
  5
619
  8
0
  6
CONTINUOUS
 62
     7
 10
23.71591130535528
 20
169.4559944937247
 30
0.0
 40
0.1978863847565718
 50
168.1659905825189
 51
285.829156348196
  0
ARC
  5
61A
  8
0
  6
CONTINUOUS
 62
     7
 10
24.18527422895528
 20
169.3887473215247
 30
0.0
 40
0.6717541725482876
 50
124.9856864080964
 51
170.762993456414
  0
ARC
  5
61B
  8
0
  6
CONTINUOUS
 62
     7
 10
24.06805928465528
 20
169.6494706299246
 30
0.0
 40
0.3945750937899342
 50
59.43051002489209
 51
132.772165765255
  0
ARC
  5
61C
  8
0
  6
CONTINUOUS
 62
     7
 10
23.85169414195528
 20
169.7749562812247
 30
0.0
 40
0.4688542120463433
 50
326.7196103053388
 51
27.19125271328305
  0
ARC
  5
61D
  8
0
  6
CONTINUOUS
 62
     7
 10
24.03600845035528
 20
169.7576895576247
 30
0.0
 40
0.1081418335543332
 50
351.7379474164719
 51
36.80811844267514
  0
ARC
  5
61E
  8
0
  6
CONTINUOUS
 62
     7
 10
24.14721114285528
 20
169.4919965947247
 30
0.0
 40
0.3847166655800247
 50
117.4999908066967
 51
169.2061930481055
  0
ARC
  5
61F
  8
0
  6
CONTINUOUS
 62
     7
 10
23.86599167795528
 20
169.5287128390247
 30
0.0
 40
0.1029436535919109
 50
159.9272378959983
 51
302.9983005390141
  0
ARC
  5
620
  8
0
  6
CONTINUOUS
 62
     7
 10
22.82157228625528
 20
170.4485943145247
 30
0.0
 40
1.699682393540065
 50
298.4468770543298
 51
326.7906538107088
  0
ARC
  5
621
  8
0
  6
CONTINUOUS
 62
     7
 10
24.04021529645527
 20
169.7444779533247
 30
0.0
 40
0.1134478779351543
 50
43.43807795972395
 51
128.5151805121683
  0
ARC
  5
622
  8
0
  6
CONTINUOUS
 62
     7
 10
22.89076323665528
 20
172.3109181221247
 30
0.0
 40
0.1093709969078778
 50
103.8914542196576
 51
206.6252217792813
  0
ARC
  5
623
  8
0
  6
CONTINUOUS
 62
     7
 10
23.70644108785528
 20
171.9851155230247
 30
0.0
 40
0.2128895703112152
 50
313.7140678790557
 51
54.52661993919487
  0
ARC
  5
624
  8
0
  6
CONTINUOUS
 62
     7
 10
23.60442088765528
 20
172.1102510541247
 30
0.0
 40
0.3740561774426103
 50
245.1404811090691
 51
311.7628322240248
  0
ARC
  5
625
  8
0
  6
CONTINUOUS
 62
     7
 10
23.56080611445528
 20
172.1782754724246
 30
0.0
 40
0.2571568506887353
 50
258.6394487834779
 51
282.8461094594976
  0
ARC
  5
626
  8
0
  6
CONTINUOUS
 62
     7
 10
23.61508841405528
 20
172.0093985373246
 30
0.0
 40
0.0818945578554423
 50
272.0238889882891
 51
32.28259699335342
  0
ARC
  5
627
  8
0
  6
CONTINUOUS
 62
     7
 10
23.34038817235528
 20
171.8369604650246
 30
0.0
 40
0.4062322462492751
 50
32.15102104332266
 51
73.38811702100115
  0
ARC
  5
628
  8
0
  6
CONTINUOUS
 62
     7
 10
23.25383556845527
 20
172.1279394023246
 30
0.0
 40
0.2252676130045727
 50
293.7288868944005
 51
25.87207390307447
  0
ARC
  5
629
  8
0
  6
CONTINUOUS
 62
     7
 10
22.82598213755529
 20
172.3304740949247
 30
0.0
 40
0.2782152135372176
 50
76.49356190420143
 51
159.3233819884963
  0
ARC
  5
62A
  8
0
  6
CONTINUOUS
 62
     7
 10
22.57853990255528
 20
170.7204274794247
 30
0.0
 40
1.906342180395729
 50
48.96919906519553
 51
80.56753822390526
  0
ARC
  5
62B
  8
0
  6
CONTINUOUS
 62
     7
 10
22.89876456735529
 20
171.8936642640247
 30
0.0
 40
0.5245459888672139
 50
70.75112932681013
 51
93.74480340369342
  0
ARC
  5
62C
  8
0
  6
CONTINUOUS
 62
     7
 10
23.16598744555527
 20
172.1986302095247
 30
0.0
 40
0.1004735583162429
 50
275.9645975595294
 51
9.92105401017372
  0
ARC
  5
62D
  8
0
  6
CONTINUOUS
 62
     7
 10
23.14213452265528
 20
172.5501662390247
 30
0.0
 40
0.4527662555046547
 50
219.544009332233
 51
274.3438702947195
  0
ARC
  5
62E
  8
0
  6
CONTINUOUS
 62
     7
 10
22.97679238465528
 20
172.3880632197247
 30
0.0
 40
0.4131096417457611
 50
174.3534102430173
 51
247.834787409984
  0
ARC
  5
62F
  8
0
  6
CONTINUOUS
 62
     7
 10
23.00144340775528
 20
172.1159225462247
 30
0.0
 40
0.2818579296130367
 50
20.78448518478887
 51
75.56765894997531
  0
ARC
  5
630
  8
0
  6
CONTINUOUS
 62
     7
 10
23.19095222555528
 20
172.6401246737247
 30
0.0
 40
0.7346315517206371
 50
239.7564103460731
 51
282.0633691930132
  0
ARC
  5
631
  8
0
  6
CONTINUOUS
 62
     7
 10
24.64067053655528
 20
169.2263370997247
 30
0.0
 40
0.2294059112935573
 50
332.2714001967826
 51
29.29824900933999
  0
ARC
  5
632
  8
0
  6
CONTINUOUS
 62
     7
 10
24.75941723525529
 20
169.2675212172246
 30
0.0
 40
0.1079999999510464
 50
41.15667573741129
 51
148.096465698512
  0
ARC
  5
633
  8
0
  6
CONTINUOUS
 62
     7
 10
25.01882593825528
 20
168.9958218216247
 30
0.0
 40
0.4809999999523608
 50
136.8801417045821
 51
174.8978192828223
  0
ARC
  5
634
  8
0
  6
CONTINUOUS
 62
     7
 10
24.63879796385528
 20
168.9662005049247
 30
0.0
 40
0.0910000000002197
 50
226.1291921214714
 51
327.7177057081228
  0
ARC
  5
635
  8
0
  6
CONTINUOUS
 62
     7
 10
24.80488070365529
 20
169.3786013262246
 30
0.0
 40
0.2119999999998026
 50
28.7584060384016
 51
90.31050412260494
  0
ARC
  5
636
  8
0
  6
CONTINUOUS
 62
     7
 10
24.72198368605528
 20
169.0124465277247
 30
0.0
 40
0.1841185913528201
 50
171.8342537721792
 51
217.4074942332105
  0
ARC
  5
637
  8
0
  6
CONTINUOUS
 62
     7
 10
24.83504023555528
 20
169.2048667227247
 30
0.0
 40
0.3869999999549519
 50
94.6403177438101
 51
153.1598724684325
  0
ARC
  5
638
  8
0
  6
CONTINUOUS
 62
     7
 10
24.54333780175529
 20
169.2596013847247
 30
0.0
 40
0.4989999999997958
 50
335.8690188562056
 51
26.28774400995829
  0
ARC
  5
639
  8
0
  6
CONTINUOUS
 62
     7
 10
25.09810268055529
 20
168.9461309268247
 30
0.0
 40
0.7470000000285856
 50
144.5299377042781
 51
187.0383553450137
  0
ARC
  5
63A
  8
0
  6
CONTINUOUS
 62
     7
 10
24.55565063855528
 20
168.8753660025247
 30
0.0
 40
0.1999999999635402
 50
185.9602774647083
 51
289.2934123068523
  0
ARC
  5
63B
  8
0
  6
CONTINUOUS
 62
     7
 10
26.95107957495527
 20
168.7573137251246
 30
0.0
 40
0.4462351496798341
 50
186.9466650590939
 51
220.3688454838484
  0
ARC
  5
63C
  8
0
  6
CONTINUOUS
 62
     7
 10
26.66337015585528
 20
168.5248403745246
 30
0.0
 40
0.0770130478426459
 50
227.2536099800629
 51
357.6441099516002
  0
ARC
  5
63D
  8
0
  6
CONTINUOUS
 62
     7
 10
26.37115602225528
 20
168.5352520523246
 30
0.0
 40
0.5538642092790316
 50
350.0115217620445
 51
27.10165578826375
  0
ARC
  5
63E
  8
0
  6
CONTINUOUS
 62
     7
 10
26.86757143275528
 20
168.7220488176247
 30
0.0
 40
0.5344240192605395
 50
186.9527732326615
 51
237.3327838766872
  0
ARC
  5
63F
  8
0
  6
CONTINUOUS
 62
     7
 10
26.63158512255528
 20
168.5219443538247
 30
0.0
 40
0.296811451767761
 50
305.529652159894
 51
343.8095745177703
  0
ARC
  5
640
  8
0
  6
CONTINUOUS
 62
     7
 10
26.68519963265528
 20
168.4508637950247
 30
0.0
 40
0.2078213590002271
 50
239.3043261244103
 51
304.8884626626679
  0
ARC
  5
641
  8
0
  6
CONTINUOUS
 62
     7
 10
26.76305297025527
 20
177.1698259827247
 30
0.0
 40
0.4261580242126298
 50
159.5911387412672
 51
181.6767731765259
  0
ARC
  5
642
  8
0
  6
CONTINUOUS
 62
     7
 10
26.68519963265528
 20
176.9508637950247
 30
0.0
 40
0.2078213590002271
 50
239.3043261244103
 51
304.8884626626679
  0
ARC
  5
643
  8
0
  6
CONTINUOUS
 62
     7
 10
26.63158512255528
 20
177.0219443538247
 30
0.0
 40
0.296811451767761
 50
305.529652159894
 51
343.8095745177703
  0
ARC
  5
644
  8
0
  6
CONTINUOUS
 62
     7
 10
26.86757143275528
 20
177.2220488176247
 30
0.0
 40
0.5344240192605395
 50
186.9527732326615
 51
237.3327838766872
  0
ARC
  5
645
  8
0
  6
CONTINUOUS
 62
     7
 10
26.37115602225528
 20
177.0352520523246
 30
0.0
 40
0.5538642092790316
 50
350.0115217620445
 51
27.10165578826375
  0
ARC
  5
646
  8
0
  6
CONTINUOUS
 62
     7
 10
26.35938882585528
 20
177.0784233626247
 30
0.0
 40
0.3851331419281808
 50
351.5267110726346
 51
22.58994754272825
  0
ARC
  5
647
  8
0
  6
CONTINUOUS
 62
     7
 10
26.66337015585528
 20
177.0248403745246
 30
0.0
 40
0.0770130478426459
 50
227.2536099800629
 51
357.6441099516002
  0
ARC
  5
648
  8
0
  6
CONTINUOUS
 62
     7
 10
26.95107957495527
 20
177.2573137251246
 30
0.0
 40
0.4462351496798341
 50
186.9466650590939
 51
220.3688454838484
  0
ARC
  5
649
  8
0
  6
CONTINUOUS
 62
     7
 10
25.61551843235527
 20
190.9235061034247
 30
0.0
 40
1.274439260273488
 50
309.2036295280967
 51
359.2404399984898
  0
ARC
  5
64A
  8
0
  6
CONTINUOUS
 62
     7
 10
25.51511116725529
 20
190.9365947199247
 30
0.0
 40
1.18503638536243
 50
319.9848147702004
 51
355.8294220559896
  0
ARC
  5
64B
  8
0
  6
CONTINUOUS
 62
     7
 10
26.32300973135529
 20
190.2460745511247
 30
0.0
 40
0.1226490792859568
 50
259.3781877539651
 51
324.371120302634
  0
ARC
  5
64C
  8
0
  6
CONTINUOUS
 62
     7
 10
26.55511659125529
 20
190.8827246612247
 30
0.0
 40
0.1455257070115381
 50
347.1709442678362
 51
55.7042002368869
  0
ARC
  5
64D
  8
0
  6
CONTINUOUS
 62
     7
 10
26.60317419345528
 20
190.9475323204247
 30
0.0
 40
0.2895773878265839
 50
351.8762312816169
 51
66.02572734940675
  0
ARC
  5
64E
  8
0
  6
CONTINUOUS
 62
     7
 10
24.40912855825528
 20
190.8040314756247
 30
0.0
 40
0.1829999999999875
 50
321.6945342045523
 51
7.08348872808142
  0
ARC
  5
64F
  8
0
  6
CONTINUOUS
 62
     7
 10
24.44540254165528
 20
190.8890083878247
 30
0.0
 40
0.1059999999997748
 50
21.93094952410085
 51
104.5728421498523
  0
ARC
  5
650
  8
0
  6
CONTINUOUS
 62
     7
 10
24.63125228115528
 20
190.2881879712247
 30
0.0
 40
0.3719999999999444
 50
21.3464246851178
 51
77.66338904211744
  0
ARC
  5
651
  8
0
  6
CONTINUOUS
 62
     7
 10
24.65813149975529
 20
190.2102070024247
 30
0.0
 40
0.3842917763818335
 50
311.0953333909852
 51
33.73030259484062
  0
ARC
  5
652
  8
0
  6
CONTINUOUS
 62
     7
 10
24.43801605005528
 20
190.9834830296246
 30
0.0
 40
0.2369999999996903
 50
30.73276383352983
 51
105.738156925511
  0
ARC
  5
653
  8
0
  6
CONTINUOUS
 62
     7
 10
24.30862560675529
 20
190.8221052147246
 30
0.0
 40
0.436763138500729
 50
337.0213682832182
 51
40.29983905891091
  0
ARC
  5
654
  8
0
  6
CONTINUOUS
 62
     7
 10
24.74290914825528
 20
190.2088253707247
 30
0.0
 40
0.1120000000000596
 50
311.2336270146583
 51
25.81531948236861
  0
ARC
  5
655
  8
0
  6
CONTINUOUS
 62
     7
 10
24.29476574075528
 20
190.1157347192247
 30
0.0
 40
0.5670000000230383
 50
14.48935726400557
 51
32.16688486879531
  0
ARC
  5
656
  8
0
  6
CONTINUOUS
 62
     7
 10
24.67056237295528
 20
190.3764554417247
 30
0.0
 40
0.1119999999808692
 50
21.55204173031744
 51
97.09339824624445
  0
CIRCLE
  5
657
  8
0
  6
CONTINUOUS
 62
     7
 10
25.5487318135553
 20
188.2345982131247
 30
0.0
 40
3.5
  0
CIRCLE
  5
658
  8
0
  6
CONTINUOUS
 62
     7
 10
25.5487318135553
 20
179.7345982131247
 30
0.0
 40
3.5
  0
CIRCLE
  5
659
  8
0
  6
CONTINUOUS
 62
     7
 10
25.5487318135553
 20
171.2345982131247
 30
0.0
 40
3.5
  0
CIRCLE
  5
65A
  8
0
  6
CONTINUOUS
 62
     7
 10
25.5487318135553
 20
179.7345982131247
 30
0.0
 40
1.599999999999969
  0
CIRCLE
  5
65B
  8
0
  6
CONTINUOUS
 62
     7
 10
25.5487318135553
 20
188.2345982131247
 30
0.0
 40
1.599999999999969
  0
CIRCLE
  5
65C
  8
0
  6
CONTINUOUS
 62
     7
 10
25.5487318135553
 20
171.2345982131247
 30
0.0
 40
1.599999999999969
  0
POLYLINE
  5
65D
  8
0
  6
CONTINUOUS
 62
     7
 66
     1
 10
0.0
 20
0.0
 30
0.0
 70
     1
  0
VERTEX
  5
66A
  8
0
  6
CONTINUOUS
 62
     7
 10
14.54276666778043
 20
122.2820155400754
 30
0.0
  0
VERTEX
  5
66B
  8
0
  6
CONTINUOUS
 62
     7
 10
14.54410888682134
 20
122.3024552521645
 30
0.0
  0
VERTEX
  5
66C
  8
0
  6
CONTINUOUS
 62
     7
 10
14.54490586936021
 20
122.322923850644
 30
0.0
  0
VERTEX
  5
66D
  8
0
  6
CONTINUOUS
 62
     7
 10
14.54534949770245
 20
122.3434028420634
 30
0.0
  0
VERTEX
  5
66E
  8
0
  6
CONTINUOUS
 62
     7
 10
14.54560894562164
 20
122.3638852174544
 30
0.0
  0
VERTEX
  5
66F
  8
0
  6
CONTINUOUS
 62
     7
 10
14.54586432502934
 20
122.3843675232824
 30
0.0
  0
VERTEX
  5
670
  8
0
  6
CONTINUOUS
 62
     7
 10
14.54618432989124
 20
122.404848974651
 30
0.0
  0
VERTEX
  5
671
  8
0
  6
CONTINUOUS
 62
     7
 10
14.54655514591917
 20
122.4253296824021
 30
0.0
  0
VERTEX
  5
672
  8
0
  6
CONTINUOUS
 62
     7
 10
14.54696074810669
 20
122.4458097792567
 30
0.0
  0
VERTEX
  5
673
  8
0
  6
CONTINUOUS
 62
     7
 10
14.54738512548345
 20
122.4662894329401
 30
0.0
  0
VERTEX
  5
674
  8
0
  6
CONTINUOUS
 62
     7
 10
14.54781232351945
 20
122.4867689519336
 30
0.0
  0
VERTEX
  5
675
  8
0
  6
CONTINUOUS
 62
     7
 10
14.54822640186916
 20
122.5072486800928
 30
0.0
  0
VERTEX
  5
676
  8
0
  6
CONTINUOUS
 62
     7
 10
14.54861162856327
 20
122.5277289564028
 30
0.0
  0
VERTEX
  5
677
  8
0
  6
CONTINUOUS
 62
     7
 10
14.54896047477426
 20
122.5482099281014
 30
0.0
  0
VERTEX
  5
678
  8
0
  6
CONTINUOUS
 62
     7
 10
14.54927612753564
 20
122.5686914919448
 30
0.0
  0
VERTEX
  5
679
  8
0
  6
CONTINUOUS
 62
     7
 10
14.54956249607592
 20
122.5891735278082
 30
0.0
  0
VERTEX
  5
67A
  8
0
  6
CONTINUOUS
 62
     7
 10
14.54982348962361
 20
122.6096559155665
 30
0.0
  0
VERTEX
  5
67B
  8
0
  6
CONTINUOUS
 62
     7
 10
14.55006301813644
 20
122.6301385370561
 30
0.0
  0
VERTEX
  5
67C
  8
0
  6
CONTINUOUS
 62
     7
 10
14.55028500720701
 20
122.6506213161638
 30
0.0
  0
VERTEX
  5
67D
  8
0
  6
CONTINUOUS
 62
     7
 10
14.55049339745578
 20
122.6711042171945
 30
0.0
  0
VERTEX
  5
67E
  8
0
  6
CONTINUOUS
 62
     7
 10
14.550692130111
 20
122.6915872060875
 30
0.0
  0
VERTEX
  5
67F
  8
0
  6
CONTINUOUS
 62
     7
 10
14.55088514640091
 20
122.7120702487824
 30
0.0
  0
VERTEX
  5
680
  8
0
  6
CONTINUOUS
 62
     7
 10
14.55107620096093
 20
122.7325533128034
 30
0.0
  0
VERTEX
  5
681
  8
0
  6
CONTINUOUS
 62
     7
 10
14.55126661165192
 20
122.753036386374
 30
0.0
  0
VERTEX
  5
682
  8
0
  6
CONTINUOUS
 62
     7
 10
14.55145598703895
 20
122.7735194722368
 30
0.0
  0
VERTEX
  5
683
  8
0
  6
CONTINUOUS
 62
     7
 10
14.55164390034925
 20
122.7940025734346
 30
0.0
  0
VERTEX
  5
684
  8
0
  6
CONTINUOUS
 62
     7
 10
14.55182992481001
 20
122.8144856930104
 30
0.0
  0
VERTEX
  5
685
  8
0
  6
CONTINUOUS
 62
     7
 10
14.55201363364844
 20
122.834968834007
 30
0.0
  0
VERTEX
  5
686
  8
0
  6
CONTINUOUS
 62
     7
 10
14.55219460009405
 20
122.8554519994566
 30
0.0
  0
VERTEX
  5
687
  8
0
  6
CONTINUOUS
 62
     7
 10
14.5523723974083
 20
122.875935192243
 30
0.0
  0
VERTEX
  5
688
  8
0
  6
CONTINUOUS
 62
     7
 10
14.55254659887608
 20
122.8964184151415
 30
0.0
  0
VERTEX
  5
689
  8
0
  6
CONTINUOUS
 62
     7
 10
14.55271677778284
 20
122.9169016709244
 30
0.0
  0
VERTEX
  5
68A
  8
0
  6
CONTINUOUS
 62
     7
 10
14.55288250741403
 20
122.9373849623642
 30
0.0
  0
VERTEX
  5
68B
  8
0
  6
CONTINUOUS
 62
     7
 10
14.55304336105507
 20
122.9578682922337
 30
0.0
  0
VERTEX
  5
68C
  8
0
  6
CONTINUOUS
 62
     7
 10
14.55319893538687
 20
122.9783516631026
 30
0.0
  0
VERTEX
  5
68D
  8
0
  6
CONTINUOUS
 62
     7
 10
14.55334917676218
 20
122.9988350745138
 30
0.0
  0
VERTEX
  5
68E
  8
0
  6
CONTINUOUS
 62
     7
 10
14.55349430051069
 20
123.0193185236812
 30
0.0
  0
VERTEX
  5
68F
  8
0
  6
CONTINUOUS
 62
     7
 10
14.55363452886952
 20
123.0398020077589
 30
0.0
  0
VERTEX
  5
690
  8
0
  6
CONTINUOUS
 62
     7
 10
14.55377008407578
 20
123.0602855239011
 30
0.0
  0
VERTEX
  5
691
  8
0
  6
CONTINUOUS
 62
     7
 10
14.55390118836658
 20
123.0807690692621
 30
0.0
  0
VERTEX
  5
692
  8
0
  6
CONTINUOUS
 62
     7
 10
14.55402806397903
 20
123.1012526409959
 30
0.0
  0
VERTEX
  5
693
  8
0
  6
CONTINUOUS
 62
     7
 10
14.55415093316465
 20
123.1217362363107
 30
0.0
  0
VERTEX
  5
694
  8
0
  6
CONTINUOUS
 62
     7
 10
14.55427001836746
 20
123.1422198531321
 30
0.0
  0
VERTEX
  5
695
  8
0
  6
CONTINUOUS
 62
     7
 10
14.55438554216862
 20
123.1627034898977
 30
0.0
  0
VERTEX
  5
696
  8
0
  6
CONTINUOUS
 62
     7
 10
14.55449772715225
 20
123.1831871450558
 30
0.0
  0
VERTEX
  5
697
  8
0
  6
CONTINUOUS
 62
     7
 10
14.55460679590247
 20
123.2036708170551
 30
0.0
  0
VERTEX
  5
698
  8
0
  6
CONTINUOUS
 62
     7
 10
14.55471297100339
 20
123.2241545043438
 30
0.0
  0
VERTEX
  5
699
  8
0
  6
CONTINUOUS
 62
     7
 10
14.55481647503912
 20
123.2446382053705
 30
0.0
  0
VERTEX
  5
69A
  8
0
  6
CONTINUOUS
 62
     7
 10
14.55491752027748
 20
123.2651219186439
 30
0.0
  0
VERTEX
  5
69B
  8
0
  6
CONTINUOUS
 62
     7
 10
14.555016195486
 20
123.2856056433957
 30
0.0
  0
VERTEX
  5
69C
  8
0
  6
CONTINUOUS
 62
     7
 10
14.55511250802452
 20
123.306089379334
 30
0.0
  0
VERTEX
  5
69D
  8
0
  6
CONTINUOUS
 62
     7
 10
14.55520646381615
 20
123.3265731261753
 30
0.0
  0
VERTEX
  5
69E
  8
0
  6
CONTINUOUS
 62
     7
 10
14.555298068784
 20
123.3470568836361
 30
0.0
  0
VERTEX
  5
69F
  8
0
  6
CONTINUOUS
 62
     7
 10
14.55538732885122
 20
123.367540651433
 30
0.0
  0
VERTEX
  5
6A0
  8
0
  6
CONTINUOUS
 62
     7
 10
14.55547424994091
 20
123.3880244292824
 30
0.0
  0
VERTEX
  5
6A1
  8
0
  6
CONTINUOUS
 62
     7
 10
14.55555883797619
 20
123.4085082169008
 30
0.0
  0
VERTEX
  5
6A2
  8
0
  6
CONTINUOUS
 62
     7
 10
14.55564109887595
 20
123.4289920140047
 30
0.0
  0
VERTEX
  5
6A3
  8
0
  6
CONTINUOUS
 62
     7
 10
14.55572103853896
 20
123.4494758203096
 30
0.0
  0
VERTEX
  5
6A4
  8
0
  6
CONTINUOUS
 62
     7
 10
14.55579866285814
 20
123.4699596355309
 30
0.0
  0
VERTEX
  5
6A5
  8
0
  6
CONTINUOUS
 62
     7
 10
14.55587397772641
 20
123.4904434593842
 30
0.0
  0
VERTEX
  5
6A6
  8
0
  6
CONTINUOUS
 62
     7
 10
14.55594698903669
 20
123.5109272915847
 30
0.0
  0
VERTEX
  5
6A7
  8
0
  6
CONTINUOUS
 62
     7
 10
14.55601770268188
 20
123.5314111318479
 30
0.0
  0
VERTEX
  5
6A8
  8
0
  6
CONTINUOUS
 62
     7
 10
14.5560861245549
 20
123.5518949798893
 30
0.0
  0
VERTEX
  5
6A9
  8
0
  6
CONTINUOUS
 62
     7
 10
14.55615226058917
 20
123.5723788354241
 30
0.0
  0
VERTEX
  5
6AA
  8
0
  6
CONTINUOUS
 62
     7
 10
14.55621612251277
 20
123.592862698161
 30
0.0
  0
VERTEX
  5
6AB
  8
0
  6
CONTINUOUS
 62
     7
 10
14.55627773382325
 20
123.6133465677946
 30
0.0
  0
VERTEX
  5
6AC
  8
0
  6
CONTINUOUS
 62
     7
 10
14.55633711944517
 20
123.633830444018
 30
0.0
  0
VERTEX
  5
6AD
  8
0
  6
CONTINUOUS
 62
     7
 10
14.55639430430312
 20
123.6543143265241
 30
0.0
  0
VERTEX
  5
6AE
  8
0
  6
CONTINUOUS
 62
     7
 10
14.55644931332167
 20
123.674798215006
 30
0.0
  0
VERTEX
  5
6AF
  8
0
  6
CONTINUOUS
 62
     7
 10
14.5565021714254
 20
123.6952821091567
 30
0.0
  0
VERTEX
  5
6B0
  8
0
  6
CONTINUOUS
 62
     7
 10
14.55655290353889
 20
123.7157660086691
 30
0.0
  0
VERTEX
  5
6B1
  8
0
  6
CONTINUOUS
 62
     7
 10
14.55660153458672
 20
123.7362499132363
 30
0.0
  0
VERTEX
  5
6B2
  8
0
  6
CONTINUOUS
 62
     7
 10
14.55664808949503
 20
123.7567338225644
 30
0.0
  0
VERTEX
  5
6B3
  8
0
  6
CONTINUOUS
 62
     7
 10
14.55669259319603
 20
123.77721773641
 30
0.0
  0
VERTEX
  5
6B4
  8
0
  6
CONTINUOUS
 62
     7
 10
14.55673507062336
 20
123.7977016545414
 30
0.0
  0
VERTEX
  5
6B5
  8
0
  6
CONTINUOUS
 62
     7
 10
14.55677554671065
 20
123.8181855767272
 30
0.0
  0
VERTEX
  5
6B6
  8
0
  6
CONTINUOUS
 62
     7
 10
14.55681404639155
 20
123.8386695027359
 30
0.0
  0
VERTEX
  5
6B7
  8
0
  6
CONTINUOUS
 62
     7
 10
14.55685059459971
 20
123.8591534323361
 30
0.0
  0
VERTEX
  5
6B8
  8
0
  6
CONTINUOUS
 62
     7
 10
14.55688521626876
 20
123.8796373652962
 30
0.0
  0
VERTEX
  5
6B9
  8
0
  6
CONTINUOUS
 62
     7
 10
14.55691793633235
 20
123.9001213013848
 30
0.0
  0
VERTEX
  5
6BA
  8
0
  6
CONTINUOUS
 62
     7
 10
14.55694877783862
 20
123.9206052403756
 30
0.0
  0
VERTEX
  5
6BB
  8
0
  6
CONTINUOUS
 62
     7
 10
14.55697774964322
 20
123.9410891820807
 30
0.0
  0
VERTEX
  5
6BC
  8
0
  6
CONTINUOUS
 62
     7
 10
14.55700485413847
 20
123.9615731263302
 30
0.0
  0
VERTEX
  5
6BD
  8
0
  6
CONTINUOUS
 62
     7
 10
14.55703009368397
 20
123.9820570729539
 30
0.0
  0
VERTEX
  5
6BE
  8
0
  6
CONTINUOUS
 62
     7
 10
14.55705347063929
 20
124.002541021782
 30
0.0
  0
VERTEX
  5
6BF
  8
0
  6
CONTINUOUS
 62
     7
 10
14.55707498736404
 20
124.0230249726443
 30
0.0
  0
VERTEX
  5
6C0
  8
0
  6
CONTINUOUS
 62
     7
 10
14.55709464621779
 20
124.0435089253709
 30
0.0
  0
VERTEX
  5
6C1
  8
0
  6
CONTINUOUS
 62
     7
 10
14.55711244956013
 20
124.0639928797918
 30
0.0
  0
VERTEX
  5
6C2
  8
0
  6
CONTINUOUS
 62
     7
 10
14.55712839975065
 20
124.0844768357369
 30
0.0
  0
VERTEX
  5
6C3
  8
0
  6
CONTINUOUS
 62
     7
 10
14.55714249914845
 20
124.1049607930377
 30
0.0
  0
VERTEX
  5
6C4
  8
0
  6
CONTINUOUS
 62
     7
 10
14.55715475011187
 20
124.1254447515279
 30
0.0
  0
VERTEX
  5
6C5
  8
0
  6
CONTINUOUS
 62
     7
 10
14.55716515499917
 20
124.1459287110413
 30
0.0
  0
VERTEX
  5
6C6
  8
0
  6
CONTINUOUS
 62
     7
 10
14.55717371616863
 20
124.1664126714119
 30
0.0
  0
VERTEX
  5
6C7
  8
0
  6
CONTINUOUS
 62
     7
 10
14.55718043597851
 20
124.1868966324736
 30
0.0
  0
VERTEX
  5
6C8
  8
0
  6
CONTINUOUS
 62
     7
 10
14.55718531678708
 20
124.2073805940602
 30
0.0
  0
VERTEX
  5
6C9
  8
0
  6
CONTINUOUS
 62
     7
 10
14.55718836095261
 20
124.2278645560057
 30
0.0
  0
VERTEX
  5
6CA
  8
0
  6
CONTINUOUS
 62
     7
 10
14.55718957083336
 20
124.248348518144
 30
0.0
  0
VERTEX
  5
6CB
  8
0
  6
CONTINUOUS
 62
     7
 10
14.5571889483221
 20
124.268832480309
 30
0.0
  0
VERTEX
  5
6CC
  8
0
  6
CONTINUOUS
 62
     7
 10
14.55718649227864
 20
124.2893164423345
 30
0.0
  0
VERTEX
  5
6CD
  8
0
  6
CONTINUOUS
 62
     7
 10
14.55718220034793
 20
124.3098004040544
 30
0.0
  0
VERTEX
  5
6CE
  8
0
  6
CONTINUOUS
 62
     7
 10
14.5571760701717
 20
124.3302843653025
 30
0.0
  0
VERTEX
  5
6CF
  8
0
  6
CONTINUOUS
 62
     7
 10
14.55716809939167
 20
124.3507683259128
 30
0.0
  0
VERTEX
  5
6D0
  8
0
  6
CONTINUOUS
 62
     7
 10
14.55715828564956
 20
124.3712522857191
 30
0.0
  0
VERTEX
  5
6D1
  8
0
  6
CONTINUOUS
 62
     7
 10
14.55714662658709
 20
124.3917362445552
 30
0.0
  0
VERTEX
  5
6D2
  8
0
  6
CONTINUOUS
 62
     7
 10
14.55713311984599
 20
124.412220202255
 30
0.0
  0
VERTEX
  5
6D3
  8
0
  6
CONTINUOUS
 62
     7
 10
14.55711776306797
 20
124.4327041586523
 30
0.0
  0
VERTEX
  5
6D4
  8
0
  6
CONTINUOUS
 62
     7
 10
14.55710055389422
 20
124.4531881135796
 30
0.0
  0
VERTEX
  5
6D5
  8
0
  6
CONTINUOUS
 62
     7
 10
14.5570814899652
 20
124.473672066867
 30
0.0
  0
VERTEX
  5
6D6
  8
0
  6
CONTINUOUS
 62
     7
 10
14.55706056892131
 20
124.4941560183447
 30
0.0
  0
VERTEX
  5
6D7
  8
0
  6
CONTINUOUS
 62
     7
 10
14.55703778840297
 20
124.5146399678428
 30
0.0
  0
VERTEX
  5
6D8
  8
0
  6
CONTINUOUS
 62
     7
 10
14.55701314605056
 20
124.5351239151913
 30
0.0
  0
VERTEX
  5
6D9
  8
0
  6
CONTINUOUS
 62
     7
 10
14.55698663950449
 20
124.5556078602205
 30
0.0
  0
VERTEX
  5
6DA
  8
0
  6
CONTINUOUS
 62
     7
 10
14.55695826640516
 20
124.5760918027604
 30
0.0
  0
VERTEX
  5
6DB
  8
0
  6
CONTINUOUS
 62
     7
 10
14.55692802439298
 20
124.5965757426411
 30
0.0
  0
VERTEX
  5
6DC
  8
0
  6
CONTINUOUS
 62
     7
 10
14.55689590849873
 20
124.6170596796855
 30
0.0
  0
VERTEX
  5
6DD
  8
0
  6
CONTINUOUS
 62
     7
 10
14.55686189898428
 20
124.637543613676
 30
0.0
  0
VERTEX
  5
6DE
  8
0
  6
CONTINUOUS
 62
     7
 10
14.55682597092165
 20
124.6580275443807
 30
0.0
  0
VERTEX
  5
6DF
  8
0
  6
CONTINUOUS
 62
     7
 10
14.5567880993772
 20
124.6785114715676
 30
0.0
  0
VERTEX
  5
6E0
  8
0
  6
CONTINUOUS
 62
     7
 10
14.55674825941724
 20
124.6989953950048
 30
0.0
  0
VERTEX
  5
6E1
  8
0
  6
CONTINUOUS
 62
     7
 10
14.55670642610814
 20
124.7194793144603
 30
0.0
  0
VERTEX
  5
6E2
  8
0
  6
CONTINUOUS
 62
     7
 10
14.55666257451621
 20
124.7399632297021
 30
0.0
  0
VERTEX
  5
6E3
  8
0
  6
CONTINUOUS
 62
     7
 10
14.55661667970781
 20
124.7604471404985
 30
0.0
  0
VERTEX
  5
6E4
  8
0
  6
CONTINUOUS
 62
     7
 10
14.55656871674971
 20
124.7809310466137
 30
0.0
  0
VERTEX
  5
6E5
  8
0
  6
CONTINUOUS
 62
     7
 10
14.55651866071391
 20
124.8014149477702
 30
0.0
  0
VERTEX
  5
6E6
  8
0
  6
CONTINUOUS
 62
     7
 10
14.55646648667576
 20
124.8218988436632
 30
0.0
  0
VERTEX
  5
6E7
  8
0
  6
CONTINUOUS
 62
     7
 10
14.5564121697107
 20
124.8423827339874
 30
0.0
  0
VERTEX
  5
6E8
  8
0
  6
CONTINUOUS
 62
     7
 10
14.55635568489412
 20
124.8628666184376
 30
0.0
  0
VERTEX
  5
6E9
  8
0
  6
CONTINUOUS
 62
     7
 10
14.55629700730145
 20
124.8833504967084
 30
0.0
  0
VERTEX
  5
6EA
  8
0
  6
CONTINUOUS
 62
     7
 10
14.55623611200811
 20
124.9038343684947
 30
0.0
  0
VERTEX
  5
6EB
  8
0
  6
CONTINUOUS
 62
     7
 10
14.55617297408951
 20
124.9243182334911
 30
0.0
  0
VERTEX
  5
6EC
  8
0
  6
CONTINUOUS
 62
     7
 10
14.55610756890201
 20
124.9448020913925
 30
0.0
  0
VERTEX
  5
6ED
  8
0
  6
CONTINUOUS
 62
     7
 10
14.55603988026354
 20
124.9652859419
 30
0.0
  0
VERTEX
  5
6EE
  8
0
  6
CONTINUOUS
 62
     7
 10
14.55596990174104
 20
124.9857697847216
 30
0.0
  0
VERTEX
  5
6EF
  8
0
  6
CONTINUOUS
 62
     7
 10
14.55589762744151
 20
125.0062536195657
 30
0.0
  0
VERTEX
  5
6F0
  8
0
  6
CONTINUOUS
 62
     7
 10
14.55582305147193
 20
125.0267374461407
 30
0.0
  0
VERTEX
  5
6F1
  8
0
  6
CONTINUOUS
 62
     7
 10
14.5557461679393
 20
125.0472212641551
 30
0.0
  0
VERTEX
  5
6F2
  8
0
  6
CONTINUOUS
 62
     7
 10
14.5556669709506
 20
125.0677050733172
 30
0.0
  0
VERTEX
  5
6F3
  8
0
  6
CONTINUOUS
 62
     7
 10
14.55558545461282
 20
125.0881888733354
 30
0.0
  0
VERTEX
  5
6F4
  8
0
  6
CONTINUOUS
 62
     7
 10
14.55550161303101
 20
125.1086726639205
 30
0.0
  0
VERTEX
  5
6F5
  8
0
  6
CONTINUOUS
 62
     7
 10
14.55541544029206
 20
125.1291564448039
 30
0.0
  0
VERTEX
  5
6F6
  8
0
  6
CONTINUOUS
 62
     7
 10
14.55532693047315
 20
125.1496402157284
 30
0.0
  0
VERTEX
  5
6F7
  8
0
  6
CONTINUOUS
 62
     7
 10
14.55523607765136
 20
125.1701239764369
 30
0.0
  0
VERTEX
  5
6F8
  8
0
  6
CONTINUOUS
 62
     7
 10
14.55514287590375
 20
125.1906077266722
 30
0.0
  0
VERTEX
  5
6F9
  8
0
  6
CONTINUOUS
 62
     7
 10
14.55504731930742
 20
125.2110914661773
 30
0.0
  0
VERTEX
  5
6FA
  8
0
  6
CONTINUOUS
 62
     7
 10
14.55494940193942
 20
125.231575194695
 30
0.0
  0
VERTEX
  5
6FB
  8
0
  6
CONTINUOUS
 62
     7
 10
14.5548491178765
 20
125.2520589119681
 30
0.0
  0
VERTEX
  5
6FC
  8
0
  6
CONTINUOUS
 62
     7
 10
14.55474642277585
 20
125.27254261749
 30
0.0
  0
VERTEX
  5
6FD
  8
0
  6
CONTINUOUS
 62
     7
 10
14.55464112794665
 20
125.2930263098161
 30
0.0
  0
VERTEX
  5
6FE
  8
0
  6
CONTINUOUS
 62
     7
 10
14.55453301080363
 20
125.3135099872817
 30
0.0
  0
VERTEX
  5
6FF
  8
0
  6
CONTINUOUS
 62
     7
 10
14.55442184876155
 20
125.3339936482221
 30
0.0
  0
VERTEX
  5
700
  8
0
  6
CONTINUOUS
 62
     7
 10
14.55430741923512
 20
125.3544772909727
 30
0.0
  0
VERTEX
  5
701
  8
0
  6
CONTINUOUS
 62
     7
 10
14.55418949963909
 20
125.3749609138685
 30
0.0
  0
VERTEX
  5
702
  8
0
  6
CONTINUOUS
 62
     7
 10
14.55406786738821
 20
125.395444515245
 30
0.0
  0
VERTEX
  5
703
  8
0
  6
CONTINUOUS
 62
     7
 10
14.55394229996513
 20
125.415928093292
 30
0.0
  0
VERTEX
  5
704
  8
0
  6
CONTINUOUS
 62
     7
 10
14.5538125750863
 20
125.436411645699
 30
0.0
  0
VERTEX
  5
705
  8
0
  6
CONTINUOUS
 62
     7
 10
14.55367847051845
 20
125.4568951700478
 30
0.0
  0
VERTEX
  5
706
  8
0
  6
CONTINUOUS
 62
     7
 10
14.55353976402825
 20
125.4773786639201
 30
0.0
  0
VERTEX
  5
707
  8
0
  6
CONTINUOUS
 62
     7
 10
14.55339623338244
 20
125.497862124898
 30
0.0
  0
VERTEX
  5
708
  8
0
  6
CONTINUOUS
 62
     7
 10
14.55324765634771
 20
125.5183455505632
 30
0.0
  0
VERTEX
  5
709
  8
0
  6
CONTINUOUS
 62
     7
 10
14.55309381074455
 20
125.5388289384978
 30
0.0
  0
VERTEX
  5
70A
  8
0
  6
CONTINUOUS
 62
     7
 10
14.55293461012718
 20
125.5593122869602
 30
0.0
  0
VERTEX
  5
70B
  8
0
  6
CONTINUOUS
 62
     7
 10
14.55277039675819
 20
125.5797955963445
 30
0.0
  0
VERTEX
  5
70C
  8
0
  6
CONTINUOUS
 62
     7
 10
14.55260159733356
 20
125.6002788674653
 30
0.0
  0
VERTEX
  5
70D
  8
0
  6
CONTINUOUS
 62
     7
 10
14.55242863854929
 20
125.6207621011374
 30
0.0
  0
VERTEX
  5
70E
  8
0
  6
CONTINUOUS
 62
     7
 10
14.55225194710138
 20
125.6412452981755
 30
0.0
  0
VERTEX
  5
70F
  8
0
  6
CONTINUOUS
 62
     7
 10
14.55207194968581
 20
125.6617284593948
 30
0.0
  0
VERTEX
  5
710
  8
0
  6
CONTINUOUS
 62
     7
 10
14.55188907302765
 20
125.6822115875358
 30
0.0
  0
VERTEX
  5
711
  8
0
  6
CONTINUOUS
 62
     7
 10
14.55170374394868
 20
125.7026946917525
 30
0.0
  0
VERTEX
  5
712
  8
0
  6
CONTINUOUS
 62
     7
 10
14.55151638929083
 20
125.7231777825326
 30
0.0
  0
VERTEX
  5
713
  8
0
  6
CONTINUOUS
 62
     7
 10
14.55132743589603
 20
125.7436608703638
 30
0.0
  0
VERTEX
  5
714
  8
0
  6
CONTINUOUS
 62
     7
 10
14.55113731060618
 20
125.7641439657337
 30
0.0
  0
VERTEX
  5
715
  8
0
  6
CONTINUOUS
 62
     7
 10
14.55094644019996
 20
125.7846270791287
 30
0.0
  0
VERTEX
  5
716
  8
0
  6
CONTINUOUS
 62
     7
 10
14.55075442255741
 20
125.8051102055178
 30
0.0
  0
VERTEX
  5
717
  8
0
  6
CONTINUOUS
 62
     7
 10
14.55055795165759
 20
125.8255932855078
 30
0.0
  0
VERTEX
  5
718
  8
0
  6
CONTINUOUS
 62
     7
 10
14.55035308592299
 20
125.8460762478074
 30
0.0
  0
VERTEX
  5
719
  8
0
  6
CONTINUOUS
 62
     7
 10
14.55013588377612
 20
125.8665590211251
 30
0.0
  0
VERTEX
  5
71A
  8
0
  6
CONTINUOUS
 62
     7
 10
14.5499024036644
 20
125.887041534239
 30
0.0
  0
VERTEX
  5
71B
  8
0
  6
CONTINUOUS
 62
     7
 10
14.54964871279468
 20
125.9075237403067
 30
0.0
  0
VERTEX
  5
71C
  8
0
  6
CONTINUOUS
 62
     7
 10
14.54937089998956
 20
125.9280056526474
 30
0.0
  0
VERTEX
  5
71D
  8
0
  6
CONTINUOUS
 62
     7
 10
14.54906505734712
 20
125.9484872936968
 30
0.0
  0
VERTEX
  5
71E
  8
0
  6
CONTINUOUS
 62
     7
 10
14.54872727696545
 20
125.9689686858906
 30
0.0
  0
VERTEX
  5
71F
  8
0
  6
CONTINUOUS
 62
     7
 10
14.54835372480483
 20
125.9894498498191
 30
0.0
  0
VERTEX
  5
720
  8
0
  6
CONTINUOUS
 62
     7
 10
14.54794723263602
 20
126.009930639527
 30
0.0
  0
VERTEX
  5
721
  8
0
  6
CONTINUOUS
 62
     7
 10
14.54752250726894
 20
126.0304106123615
 30
0.0
  0
VERTEX
  5
722
  8
0
  6
CONTINUOUS
 62
     7
 10
14.54709548141502
 20
126.0508892950402
 30
0.0
  0
VERTEX
  5
723
  8
0
  6
CONTINUOUS
 62
     7
 10
14.54668209421554
 20
126.0713664136705
 30
0.0
  0
VERTEX
  5
724
  8
0
  6
CONTINUOUS
 62
     7
 10
14.54629835573519
 20
126.0918438937002
 30
0.0
  0
VERTEX
  5
725
  8
0
  6
CONTINUOUS
 62
     7
 10
14.54596032004339
 20
126.1123250251661
 30
0.0
  0
VERTEX
  5
726
  8
0
  6
CONTINUOUS
 62
     7
 10
14.54568401955611
 20
126.1328131152033
 30
0.0
  0
VERTEX
  5
727
  8
0
  6
CONTINUOUS
 62
     7
 10
14.54544298812817
 20
126.1533051403488
 30
0.0
  0
VERTEX
  5
728
  8
0
  6
CONTINUOUS
 62
     7
 10
14.54507983495383
 20
126.1737785745651
 30
0.0
  0
VERTEX
  5
729
  8
0
  6
CONTINUOUS
 62
     7
 10
14.54441284099772
 20
126.194219044772
 30
0.0
  0
VERTEX
  5
72A
  8
0
  6
CONTINUOUS
 62
     7
 10
14.54326475771962
 20
126.2146784123681
 30
0.0
  0
VERTEX
  5
72B
  8
0
  6
CONTINUOUS
 62
     7
 10
14.54149722334458
 20
126.2351306187646
 30
0.0
  0
VERTEX
  5
72C
  8
0
  6
CONTINUOUS
 62
     7
 10
14.53928526688571
 20
126.2557574193962
 30
0.0
  0
VERTEX
  5
72D
  8
0
  6
CONTINUOUS
 62
     7
 10
14.53662911326261
 20
126.2799313311574
 30
0.0
  0
VERTEX
  5
72E
  8
0
  6
CONTINUOUS
 62
     7
 10
14.53353760889047
 20
126.3067090997745
 30
0.0
  0
VERTEX
  5
72F
  8
0
  6
CONTINUOUS
 62
     7
 10
14.53004208785489
 20
126.3342550715891
 30
0.0
  0
VERTEX
  5
730
  8
0
  6
CONTINUOUS
 62
     7
 10
14.5261738842415
 20
126.3607335929426
 30
0.0
  0
VERTEX
  5
731
  8
0
  6
CONTINUOUS
 62
     7
 10
14.52196433213592
 20
126.3843090101764
 30
0.0
  0
VERTEX
  5
732
  8
0
  6
CONTINUOUS
 62
     7
 10
14.51744476562378
 20
126.4031456696321
 30
0.0
  0
VERTEX
  5
733
  8
0
  6
CONTINUOUS
 62
     7
 10
14.51264651879069
 20
126.4154079176512
 30
0.0
  0
VERTEX
  5
734
  8
0
  6
CONTINUOUS
 62
     7
 10
14.50760092572227
 20
126.4192601005749
 30
0.0
  0
VERTEX
  5
735
  8
0
  6
CONTINUOUS
 62
     7
 10
14.5023518553689
 20
126.4132986202959
 30
0.0
  0
VERTEX
  5
736
  8
0
  6
CONTINUOUS
 62
     7
 10
14.49701958866557
 20
126.3987536703583
 30
0.0
  0
VERTEX
  5
737
  8
0
  6
CONTINUOUS
 62
     7
 10
14.49175319709594
 20
126.3778478057398
 30
0.0
  0
VERTEX
  5
738
  8
0
  6
CONTINUOUS
 62
     7
 10
14.48670180475184
 20
126.3528053947339
 30
0.0
  0
VERTEX
  5
739
  8
0
  6
CONTINUOUS
 62
     7
 10
14.48201453572511
 20
126.3258508056339
 30
0.0
  0
VERTEX
  5
73A
  8
0
  6
CONTINUOUS
 62
     7
 10
14.477835641759
 20
126.299148889932
 30
0.0
  0
VERTEX
  5
73B
  8
0
  6
CONTINUOUS
 62
     7
 10
14.47421392359652
 20
126.2736985443267
 30
0.0
  0
VERTEX
  5
73C
  8
0
  6
CONTINUOUS
 62
     7
 10
14.47111113878594
 20
126.2494354139009
 30
0.0
  0
VERTEX
  5
73D
  8
0
  6
CONTINUOUS
 62
     7
 10
14.46848585857122
 20
126.2262562223354
 30
0.0
  0
VERTEX
  5
73E
  8
0
  6
CONTINUOUS
 62
     7
 10
14.46629665419631
 20
126.2040576933107
 30
0.0
  0
VERTEX
  5
73F
  8
0
  6
CONTINUOUS
 62
     7
 10
14.46450209690516
 20
126.1827365505074
 30
0.0
  0
VERTEX
  5
740
  8
0
  6
CONTINUOUS
 62
     7
 10
14.46306075794173
 20
126.1621895176061
 30
0.0
  0
VERTEX
  5
741
  8
0
  6
CONTINUOUS
 62
     7
 10
14.46193120854996
 20
126.1423133182875
 30
0.0
  0
VERTEX
  5
742
  8
0
  6
CONTINUOUS
 62
     7
 10
14.46107201997382
 20
126.1230046762322
 30
0.0
  0
VERTEX
  5
743
  8
0
  6
CONTINUOUS
 62
     7
 10
14.46044176345725
 20
126.1041603151207
 30
0.0
  0
VERTEX
  5
744
  8
0
  6
CONTINUOUS
 62
     7
 10
14.4599990102442
 20
126.0856769586337
 30
0.0
  0
VERTEX
  5
745
  8
0
  6
CONTINUOUS
 62
     7
 10
14.45970233157863
 20
126.0674513304518
 30
0.0
  0
VERTEX
  5
746
  8
0
  6
CONTINUOUS
 62
     7
 10
14.4595102987045
 20
126.0493801542556
 30
0.0
  0
VERTEX
  5
747
  8
0
  6
CONTINUOUS
 62
     7
 10
14.45938148286574
 20
126.0313601537257
 30
0.0
  0
VERTEX
  5
748
  8
0
  6
CONTINUOUS
 62
     7
 10
14.45927445530633
 20
126.0132880525428
 30
0.0
  0
VERTEX
  5
749
  8
0
  6
CONTINUOUS
 62
     7
 10
14.4591477872702
 20
125.9950605743874
 30
0.0
  0
VERTEX
  5
74A
  8
0
  6
CONTINUOUS
 62
     7
 10
14.45896239864574
 20
125.9765804891965
 30
0.0
  0
VERTEX
  5
74B
  8
0
  6
CONTINUOUS
 62
     7
 10
14.45870579628995
 20
125.9578190113364
 30
0.0
  0
VERTEX
  5
74C
  8
0
  6
CONTINUOUS
 62
     7
 10
14.4583823059573
 20
125.9387906530711
 30
0.0
  0
VERTEX
  5
74D
  8
0
  6
CONTINUOUS
 62
     7
 10
14.45799651908695
 20
125.9195106106324
 30
0.0
  0
VERTEX
  5
74E
  8
0
  6
CONTINUOUS
 62
     7
 10
14.45755302711807
 20
125.8999940802523
 30
0.0
  0
VERTEX
  5
74F
  8
0
  6
CONTINUOUS
 62
     7
 10
14.4570564214898
 20
125.8802562581626
 30
0.0
  0
VERTEX
  5
750
  8
0
  6
CONTINUOUS
 62
     7
 10
14.45651129364132
 20
125.8603123405952
 30
0.0
  0
VERTEX
  5
751
  8
0
  6
CONTINUOUS
 62
     7
 10
14.45592223501178
 20
125.840177523782
 30
0.0
  0
VERTEX
  5
752
  8
0
  6
CONTINUOUS
 62
     7
 10
14.45529383704034
 20
125.8198670039549
 30
0.0
  0
VERTEX
  5
753
  8
0
  6
CONTINUOUS
 62
     7
 10
14.45463069116617
 20
125.7993959773458
 30
0.0
  0
VERTEX
  5
754
  8
0
  6
CONTINUOUS
 62
     7
 10
14.45393738882841
 20
125.7787796401866
 30
0.0
  0
VERTEX
  5
755
  8
0
  6
CONTINUOUS
 62
     7
 10
14.45321852146624
 20
125.7580331887091
 30
0.0
  0
VERTEX
  5
756
  8
0
  6
CONTINUOUS
 62
     7
 10
14.45247868051881
 20
125.7371718191454
 30
0.0
  0
VERTEX
  5
757
  8
0
  6
CONTINUOUS
 62
     7
 10
14.45172245742528
 20
125.7162107277272
 30
0.0
  0
VERTEX
  5
758
  8
0
  6
CONTINUOUS
 62
     7
 10
14.4509544436248
 20
125.6951651106864
 30
0.0
  0
VERTEX
  5
759
  8
0
  6
CONTINUOUS
 62
     7
 10
14.45017923055655
 20
125.6740501642551
 30
0.0
  0
VERTEX
  5
75A
  8
0
  6
CONTINUOUS
 62
     7
 10
14.44940140965969
 20
125.652881084665
 30
0.0
  0
VERTEX
  5
75B
  8
0
  6
CONTINUOUS
 62
     7
 10
14.44862557237336
 20
125.631673068148
 30
0.0
  0
VERTEX
  5
75C
  8
0
  6
CONTINUOUS
 62
     7
 10
14.44785631013673
 20
125.610441310936
 30
0.0
  0
VERTEX
  5
75D
  8
0
  6
CONTINUOUS
 62
     7
 10
14.44709821438896
 20
125.5892010092611
 30
0.0
  0
VERTEX
  5
75E
  8
0
  6
CONTINUOUS
 62
     7
 10
14.44635587656922
 20
125.5679673593549
 30
0.0
  0
VERTEX
  5
75F
  8
0
  6
CONTINUOUS
 62
     7
 10
14.44563388811665
 20
125.5467555574494
 30
0.0
  0
VERTEX
  5
760
  8
0
  6
CONTINUOUS
 62
     7
 10
14.44493684047043
 20
125.5255807997766
 30
0.0
  0
VERTEX
  5
761
  8
0
  6
CONTINUOUS
 62
     7
 10
14.4442693250697
 20
125.5044582825683
 30
0.0
  0
VERTEX
  5
762
  8
0
  6
CONTINUOUS
 62
     7
 10
14.44363537266174
 20
125.4834014434233
 30
0.0
  0
VERTEX
  5
763
  8
0
  6
CONTINUOUS
 62
     7
 10
14.44303529754365
 20
125.462412063143
 30
0.0
  0
VERTEX
  5
764
  8
0
  6
CONTINUOUS
 62
     7
 10
14.44246790197501
 20
125.441487179961
 30
0.0
  0
VERTEX
  5
765
  8
0
  6
CONTINUOUS
 62
     7
 10
14.44193198382043
 20
125.4206238183263
 30
0.0
  0
VERTEX
  5
766
  8
0
  6
CONTINUOUS
 62
     7
 10
14.44142634094457
 20
125.3998190026877
 30
0.0
  0
VERTEX
  5
767
  8
0
  6
CONTINUOUS
 62
     7
 10
14.44094977121204
 20
125.3790697574941
 30
0.0
  0
VERTEX
  5
768
  8
0
  6
CONTINUOUS
 62
     7
 10
14.44050107248747
 20
125.3583731071942
 30
0.0
  0
VERTEX
  5
769
  8
0
  6
CONTINUOUS
 62
     7
 10
14.44007904263549
 20
125.3377260762371
 30
0.0
  0
VERTEX
  5
76A
  8
0
  6
CONTINUOUS
 62
     7
 10
14.43968247952074
 20
125.3171256890714
 30
0.0
  0
VERTEX
  5
76B
  8
0
  6
CONTINUOUS
 62
     7
 10
14.43931018100784
 20
125.2965689701462
 30
0.0
  0
VERTEX
  5
76C
  8
0
  6
CONTINUOUS
 62
     7
 10
14.43896094496142
 20
125.2760529439102
 30
0.0
  0
VERTEX
  5
76D
  8
0
  6
CONTINUOUS
 62
     7
 10
14.43863356924611
 20
125.2555746348123
 30
0.0
  0
VERTEX
  5
76E
  8
0
  6
CONTINUOUS
 62
     7
 10
14.43832685172655
 20
125.2351310673014
 30
0.0
  0
VERTEX
  5
76F
  8
0
  6
CONTINUOUS
 62
     7
 10
14.43803959026735
 20
125.2147192658263
 30
0.0
  0
VERTEX
  5
770
  8
0
  6
CONTINUOUS
 62
     7
 10
14.43777058273316
 20
125.1943362548358
 30
0.0
  0
VERTEX
  5
771
  8
0
  6
CONTINUOUS
 62
     7
 10
14.4375186269886
 20
125.1739790587789
 30
0.0
  0
VERTEX
  5
772
  8
0
  6
CONTINUOUS
 62
     7
 10
14.43728252089829
 20
125.1536447021043
 30
0.0
  0
VERTEX
  5
773
  8
0
  6
CONTINUOUS
 62
     7
 10
14.43706106232688
 20
125.1333302092611
 30
0.0
  0
VERTEX
  5
774
  8
0
  6
CONTINUOUS
 62
     7
 10
14.43685304913898
 20
125.1130326046978
 30
0.0
  0
VERTEX
  5
775
  8
0
  6
CONTINUOUS
 62
     7
 10
14.43665727919924
 20
125.0927489128636
 30
0.0
  0
VERTEX
  5
776
  8
0
  6
CONTINUOUS
 62
     7
 10
14.43647255037227
 20
125.0724761582072
 30
0.0
  0
VERTEX
  5
777
  8
0
  6
CONTINUOUS
 62
     7
 10
14.43629766052271
 20
125.0522113651775
 30
0.0
  0
VERTEX
  5
778
  8
0
  6
CONTINUOUS
 62
     7
 10
14.43613140751519
 20
125.0319515582232
 30
0.0
  0
VERTEX
  5
779
  8
0
  6
CONTINUOUS
 62
     7
 10
14.43597258921433
 20
125.0116937617934
 30
0.0
  0
VERTEX
  5
77A
  8
0
  6
CONTINUOUS
 62
     7
 10
14.43582000348477
 20
124.9914350003368
 30
0.0
  0
VERTEX
  5
77B
  8
0
  6
CONTINUOUS
 62
     7
 10
14.43567244819114
 20
124.9711722983023
 30
0.0
  0
VERTEX
  5
77C
  8
0
  6
CONTINUOUS
 62
     7
 10
14.43552872119806
 20
124.9509026801387
 30
0.0
  0
VERTEX
  5
77D
  8
0
  6
CONTINUOUS
 62
     7
 10
14.43538762037018
 20
124.930623170295
 30
0.0
  0
VERTEX
  5
77E
  8
0
  6
CONTINUOUS
 62
     7
 10
14.4352479435721
 20
124.9103307932199
 30
0.0
  0
VERTEX
  5
77F
  8
0
  6
CONTINUOUS
 62
     7
 10
14.43510856292887
 20
124.8900227482066
 30
0.0
  0
VERTEX
  5
780
  8
0
  6
CONTINUOUS
 62
     7
 10
14.43496920668623
 20
124.8696982502627
 30
0.0
  0
VERTEX
  5
781
  8
0
  6
CONTINUOUS
 62
     7
 10
14.43483015204664
 20
124.8493578069007
 30
0.0
  0
VERTEX
  5
782
  8
0
  6
CONTINUOUS
 62
     7
 10
14.4346916852112
 20
124.8290019468199
 30
0.0
  0
VERTEX
  5
783
  8
0
  6
CONTINUOUS
 62
     7
 10
14.43455409238099
 20
124.8086311987199
 30
0.0
  0
VERTEX
  5
784
  8
0
  6
CONTINUOUS
 62
     7
 10
14.43441765975712
 20
124.7882460913
 30
0.0
  0
VERTEX
  5
785
  8
0
  6
CONTINUOUS
 62
     7
 10
14.43428267354069
 20
124.7678471532597
 30
0.0
  0
VERTEX
  5
786
  8
0
  6
CONTINUOUS
 62
     7
 10
14.4341494199328
 20
124.7474349132984
 30
0.0
  0
VERTEX
  5
787
  8
0
  6
CONTINUOUS
 62
     7
 10
14.43401818513454
 20
124.7270099001158
 30
0.0
  0
VERTEX
  5
788
  8
0
  6
CONTINUOUS
 62
     7
 10
14.43388925534702
 20
124.7065726424111
 30
0.0
  0
VERTEX
  5
789
  8
0
  6
CONTINUOUS
 62
     7
 10
14.43376291677133
 20
124.6861236688838
 30
0.0
  0
VERTEX
  5
78A
  8
0
  6
CONTINUOUS
 62
     7
 10
14.43363945560856
 20
124.6656635082334
 30
0.0
  0
VERTEX
  5
78B
  8
0
  6
CONTINUOUS
 62
     7
 10
14.43351915805983
 20
124.6451926891593
 30
0.0
  0
VERTEX
  5
78C
  8
0
  6
CONTINUOUS
 62
     7
 10
14.43340231032621
 20
124.624711740361
 30
0.0
  0
VERTEX
  5
78D
  8
0
  6
CONTINUOUS
 62
     7
 10
14.43328919860883
 20
124.604221190538
 30
0.0
  0
VERTEX
  5
78E
  8
0
  6
CONTINUOUS
 62
     7
 10
14.43318010910876
 20
124.5837215683896
 30
0.0
  0
VERTEX
  5
78F
  8
0
  6
CONTINUOUS
 62
     7
 10
14.43307532802711
 20
124.5632134026154
 30
0.0
  0
VERTEX
  5
790
  8
0
  6
CONTINUOUS
 62
     7
 10
14.43297514156498
 20
124.5426972219148
 30
0.0
  0
VERTEX
  5
791
  8
0
  6
CONTINUOUS
 62
     7
 10
14.43287983592347
 20
124.5221735549872
 30
0.0
  0
VERTEX
  5
792
  8
0
  6
CONTINUOUS
 62
     7
 10
14.43278969730367
 20
124.5016429305322
 30
0.0
  0
VERTEX
  5
793
  8
0
  6
CONTINUOUS
 62
     7
 10
14.43270501190668
 20
124.481105877249
 30
0.0
  0
VERTEX
  5
794
  8
0
  6
CONTINUOUS
 62
     7
 10
14.4326260659336
 20
124.4605629238373
 30
0.0
  0
VERTEX
  5
795
  8
0
  6
CONTINUOUS
 62
     7
 10
14.43255314558554
 20
124.4400145989964
 30
0.0
  0
VERTEX
  5
796
  8
0
  6
CONTINUOUS
 62
     7
 10
14.43248653706357
 20
124.4194614314258
 30
0.0
  0
VERTEX
  5
797
  8
0
  6
CONTINUOUS
 62
     7
 10
14.43242652656882
 20
124.398903949825
 30
0.0
  0
VERTEX
  5
798
  8
0
  6
CONTINUOUS
 62
     7
 10
14.43237340030237
 20
124.3783426828934
 30
0.0
  0
VERTEX
  5
799
  8
0
  6
CONTINUOUS
 62
     7
 10
14.43232744446532
 20
124.3577781593305
 30
0.0
  0
VERTEX
  5
79A
  8
0
  6
CONTINUOUS
 62
     7
 10
14.43228894525876
 20
124.3372109078357
 30
0.0
  0
VERTEX
  5
79B
  8
0
  6
CONTINUOUS
 62
     7
 10
14.43225818888381
 20
124.3166414571084
 30
0.0
  0
VERTEX
  5
79C
  8
0
  6
CONTINUOUS
 62
     7
 10
14.43223546154155
 20
124.2960703358481
 30
0.0
  0
VERTEX
  5
79D
  8
0
  6
CONTINUOUS
 62
     7
 10
14.43222104943308
 20
124.2754980727543
 30
0.0
  0
VERTEX
  5
79E
  8
0
  6
CONTINUOUS
 62
     7
 10
14.43221523875951
 20
124.2549251965265
 30
0.0
  0
VERTEX
  5
79F
  8
0
  6
CONTINUOUS
 62
     7
 10
14.4322182591878
 20
124.2343522358599
 30
0.0
  0
VERTEX
  5
7A0
  8
0
  6
CONTINUOUS
 62
     7
 10
14.43222997219113
 20
124.2137797194231
 30
0.0
  0
VERTEX
  5
7A1
  8
0
  6
CONTINUOUS
 62
     7
 10
14.43225009181557
 20
124.193208175874
 30
0.0
  0
VERTEX
  5
7A2
  8
0
  6
CONTINUOUS
 62
     7
 10
14.43227833171544
 20
124.1726381338703
 30
0.0
  0
VERTEX
  5
7A3
  8
0
  6
CONTINUOUS
 62
     7
 10
14.43231440554507
 20
124.1520701220697
 30
0.0
  0
VERTEX
  5
7A4
  8
0
  6
CONTINUOUS
 62
     7
 10
14.43235802695879
 20
124.1315046691303
 30
0.0
  0
VERTEX
  5
7A5
  8
0
  6
CONTINUOUS
 62
     7
 10
14.43240890961092
 20
124.1109423037096
 30
0.0
  0
VERTEX
  5
7A6
  8
0
  6
CONTINUOUS
 62
     7
 10
14.43246676715579
 20
124.0903835544655
 30
0.0
  0
VERTEX
  5
7A7
  8
0
  6
CONTINUOUS
 62
     7
 10
14.43253131324773
 20
124.0698289500559
 30
0.0
  0
VERTEX
  5
7A8
  8
0
  6
CONTINUOUS
 62
     7
 10
14.43260226154106
 20
124.0492790191384
 30
0.0
  0
VERTEX
  5
7A9
  8
0
  6
CONTINUOUS
 62
     7
 10
14.43267932569011
 20
124.028734290371
 30
0.0
  0
VERTEX
  5
7AA
  8
0
  6
CONTINUOUS
 62
     7
 10
14.43276221934921
 20
124.0081952924113
 30
0.0
  0
VERTEX
  5
7AB
  8
0
  6
CONTINUOUS
 62
     7
 10
14.43285065617267
 20
123.9876625539172
 30
0.0
  0
VERTEX
  5
7AC
  8
0
  6
CONTINUOUS
 62
     7
 10
14.43294434981484
 20
123.9671366035465
 30
0.0
  0
VERTEX
  5
7AD
  8
0
  6
CONTINUOUS
 62
     7
 10
14.43304301393003
 20
123.946617969957
 30
0.0
  0
VERTEX
  5
7AE
  8
0
  6
CONTINUOUS
 62
     7
 10
14.43314636217257
 20
123.9261071818064
 30
0.0
  0
VERTEX
  5
7AF
  8
0
  6
CONTINUOUS
 62
     7
 10
14.43325410819679
 20
123.9056047677526
 30
0.0
  0
VERTEX
  5
7B0
  8
0
  6
CONTINUOUS
 62
     7
 10
14.43336596565701
 20
123.8851112564534
 30
0.0
  0
VERTEX
  5
7B1
  8
0
  6
CONTINUOUS
 62
     7
 10
14.43348164820757
 20
123.8646271765665
 30
0.0
  0
VERTEX
  5
7B2
  8
0
  6
CONTINUOUS
 62
     7
 10
14.43360086950278
 20
123.8441530567498
 30
0.0
  0
VERTEX
  5
7B3
  8
0
  6
CONTINUOUS
 62
     7
 10
14.43372334319698
 20
123.8236894256609
 30
0.0
  0
VERTEX
  5
7B4
  8
0
  6
CONTINUOUS
 62
     7
 10
14.43384878294448
 20
123.8032368119579
 30
0.0
  0
VERTEX
  5
7B5
  8
0
  6
CONTINUOUS
 62
     7
 10
14.43397690239963
 20
123.7827957442984
 30
0.0
  0
VERTEX
  5
7B6
  8
0
  6
CONTINUOUS
 62
     7
 10
14.43410741521673
 20
123.7623667513402
 30
0.0
  0
VERTEX
  5
7B7
  8
0
  6
CONTINUOUS
 62
     7
 10
14.43424003505013
 20
123.7419503617411
 30
0.0
  0
VERTEX
  5
7B8
  8
0
  6
CONTINUOUS
 62
     7
 10
14.43437447555414
 20
123.721547104159
 30
0.0
  0
VERTEX
  5
7B9
  8
0
  6
CONTINUOUS
 62
     7
 10
14.43451045038309
 20
123.7011575072516
 30
0.0
  0
VERTEX
  5
7BA
  8
0
  6
CONTINUOUS
 62
     7
 10
14.43464767319131
 20
123.6807820996766
 30
0.0
  0
VERTEX
  5
7BB
  8
0
  6
CONTINUOUS
 62
     7
 10
14.43478585763313
 20
123.660421410092
 30
0.0
  0
VERTEX
  5
7BC
  8
0
  6
CONTINUOUS
 62
     7
 10
14.43492471736287
 20
123.6400759671555
 30
0.0
  0
VERTEX
  5
7BD
  8
0
  6
CONTINUOUS
 62
     7
 10
14.43506396603485
 20
123.6197462995249
 30
0.0
  0
VERTEX
  5
7BE
  8
0
  6
CONTINUOUS
 62
     7
 10
14.43520331730373
 20
123.5994329358572
 30
0.0
  0
VERTEX
  5
7BF
  8
0
  6
CONTINUOUS
 62
     7
 10
14.43534274116528
 20
123.5791358016822
 30
0.0
  0
VERTEX
  5
7C0
  8
0
  6
CONTINUOUS
 62
     7
 10
14.43548320030852
 20
123.5588524868899
 30
0.0
  0
VERTEX
  5
7C1
  8
0
  6
CONTINUOUS
 62
     7
 10
14.43562589768656
 20
123.5385800160699
 30
0.0
  0
VERTEX
  5
7C2
  8
0
  6
CONTINUOUS
 62
     7
 10
14.43577203625251
 20
123.5183154138114
 30
0.0
  0
VERTEX
  5
7C3
  8
0
  6
CONTINUOUS
 62
     7
 10
14.43592281895948
 20
123.4980557047039
 30
0.0
  0
VERTEX
  5
7C4
  8
0
  6
CONTINUOUS
 62
     7
 10
14.43607944876058
 20
123.4777979133368
 30
0.0
  0
VERTEX
  5
7C5
  8
0
  6
CONTINUOUS
 62
     7
 10
14.43624312860891
 20
123.4575390642996
 30
0.0
  0
VERTEX
  5
7C6
  8
0
  6
CONTINUOUS
 62
     7
 10
14.43641506145758
 20
123.4372761821814
 30
0.0
  0
VERTEX
  5
7C7
  8
0
  6
CONTINUOUS
 62
     7
 10
14.43659645025971
 20
123.4170062915719
 30
0.0
  0
VERTEX
  5
7C8
  8
0
  6
CONTINUOUS
 62
     7
 10
14.43678849796841
 20
123.3967264170603
 30
0.0
  0
VERTEX
  5
7C9
  8
0
  6
CONTINUOUS
 62
     7
 10
14.43699240753677
 20
123.3764335832361
 30
0.0
  0
VERTEX
  5
7CA
  8
0
  6
CONTINUOUS
 62
     7
 10
14.4372093819179
 20
123.3561248146886
 30
0.0
  0
VERTEX
  5
7CB
  8
0
  6
CONTINUOUS
 62
     7
 10
14.43744062406493
 20
123.3357971360073
 30
0.0
  0
VERTEX
  5
7CC
  8
0
  6
CONTINUOUS
 62
     7
 10
14.43768733693095
 20
123.3154475717815
 30
0.0
  0
VERTEX
  5
7CD
  8
0
  6
CONTINUOUS
 62
     7
 10
14.43795072346908
 20
123.2950731466007
 30
0.0
  0
VERTEX
  5
7CE
  8
0
  6
CONTINUOUS
 62
     7
 10
14.43823198663242
 20
123.2746708850542
 30
0.0
  0
VERTEX
  5
7CF
  8
0
  6
CONTINUOUS
 62
     7
 10
14.43853232937409
 20
123.2542378117314
 30
0.0
  0
VERTEX
  5
7D0
  8
0
  6
CONTINUOUS
 62
     7
 10
14.43885295464719
 20
123.2337709512217
 30
0.0
  0
VERTEX
  5
7D1
  8
0
  6
CONTINUOUS
 62
     7
 10
14.43919506540482
 20
123.2132673281146
 30
0.0
  0
VERTEX
  5
7D2
  8
0
  6
CONTINUOUS
 62
     7
 10
14.43955986460011
 20
123.1927239669994
 30
0.0
  0
VERTEX
  5
7D3
  8
0
  6
CONTINUOUS
 62
     7
 10
14.43994855518615
 20
123.1721378924654
 30
0.0
  0
VERTEX
  5
7D4
  8
0
  6
CONTINUOUS
 62
     7
 10
14.44036234011605
 20
123.1515061291022
 30
0.0
  0
VERTEX
  5
7D5
  8
0
  6
CONTINUOUS
 62
     7
 10
14.44080242234294
 20
123.1308257014991
 30
0.0
  0
VERTEX
  5
7D6
  8
0
  6
CONTINUOUS
 62
     7
 10
14.4412700048199
 20
123.1100936342454
 30
0.0
  0
VERTEX
  5
7D7
  8
0
  6
CONTINUOUS
 62
     7
 10
14.44176629050006
 20
123.0893069519306
 30
0.0
  0
VERTEX
  5
7D8
  8
0
  6
CONTINUOUS
 62
     7
 10
14.44229248233652
 20
123.0684626791442
 30
0.0
  0
VERTEX
  5
7D9
  8
0
  6
CONTINUOUS
 62
     7
 10
14.44284978328238
 20
123.0475578404753
 30
0.0
  0
VERTEX
  5
7DA
  8
0
  6
CONTINUOUS
 62
     7
 10
14.44343939629077
 20
123.0265894605136
 30
0.0
  0
VERTEX
  5
7DB
  8
0
  6
CONTINUOUS
 62
     7
 10
14.44406252431478
 20
123.0055545638483
 30
0.0
  0
VERTEX
  5
7DC
  8
0
  6
CONTINUOUS
 62
     7
 10
14.44471978621259
 20
122.9844520054497
 30
0.0
  0
VERTEX
  5
7DD
  8
0
  6
CONTINUOUS
 62
     7
 10
14.44540806288699
 20
122.9632923539355
 30
0.0
  0
VERTEX
  5
7DE
  8
0
  6
CONTINUOUS
 62
     7
 10
14.44612276230272
 20
122.9420907936759
 30
0.0
  0
VERTEX
  5
7DF
  8
0
  6
CONTINUOUS
 62
     7
 10
14.4468592888592
 20
122.9208625202135
 30
0.0
  0
VERTEX
  5
7E0
  8
0
  6
CONTINUOUS
 62
     7
 10
14.44761304695587
 20
122.8996227290911
 30
0.0
  0
VERTEX
  5
7E1
  8
0
  6
CONTINUOUS
 62
     7
 10
14.44837944099217
 20
122.8783866158515
 30
0.0
  0
VERTEX
  5
7E2
  8
0
  6
CONTINUOUS
 62
     7
 10
14.44915387536753
 20
122.8571693760374
 30
0.0
  0
VERTEX
  5
7E3
  8
0
  6
CONTINUOUS
 62
     7
 10
14.44993175448139
 20
122.8359862051914
 30
0.0
  0
VERTEX
  5
7E4
  8
0
  6
CONTINUOUS
 62
     7
 10
14.45070848273317
 20
122.8148522988564
 30
0.0
  0
VERTEX
  5
7E5
  8
0
  6
CONTINUOUS
 62
     7
 10
14.45147946452232
 20
122.7937828525751
 30
0.0
  0
VERTEX
  5
7E6
  8
0
  6
CONTINUOUS
 62
     7
 10
14.45224010424827
 20
122.7727930618903
 30
0.0
  0
VERTEX
  5
7E7
  8
0
  6
CONTINUOUS
 62
     7
 10
14.45298580631046
 20
122.7518981223446
 30
0.0
  0
VERTEX
  5
7E8
  8
0
  6
CONTINUOUS
 62
     7
 10
14.45371197510832
 20
122.7311132294809
 30
0.0
  0
VERTEX
  5
7E9
  8
0
  6
CONTINUOUS
 62
     7
 10
14.45441401504129
 20
122.7104535788418
 30
0.0
  0
VERTEX
  5
7EA
  8
0
  6
CONTINUOUS
 62
     7
 10
14.4550873305088
 20
122.6899343659701
 30
0.0
  0
VERTEX
  5
7EB
  8
0
  6
CONTINUOUS
 62
     7
 10
14.45572732591027
 20
122.6695707864085
 30
0.0
  0
VERTEX
  5
7EC
  8
0
  6
CONTINUOUS
 62
     7
 10
14.45632940564516
 20
122.6493780356998
 30
0.0
  0
VERTEX
  5
7ED
  8
0
  6
CONTINUOUS
 62
     7
 10
14.4568889741129
 20
122.6293713093867
 30
0.0
  0
VERTEX
  5
7EE
  8
0
  6
CONTINUOUS
 62
     7
 10
14.45740143571292
 20
122.609565803012
 30
0.0
  0
VERTEX
  5
7EF
  8
0
  6
CONTINUOUS
 62
     7
 10
14.45786219484465
 20
122.5899767121183
 30
0.0
  0
VERTEX
  5
7F0
  8
0
  6
CONTINUOUS
 62
     7
 10
14.45826665590754
 20
122.5706192322485
 30
0.0
  0
VERTEX
  5
7F1
  8
0
  6
CONTINUOUS
 62
     7
 10
14.458610223301
 20
122.5515085589452
 30
0.0
  0
VERTEX
  5
7F2
  8
0
  6
CONTINUOUS
 62
     7
 10
14.45888830142449
 20
122.5326598877512
 30
0.0
  0
VERTEX
  5
7F3
  8
0
  6
CONTINUOUS
 62
     7
 10
14.45909629467889
 20
122.5140884142056
 30
0.0
  0
VERTEX
  5
7F4
  8
0
  6
CONTINUOUS
 62
     7
 10
14.45923741581653
 20
122.4957892474897
 30
0.0
  0
VERTEX
  5
7F5
  8
0
  6
CONTINUOUS
 62
     7
 10
14.45934557795233
 20
122.4776785225659
 30
0.0
  0
VERTEX
  5
7F6
  8
0
  6
CONTINUOUS
 62
     7
 10
14.45946223829752
 20
122.4596529678139
 30
0.0
  0
VERTEX
  5
7F7
  8
0
  6
CONTINUOUS
 62
     7
 10
14.45962885406337
 20
122.4416093116137
 30
0.0
  0
VERTEX
  5
7F8
  8
0
  6
CONTINUOUS
 62
     7
 10
14.45988688246112
 20
122.4234442823449
 30
0.0
  0
VERTEX
  5
7F9
  8
0
  6
CONTINUOUS
 62
     7
 10
14.46027778070202
 20
122.4050546083876
 30
0.0
  0
VERTEX
  5
7FA
  8
0
  6
CONTINUOUS
 62
     7
 10
14.46084300599733
 20
122.3863370181213
 30
0.0
  0
VERTEX
  5
7FB
  8
0
  6
CONTINUOUS
 62
     7
 10
14.4616240155583
 20
122.367188239926
 30
0.0
  0
VERTEX
  5
7FC
  8
0
  6
CONTINUOUS
 62
     7
 10
14.46266226659619
 20
122.3475050021815
 30
0.0
  0
VERTEX
  5
7FD
  8
0
  6
CONTINUOUS
 62
     7
 10
14.46399921632224
 20
122.3271840332675
 30
0.0
  0
VERTEX
  5
7FE
  8
0
  6
CONTINUOUS
 62
     7
 10
14.4656763219477
 20
122.3061220615639
 30
0.0
  0
VERTEX
  5
7FF
  8
0
  6
CONTINUOUS
 62
     7
 10
14.46773504068385
 20
122.2842158154505
 30
0.0
  0
VERTEX
  5
800
  8
0
  6
CONTINUOUS
 62
     7
 10
14.4702168297419
 20
122.2613620233071
 30
0.0
  0
VERTEX
  5
801
  8
0
  6
CONTINUOUS
 62
     7
 10
14.47316314633314
 20
122.2374574135136
 30
0.0
  0
VERTEX
  5
802
  8
0
  6
CONTINUOUS
 62
     7
 10
14.47661544766879
 20
122.2123987144496
 30
0.0
  0
VERTEX
  5
803
  8
0
  6
CONTINUOUS
 62
     7
 10
14.48061509498114
 20
122.186083823121
 30
0.0
  0
VERTEX
  5
804
  8
0
  6
CONTINUOUS
 62
     7
 10
14.48515607942316
 20
122.1589874074926
 30
0.0
  0
VERTEX
  5
805
  8
0
  6
CONTINUOUS
 62
     7
 10
14.49010865105442
 20
122.1330907884702
 30
0.0
  0
VERTEX
  5
806
  8
0
  6
CONTINUOUS
 62
     7
 10
14.4953231063237
 20
122.1106182391222
 30
0.0
  0
VERTEX
  5
807
  8
0
  6
CONTINUOUS
 62
     7
 10
14.50064974167981
 20
122.0937940325171
 30
0.0
  0
VERTEX
  5
808
  8
0
  6
CONTINUOUS
 62
     7
 10
14.50593885357155
 20
122.0848424417234
 30
0.0
  0
VERTEX
  5
809
  8
0
  6
CONTINUOUS
 62
     7
 10
14.51105168759776
 20
122.0856165028424
 30
0.0
  0
VERTEX
  5
80A
  8
0
  6
CONTINUOUS
 62
     7
 10
14.51592573263179
 20
122.0953841817249
 30
0.0
  0
VERTEX
  5
80B
  8
0
  6
CONTINUOUS
 62
     7
 10
14.52053090171911
 20
122.1123140847943
 30
0.0
  0
VERTEX
  5
80C
  8
0
  6
CONTINUOUS
 62
     7
 10
14.52483722690969
 20
122.1345707835598
 30
0.0
  0
VERTEX
  5
80D
  8
0
  6
CONTINUOUS
 62
     7
 10
14.52881474025352
 20
122.1603188495303
 30
0.0
  0
VERTEX
  5
80E
  8
0
  6
CONTINUOUS
 62
     7
 10
14.53243347380059
 20
122.1877228542148
 30
0.0
  0
VERTEX
  5
80F
  8
0
  6
CONTINUOUS
 62
     7
 10
14.53566345960089
 20
122.2149473691223
 30
0.0
  0
VERTEX
  5
810
  8
0
  6
CONTINUOUS
 62
     7
 10
14.53847472970441
 20
122.240156965762
 30
0.0
  0
VERTEX
  5
811
  8
0
  6
CONTINUOUS
 62
     7
 10
14.54083719256188
 20
122.2617132455869
 30
0.0
  0
SEQEND
  5
9F4
  8
0
  6
CONTINUOUS
 62
     7
  0
POLYLINE
  5
65E
  8
0
  6
CONTINUOUS
 62
     7
 66
     1
 10
0.0
 20
0.0
 30
0.0
 70
     1
  0
VERTEX
  5
812
  8
0
  6
CONTINUOUS
 62
     7
 10
44.53670504901913
 20
126.2212465521246
 30
0.0
  0
VERTEX
  5
813
  8
0
  6
CONTINUOUS
 62
     7
 10
44.53536282997825
 20
126.2008068400354
 30
0.0
  0
VERTEX
  5
814
  8
0
  6
CONTINUOUS
 62
     7
 10
44.53456584743948
 20
126.180338241556
 30
0.0
  0
VERTEX
  5
815
  8
0
  6
CONTINUOUS
 62
     7
 10
44.53412221909735
 20
126.1598592501366
 30
0.0
  0
VERTEX
  5
816
  8
0
  6
CONTINUOUS
 62
     7
 10
44.53386277117826
 20
126.1393768747456
 30
0.0
  0
VERTEX
  5
817
  8
0
  6
CONTINUOUS
 62
     7
 10
44.53360739177062
 20
126.1188945689176
 30
0.0
  0
VERTEX
  5
818
  8
0
  6
CONTINUOUS
 62
     7
 10
44.53328738690875
 20
126.098413117549
 30
0.0
  0
VERTEX
  5
819
  8
0
  6
CONTINUOUS
 62
     7
 10
44.53291657088084
 20
126.0779324097979
 30
0.0
  0
VERTEX
  5
81A
  8
0
  6
CONTINUOUS
 62
     7
 10
44.53251096869333
 20
126.0574523129433
 30
0.0
  0
VERTEX
  5
81B
  8
0
  6
CONTINUOUS
 62
     7
 10
44.53208659131655
 20
126.0369726592599
 30
0.0
  0
VERTEX
  5
81C
  8
0
  6
CONTINUOUS
 62
     7
 10
44.53165939328052
 20
126.0164931402664
 30
0.0
  0
VERTEX
  5
81D
  8
0
  6
CONTINUOUS
 62
     7
 10
44.53124531493077
 20
125.9960134121072
 30
0.0
  0
VERTEX
  5
81E
  8
0
  6
CONTINUOUS
 62
     7
 10
44.53086008823662
 20
125.9755331357972
 30
0.0
  0
VERTEX
  5
81F
  8
0
  6
CONTINUOUS
 62
     7
 10
44.5305112420256
 20
125.9550521640986
 30
0.0
  0
VERTEX
  5
820
  8
0
  6
CONTINUOUS
 62
     7
 10
44.5301955892642
 20
125.9345706002552
 30
0.0
  0
VERTEX
  5
821
  8
0
  6
CONTINUOUS
 62
     7
 10
44.5299092207239
 20
125.9140885643919
 30
0.0
  0
VERTEX
  5
822
  8
0
  6
CONTINUOUS
 62
     7
 10
44.5296482271762
 20
125.8936061766336
 30
0.0
  0
VERTEX
  5
823
  8
0
  6
CONTINUOUS
 62
     7
 10
44.52940869866336
 20
125.873123555144
 30
0.0
  0
VERTEX
  5
824
  8
0
  6
CONTINUOUS
 62
     7
 10
44.52918670959277
 20
125.8526407760362
 30
0.0
  0
VERTEX
  5
825
  8
0
  6
CONTINUOUS
 62
     7
 10
44.52897831934397
 20
125.8321578750055
 30
0.0
  0
VERTEX
  5
826
  8
0
  6
CONTINUOUS
 62
     7
 10
44.52877958668874
 20
125.8116748861125
 30
0.0
  0
VERTEX
  5
827
  8
0
  6
CONTINUOUS
 62
     7
 10
44.52858657039882
 20
125.7911918434176
 30
0.0
  0
VERTEX
  5
828
  8
0
  6
CONTINUOUS
 62
     7
 10
44.5283955158388
 20
125.7707087793966
 30
0.0
  0
VERTEX
  5
829
  8
0
  6
CONTINUOUS
 62
     7
 10
44.52820510514782
 20
125.750225705826
 30
0.0
  0
VERTEX
  5
82A
  8
0
  6
CONTINUOUS
 62
     7
 10
44.52801572976078
 20
125.7297426199632
 30
0.0
  0
VERTEX
  5
82B
  8
0
  6
CONTINUOUS
 62
     7
 10
44.52782781645049
 20
125.7092595187653
 30
0.0
  0
VERTEX
  5
82C
  8
0
  6
CONTINUOUS
 62
     7
 10
44.52764179198974
 20
125.6887763991896
 30
0.0
  0
VERTEX
  5
82D
  8
0
  6
CONTINUOUS
 62
     7
 10
44.52745808315132
 20
125.668293258193
 30
0.0
  0
VERTEX
  5
82E
  8
0
  6
CONTINUOUS
 62
     7
 10
44.5272771167057
 20
125.6478100927435
 30
0.0
  0
VERTEX
  5
82F
  8
0
  6
CONTINUOUS
 62
     7
 10
44.52709931939145
 20
125.6273268999569
 30
0.0
  0
VERTEX
  5
830
  8
0
  6
CONTINUOUS
 62
     7
 10
44.52692511792368
 20
125.6068436770585
 30
0.0
  0
VERTEX
  5
831
  8
0
  6
CONTINUOUS
 62
     7
 10
44.52675493901692
 20
125.5863604212757
 30
0.0
  0
VERTEX
  5
832
  8
0
  6
CONTINUOUS
 62
     7
 10
44.52658920938574
 20
125.5658771298358
 30
0.0
  0
VERTEX
  5
833
  8
0
  6
CONTINUOUS
 62
     7
 10
44.52642835574468
 20
125.5453937999663
 30
0.0
  0
VERTEX
  5
834
  8
0
  6
CONTINUOUS
 62
     7
 10
44.52627278141289
 20
125.5249104290974
 30
0.0
  0
VERTEX
  5
835
  8
0
  6
CONTINUOUS
 62
     7
 10
44.52612254003758
 20
125.5044270176862
 30
0.0
  0
VERTEX
  5
836
  8
0
  6
CONTINUOUS
 62
     7
 10
44.52597741628907
 20
125.4839435685189
 30
0.0
  0
VERTEX
  5
837
  8
0
  6
CONTINUOUS
 62
     7
 10
44.52583718793024
 20
125.4634600844412
 30
0.0
  0
VERTEX
  5
838
  8
0
  6
CONTINUOUS
 62
     7
 10
44.52570163272399
 20
125.442976568299
 30
0.0
  0
VERTEX
  5
839
  8
0
  6
CONTINUOUS
 62
     7
 10
44.52557052843319
 20
125.422493022938
 30
0.0
  0
VERTEX
  5
83A
  8
0
  6
CONTINUOUS
 62
     7
 10
44.52544365282074
 20
125.4020094512041
 30
0.0
  0
VERTEX
  5
83B
  8
0
  6
CONTINUOUS
 62
     7
 10
44.52532078363512
 20
125.3815258558894
 30
0.0
  0
VERTEX
  5
83C
  8
0
  6
CONTINUOUS
 62
     7
 10
44.52520169843231
 20
125.361042239068
 30
0.0
  0
VERTEX
  5
83D
  8
0
  6
CONTINUOUS
 62
     7
 10
44.52508617463116
 20
125.3405586023024
 30
0.0
  0
VERTEX
  5
83E
  8
0
  6
CONTINUOUS
 62
     7
 10
44.52497398964753
 20
125.3200749471442
 30
0.0
  0
VERTEX
  5
83F
  8
0
  6
CONTINUOUS
 62
     7
 10
44.52486492089732
 20
125.299591275145
 30
0.0
  0
VERTEX
  5
840
  8
0
  6
CONTINUOUS
 62
     7
 10
44.5247587457964
 20
125.2791075878562
 30
0.0
  0
VERTEX
  5
841
  8
0
  6
CONTINUOUS
 62
     7
 10
44.52465524176068
 20
125.2586238868296
 30
0.0
  0
VERTEX
  5
842
  8
0
  6
CONTINUOUS
 62
     7
 10
44.52455419652233
 20
125.2381401735561
 30
0.0
  0
VERTEX
  5
843
  8
0
  6
CONTINUOUS
 62
     7
 10
44.52445552131382
 20
125.2176564488043
 30
0.0
  0
VERTEX
  5
844
  8
0
  6
CONTINUOUS
 62
     7
 10
44.52435920877531
 20
125.197172712866
 30
0.0
  0
VERTEX
  5
845
  8
0
  6
CONTINUOUS
 62
     7
 10
44.5242652529837
 20
125.1766889660247
 30
0.0
  0
VERTEX
  5
846
  8
0
  6
CONTINUOUS
 62
     7
 10
44.52417364801587
 20
125.1562052085639
 30
0.0
  0
VERTEX
  5
847
  8
0
  6
CONTINUOUS
 62
     7
 10
44.52408438794868
 20
125.1357214407671
 30
0.0
  0
VERTEX
  5
848
  8
0
  6
CONTINUOUS
 62
     7
 10
44.523997466859
 20
125.1152376629177
 30
0.0
  0
VERTEX
  5
849
  8
0
  6
CONTINUOUS
 62
     7
 10
44.52391287882372
 20
125.0947538752992
 30
0.0
  0
VERTEX
  5
84A
  8
0
  6
CONTINUOUS
 62
     7
 10
44.52383061792399
 20
125.0742700781954
 30
0.0
  0
VERTEX
  5
84B
  8
0
  6
CONTINUOUS
 62
     7
 10
44.523750678261
 20
125.0537862718905
 30
0.0
  0
VERTEX
  5
84C
  8
0
  6
CONTINUOUS
 62
     7
 10
44.52367305394183
 20
125.0333024566691
 30
0.0
  0
VERTEX
  5
84D
  8
0
  6
CONTINUOUS
 62
     7
 10
44.52359773907357
 20
125.0128186328159
 30
0.0
  0
VERTEX
  5
84E
  8
0
  6
CONTINUOUS
 62
     7
 10
44.5235247277633
 20
124.9923348006154
 30
0.0
  0
VERTEX
  5
84F
  8
0
  6
CONTINUOUS
 62
     7
 10
44.52345401411812
 20
124.9718509603522
 30
0.0
  0
VERTEX
  5
850
  8
0
  6
CONTINUOUS
 62
     7
 10
44.52338559224511
 20
124.9513671123108
 30
0.0
  0
VERTEX
  5
851
  8
0
  6
CONTINUOUS
 62
     7
 10
44.52331945621084
 20
124.930883256776
 30
0.0
  0
VERTEX
  5
852
  8
0
  6
CONTINUOUS
 62
     7
 10
44.52325559428721
 20
124.9103993940391
 30
0.0
  0
VERTEX
  5
853
  8
0
  6
CONTINUOUS
 62
     7
 10
44.52319398297674
 20
124.8899155244055
 30
0.0
  0
VERTEX
  5
854
  8
0
  6
CONTINUOUS
 62
     7
 10
44.5231345973548
 20
124.8694316481821
 30
0.0
  0
VERTEX
  5
855
  8
0
  6
CONTINUOUS
 62
     7
 10
44.52307741249683
 20
124.848947765676
 30
0.0
  0
VERTEX
  5
856
  8
0
  6
CONTINUOUS
 62
     7
 10
44.52302240347826
 20
124.8284638771941
 30
0.0
  0
VERTEX
  5
857
  8
0
  6
CONTINUOUS
 62
     7
 10
44.52296954537451
 20
124.8079799830434
 30
0.0
  0
VERTEX
  5
858
  8
0
  6
CONTINUOUS
 62
     7
 10
44.52291881326099
 20
124.787496083531
 30
0.0
  0
VERTEX
  5
859
  8
0
  6
CONTINUOUS
 62
     7
 10
44.52287018221315
 20
124.7670121789638
 30
0.0
  0
VERTEX
  5
85A
  8
0
  6
CONTINUOUS
 62
     7
 10
44.52282362730482
 20
124.7465282696356
 30
0.0
  0
VERTEX
  5
85B
  8
0
  6
CONTINUOUS
 62
     7
 10
44.5227791236038
 20
124.7260443557901
 30
0.0
  0
VERTEX
  5
85C
  8
0
  6
CONTINUOUS
 62
     7
 10
44.52273664617646
 20
124.7055604376587
 30
0.0
  0
VERTEX
  5
85D
  8
0
  6
CONTINUOUS
 62
     7
 10
44.52269617008916
 20
124.6850765154729
 30
0.0
  0
VERTEX
  5
85E
  8
0
  6
CONTINUOUS
 62
     7
 10
44.52265767040824
 20
124.6645925894642
 30
0.0
  0
VERTEX
  5
85F
  8
0
  6
CONTINUOUS
 62
     7
 10
44.52262112220006
 20
124.644108659864
 30
0.0
  0
VERTEX
  5
860
  8
0
  6
CONTINUOUS
 62
     7
 10
44.52258650053101
 20
124.6236247269039
 30
0.0
  0
VERTEX
  5
861
  8
0
  6
CONTINUOUS
 62
     7
 10
44.52255378046743
 20
124.6031407908153
 30
0.0
  0
VERTEX
  5
862
  8
0
  6
CONTINUOUS
 62
     7
 10
44.52252293896115
 20
124.5826568518246
 30
0.0
  0
VERTEX
  5
863
  8
0
  6
CONTINUOUS
 62
     7
 10
44.52249396715657
 20
124.5621729101194
 30
0.0
  0
VERTEX
  5
864
  8
0
  6
CONTINUOUS
 62
     7
 10
44.52246686266133
 20
124.5416889658699
 30
0.0
  0
VERTEX
  5
865
  8
0
  6
CONTINUOUS
 62
     7
 10
44.52244162311585
 20
124.5212050192462
 30
0.0
  0
VERTEX
  5
866
  8
0
  6
CONTINUOUS
 62
     7
 10
44.52241824616056
 20
124.5007210704181
 30
0.0
  0
VERTEX
  5
867
  8
0
  6
CONTINUOUS
 62
     7
 10
44.52239672943583
 20
124.4802371195558
 30
0.0
  0
VERTEX
  5
868
  8
0
  6
CONTINUOUS
 62
     7
 10
44.52237707058211
 20
124.4597531668292
 30
0.0
  0
VERTEX
  5
869
  8
0
  6
CONTINUOUS
 62
     7
 10
44.52235926723979
 20
124.4392692124083
 30
0.0
  0
VERTEX
  5
86A
  8
0
  6
CONTINUOUS
 62
     7
 10
44.52234331704929
 20
124.4187852564632
 30
0.0
  0
VERTEX
  5
86B
  8
0
  6
CONTINUOUS
 62
     7
 10
44.52232921765152
 20
124.3983012991624
 30
0.0
  0
VERTEX
  5
86C
  8
0
  6
CONTINUOUS
 62
     7
 10
44.52231696668813
 20
124.3778173406723
 30
0.0
  0
VERTEX
  5
86D
  8
0
  6
CONTINUOUS
 62
     7
 10
44.52230656180085
 20
124.3573333811588
 30
0.0
  0
VERTEX
  5
86E
  8
0
  6
CONTINUOUS
 62
     7
 10
44.52229800063141
 20
124.3368494207882
 30
0.0
  0
VERTEX
  5
86F
  8
0
  6
CONTINUOUS
 62
     7
 10
44.52229128082154
 20
124.3163654597266
 30
0.0
  0
VERTEX
  5
870
  8
0
  6
CONTINUOUS
 62
     7
 10
44.52228640001299
 20
124.2958814981399
 30
0.0
  0
VERTEX
  5
871
  8
0
  6
CONTINUOUS
 62
     7
 10
44.52228335584746
 20
124.2753975361944
 30
0.0
  0
VERTEX
  5
872
  8
0
  6
CONTINUOUS
 62
     7
 10
44.52228214596672
 20
124.2549135740561
 30
0.0
  0
VERTEX
  5
873
  8
0
  6
CONTINUOUS
 62
     7
 10
44.52228276847798
 20
124.2344296118912
 30
0.0
  0
VERTEX
  5
874
  8
0
  6
CONTINUOUS
 62
     7
 10
44.52228522452144
 20
124.2139456498657
 30
0.0
  0
VERTEX
  5
875
  8
0
  6
CONTINUOUS
 62
     7
 10
44.52228951645213
 20
124.1934616881458
 30
0.0
  0
VERTEX
  5
876
  8
0
  6
CONTINUOUS
 62
     7
 10
44.52229564662835
 20
124.1729777268976
 30
0.0
  0
VERTEX
  5
877
  8
0
  6
CONTINUOUS
 62
     7
 10
44.52230361740836
 20
124.1524937662874
 30
0.0
  0
VERTEX
  5
878
  8
0
  6
CONTINUOUS
 62
     7
 10
44.52231343115046
 20
124.1320098064811
 30
0.0
  0
VERTEX
  5
879
  8
0
  6
CONTINUOUS
 62
     7
 10
44.52232509021291
 20
124.111525847645
 30
0.0
  0
VERTEX
  5
87A
  8
0
  6
CONTINUOUS
 62
     7
 10
44.52233859695398
 20
124.0910418899452
 30
0.0
  0
VERTEX
  5
87B
  8
0
  6
CONTINUOUS
 62
     7
 10
44.52235395373198
 20
124.0705579335479
 30
0.0
  0
VERTEX
  5
87C
  8
0
  6
CONTINUOUS
 62
     7
 10
44.52237116290571
 20
124.0500739786207
 30
0.0
  0
VERTEX
  5
87D
  8
0
  6
CONTINUOUS
 62
     7
 10
44.52239022683469
 20
124.0295900253332
 30
0.0
  0
VERTEX
  5
87E
  8
0
  6
CONTINUOUS
 62
     7
 10
44.52241114787855
 20
124.0091060738555
 30
0.0
  0
VERTEX
  5
87F
  8
0
  6
CONTINUOUS
 62
     7
 10
44.52243392839687
 20
123.9886221243574
 30
0.0
  0
VERTEX
  5
880
  8
0
  6
CONTINUOUS
 62
     7
 10
44.52245857074927
 20
123.9681381770089
 30
0.0
  0
VERTEX
  5
881
  8
0
  6
CONTINUOUS
 62
     7
 10
44.52248507729531
 20
123.9476542319797
 30
0.0
  0
VERTEX
  5
882
  8
0
  6
CONTINUOUS
 62
     7
 10
44.52251345039461
 20
123.9271702894398
 30
0.0
  0
VERTEX
  5
883
  8
0
  6
CONTINUOUS
 62
     7
 10
44.52254369240679
 20
123.9066863495591
 30
0.0
  0
VERTEX
  5
884
  8
0
  6
CONTINUOUS
 62
     7
 10
44.52257580830103
 20
123.8862024125147
 30
0.0
  0
VERTEX
  5
885
  8
0
  6
CONTINUOUS
 62
     7
 10
44.52260981781549
 20
123.8657184785242
 30
0.0
  0
VERTEX
  5
886
  8
0
  6
CONTINUOUS
 62
     7
 10
44.52264574587812
 20
123.8452345478195
 30
0.0
  0
VERTEX
  5
887
  8
0
  6
CONTINUOUS
 62
     7
 10
44.52268361742259
 20
123.8247506206326
 30
0.0
  0
VERTEX
  5
888
  8
0
  6
CONTINUOUS
 62
     7
 10
44.52272345738256
 20
123.8042666971954
 30
0.0
  0
VERTEX
  5
889
  8
0
  6
CONTINUOUS
 62
     7
 10
44.52276529069169
 20
123.7837827777399
 30
0.0
  0
VERTEX
  5
88A
  8
0
  6
CONTINUOUS
 62
     7
 10
44.52280914228362
 20
123.763298862498
 30
0.0
  0
VERTEX
  5
88B
  8
0
  6
CONTINUOUS
 62
     7
 10
44.52285503709206
 20
123.7428149517017
 30
0.0
  0
VERTEX
  5
88C
  8
0
  6
CONTINUOUS
 62
     7
 10
44.52290300005018
 20
123.7223310455865
 30
0.0
  0
VERTEX
  5
88D
  8
0
  6
CONTINUOUS
 62
     7
 10
44.522953056086
 20
123.70184714443
 30
0.0
  0
VERTEX
  5
88E
  8
0
  6
CONTINUOUS
 62
     7
 10
44.52300523012416
 20
123.681363248537
 30
0.0
  0
VERTEX
  5
88F
  8
0
  6
CONTINUOUS
 62
     7
 10
44.52305954708926
 20
123.6608793582128
 30
0.0
  0
VERTEX
  5
890
  8
0
  6
CONTINUOUS
 62
     7
 10
44.52311603190584
 20
123.6403954737626
 30
0.0
  0
VERTEX
  5
891
  8
0
  6
CONTINUOUS
 62
     7
 10
44.52317470949852
 20
123.6199115954918
 30
0.0
  0
VERTEX
  5
892
  8
0
  6
CONTINUOUS
 62
     7
 10
44.52323560479189
 20
123.5994277237056
 30
0.0
  0
VERTEX
  5
893
  8
0
  6
CONTINUOUS
 62
     7
 10
44.52329874271048
 20
123.5789438587092
 30
0.0
  0
VERTEX
  5
894
  8
0
  6
CONTINUOUS
 62
     7
 10
44.52336414789799
 20
123.5584600008078
 30
0.0
  0
VERTEX
  5
895
  8
0
  6
CONTINUOUS
 62
     7
 10
44.52343183653647
 20
123.5379761503003
 30
0.0
  0
VERTEX
  5
896
  8
0
  6
CONTINUOUS
 62
     7
 10
44.52350181505896
 20
123.5174923074787
 30
0.0
  0
VERTEX
  5
897
  8
0
  6
CONTINUOUS
 62
     7
 10
44.52357408935848
 20
123.4970084726345
 30
0.0
  0
VERTEX
  5
898
  8
0
  6
CONTINUOUS
 62
     7
 10
44.52364866532805
 20
123.4765246460595
 30
0.0
  0
VERTEX
  5
899
  8
0
  6
CONTINUOUS
 62
     7
 10
44.52372554886066
 20
123.4560408280452
 30
0.0
  0
VERTEX
  5
89A
  8
0
  6
CONTINUOUS
 62
     7
 10
44.52380474584935
 20
123.4355570188831
 30
0.0
  0
VERTEX
  5
89B
  8
0
  6
CONTINUOUS
 62
     7
 10
44.5238862621871
 20
123.4150732188649
 30
0.0
  0
VERTEX
  5
89C
  8
0
  6
CONTINUOUS
 62
     7
 10
44.52397010376891
 20
123.3945894282798
 30
0.0
  0
VERTEX
  5
89D
  8
0
  6
CONTINUOUS
 62
     7
 10
44.52405627650784
 20
123.3741056473964
 30
0.0
  0
VERTEX
  5
89E
  8
0
  6
CONTINUOUS
 62
     7
 10
44.52414478632672
 20
123.3536218764719
 30
0.0
  0
VERTEX
  5
89F
  8
0
  6
CONTINUOUS
 62
     7
 10
44.52423563914851
 20
123.3331381157634
 30
0.0
  0
VERTEX
  5
8A0
  8
0
  6
CONTINUOUS
 62
     7
 10
44.52432884089609
 20
123.312654365528
 30
0.0
  0
VERTEX
  5
8A1
  8
0
  6
CONTINUOUS
 62
     7
 10
44.52442439749241
 20
123.292170626023
 30
0.0
  0
VERTEX
  5
8A2
  8
0
  6
CONTINUOUS
 62
     7
 10
44.52452231486041
 20
123.2716868975053
 30
0.0
  0
VERTEX
  5
8A3
  8
0
  6
CONTINUOUS
 62
     7
 10
44.5246225989233
 20
123.2512031802321
 30
0.0
  0
VERTEX
  5
8A4
  8
0
  6
CONTINUOUS
 62
     7
 10
44.52472529402396
 20
123.2307194747103
 30
0.0
  0
VERTEX
  5
8A5
  8
0
  6
CONTINUOUS
 62
     7
 10
44.52483058885315
 20
123.2102357823842
 30
0.0
  0
VERTEX
  5
8A6
  8
0
  6
CONTINUOUS
 62
     7
 10
44.52493870599615
 20
123.1897521049186
 30
0.0
  0
VERTEX
  5
8A7
  8
0
  6
CONTINUOUS
 62
     7
 10
44.52504986803825
 20
123.1692684439782
 30
0.0
  0
VERTEX
  5
8A8
  8
0
  6
CONTINUOUS
 62
     7
 10
44.52516429756466
 20
123.1487848012277
 30
0.0
  0
VERTEX
  5
8A9
  8
0
  6
CONTINUOUS
 62
     7
 10
44.52528221716069
 20
123.1283011783318
 30
0.0
  0
VERTEX
  5
8AA
  8
0
  6
CONTINUOUS
 62
     7
 10
44.52540384941157
 20
123.1078175769553
 30
0.0
  0
VERTEX
  5
8AB
  8
0
  6
CONTINUOUS
 62
     7
 10
44.52552941683465
 20
123.0873339989083
 30
0.0
  0
VERTEX
  5
8AC
  8
0
  6
CONTINUOUS
 62
     7
 10
44.52565914171346
 20
123.0668504465013
 30
0.0
  0
VERTEX
  5
8AD
  8
0
  6
CONTINUOUS
 62
     7
 10
44.52579324628132
 20
123.0463669221526
 30
0.0
  0
VERTEX
  5
8AE
  8
0
  6
CONTINUOUS
 62
     7
 10
44.52593195277152
 20
123.0258834282802
 30
0.0
  0
VERTEX
  5
8AF
  8
0
  6
CONTINUOUS
 62
     7
 10
44.52607548341732
 20
123.0053999673023
 30
0.0
  0
VERTEX
  5
8B0
  8
0
  6
CONTINUOUS
 62
     7
 10
44.52622406045205
 20
122.9849165416371
 30
0.0
  0
VERTEX
  5
8B1
  8
0
  6
CONTINUOUS
 62
     7
 10
44.52637790605522
 20
122.9644331537025
 30
0.0
  0
VERTEX
  5
8B2
  8
0
  6
CONTINUOUS
 62
     7
 10
44.52653710667257
 20
122.9439498052401
 30
0.0
  0
VERTEX
  5
8B3
  8
0
  6
CONTINUOUS
 62
     7
 10
44.52670132004157
 20
122.9234664958558
 30
0.0
  0
VERTEX
  5
8B4
  8
0
  6
CONTINUOUS
 62
     7
 10
44.5268701194662
 20
122.9029832247351
 30
0.0
  0
VERTEX
  5
8B5
  8
0
  6
CONTINUOUS
 62
     7
 10
44.52704307825046
 20
122.8824999910629
 30
0.0
  0
VERTEX
  5
8B6
  8
0
  6
CONTINUOUS
 62
     7
 10
44.52721976969837
 20
122.8620167940248
 30
0.0
  0
VERTEX
  5
8B7
  8
0
  6
CONTINUOUS
 62
     7
 10
44.52739976711393
 20
122.8415336328055
 30
0.0
  0
VERTEX
  5
8B8
  8
0
  6
CONTINUOUS
 62
     7
 10
44.52758264377209
 20
122.8210505046645
 30
0.0
  0
VERTEX
  5
8B9
  8
0
  6
CONTINUOUS
 62
     7
 10
44.52776797285105
 20
122.8005674004478
 30
0.0
  0
VERTEX
  5
8BA
  8
0
  6
CONTINUOUS
 62
     7
 10
44.52795532750891
 20
122.7800843096676
 30
0.0
  0
VERTEX
  5
8BB
  8
0
  6
CONTINUOUS
 62
     7
 10
44.52814428090371
 20
122.7596012218364
 30
0.0
  0
VERTEX
  5
8BC
  8
0
  6
CONTINUOUS
 62
     7
 10
44.52833440619357
 20
122.7391181264666
 30
0.0
  0
VERTEX
  5
8BD
  8
0
  6
CONTINUOUS
 62
     7
 10
44.52852527659979
 20
122.7186350130716
 30
0.0
  0
VERTEX
  5
8BE
  8
0
  6
CONTINUOUS
 62
     7
 10
44.52871729424235
 20
122.6981518866825
 30
0.0
  0
VERTEX
  5
8BF
  8
0
  6
CONTINUOUS
 62
     7
 10
44.52891376514219
 20
122.6776688066925
 30
0.0
  0
VERTEX
  5
8C0
  8
0
  6
CONTINUOUS
 62
     7
 10
44.52911863087682
 20
122.657185844393
 30
0.0
  0
VERTEX
  5
8C1
  8
0
  6
CONTINUOUS
 62
     7
 10
44.5293358330237
 20
122.6367030710753
 30
0.0
  0
VERTEX
  5
8C2
  8
0
  6
CONTINUOUS
 62
     7
 10
44.52956931313543
 20
122.6162205579614
 30
0.0
  0
VERTEX
  5
8C3
  8
0
  6
CONTINUOUS
 62
     7
 10
44.52982300400517
 20
122.5957383518937
 30
0.0
  0
VERTEX
  5
8C4
  8
0
  6
CONTINUOUS
 62
     7
 10
44.53010081681031
 20
122.575256439553
 30
0.0
  0
VERTEX
  5
8C5
  8
0
  6
CONTINUOUS
 62
     7
 10
44.53040665945277
 20
122.5547747985035
 30
0.0
  0
VERTEX
  5
8C6
  8
0
  6
CONTINUOUS
 62
     7
 10
44.53074443983447
 20
122.5342934063097
 30
0.0
  0
VERTEX
  5
8C7
  8
0
  6
CONTINUOUS
 62
     7
 10
44.53111799199513
 20
122.5138122423813
 30
0.0
  0
VERTEX
  5
8C8
  8
0
  6
CONTINUOUS
 62
     7
 10
44.53152448416397
 20
122.4933314526733
 30
0.0
  0
VERTEX
  5
8C9
  8
0
  6
CONTINUOUS
 62
     7
 10
44.53194920953108
 20
122.4728514798389
 30
0.0
  0
VERTEX
  5
8CA
  8
0
  6
CONTINUOUS
 62
     7
 10
44.53237623538503
 20
122.4523727971601
 30
0.0
  0
VERTEX
  5
8CB
  8
0
  6
CONTINUOUS
 62
     7
 10
44.53278962258451
 20
122.4318956785299
 30
0.0
  0
VERTEX
  5
8CC
  8
0
  6
CONTINUOUS
 62
     7
 10
44.53317336106484
 20
122.4114181985002
 30
0.0
  0
VERTEX
  5
8CD
  8
0
  6
CONTINUOUS
 62
     7
 10
44.5335113967566
 20
122.3909370670342
 30
0.0
  0
VERTEX
  5
8CE
  8
0
  6
CONTINUOUS
 62
     7
 10
44.53378769724382
 20
122.3704489769971
 30
0.0
  0
VERTEX
  5
8CF
  8
0
  6
CONTINUOUS
 62
     7
 10
44.53402872867167
 20
122.3499569518516
 30
0.0
  0
VERTEX
  5
8D0
  8
0
  6
CONTINUOUS
 62
     7
 10
44.5343918818459
 20
122.3294835176353
 30
0.0
  0
VERTEX
  5
8D1
  8
0
  6
CONTINUOUS
 62
     7
 10
44.53505887580189
 20
122.3090430474284
 30
0.0
  0
VERTEX
  5
8D2
  8
0
  6
CONTINUOUS
 62
     7
 10
44.53620695907991
 20
122.2885836798323
 30
0.0
  0
VERTEX
  5
8D3
  8
0
  6
CONTINUOUS
 62
     7
 10
44.53797449345495
 20
122.2681314734357
 30
0.0
  0
VERTEX
  5
8D4
  8
0
  6
CONTINUOUS
 62
     7
 10
44.54018644991388
 20
122.2475046728042
 30
0.0
  0
VERTEX
  5
8D5
  8
0
  6
CONTINUOUS
 62
     7
 10
44.54284260353703
 20
122.2233307610431
 30
0.0
  0
VERTEX
  5
8D6
  8
0
  6
CONTINUOUS
 62
     7
 10
44.54593410790923
 20
122.1965529924261
 30
0.0
  0
VERTEX
  5
8D7
  8
0
  6
CONTINUOUS
 62
     7
 10
44.54942962894486
 20
122.1690070206115
 30
0.0
  0
VERTEX
  5
8D8
  8
0
  6
CONTINUOUS
 62
     7
 10
44.55329783255834
 20
122.1425284992581
 30
0.0
  0
VERTEX
  5
8D9
  8
0
  6
CONTINUOUS
 62
     7
 10
44.55750738466399
 20
122.1189530820242
 30
0.0
  0
VERTEX
  5
8DA
  8
0
  6
CONTINUOUS
 62
     7
 10
44.5620269511762
 20
122.1001164225685
 30
0.0
  0
VERTEX
  5
8DB
  8
0
  6
CONTINUOUS
 62
     7
 10
44.56682519800937
 20
122.0878541745494
 30
0.0
  0
VERTEX
  5
8DC
  8
0
  6
CONTINUOUS
 62
     7
 10
44.57187079107786
 20
122.0840019916256
 30
0.0
  0
VERTEX
  5
8DD
  8
0
  6
CONTINUOUS
 62
     7
 10
44.57711986143131
 20
122.0899634719045
 30
0.0
  0
VERTEX
  5
8DE
  8
0
  6
CONTINUOUS
 62
     7
 10
44.58245212813473
 20
122.1045084218421
 30
0.0
  0
VERTEX
  5
8DF
  8
0
  6
CONTINUOUS
 62
     7
 10
44.58771851970442
 20
122.1254142864605
 30
0.0
  0
VERTEX
  5
8E0
  8
0
  6
CONTINUOUS
 62
     7
 10
44.5927699120486
 20
122.1504566974663
 30
0.0
  0
VERTEX
  5
8E1
  8
0
  6
CONTINUOUS
 62
     7
 10
44.59745718107539
 20
122.1774112865663
 30
0.0
  0
VERTEX
  5
8E2
  8
0
  6
CONTINUOUS
 62
     7
 10
44.60163607504158
 20
122.2041132022682
 30
0.0
  0
VERTEX
  5
8E3
  8
0
  6
CONTINUOUS
 62
     7
 10
44.60525779320412
 20
122.2295635478736
 30
0.0
  0
VERTEX
  5
8E4
  8
0
  6
CONTINUOUS
 62
     7
 10
44.60836057801473
 20
122.2538266782993
 30
0.0
  0
VERTEX
  5
8E5
  8
0
  6
CONTINUOUS
 62
     7
 10
44.6109858582295
 20
122.2770058698649
 30
0.0
  0
VERTEX
  5
8E6
  8
0
  6
CONTINUOUS
 62
     7
 10
44.61317506260445
 20
122.2992043988896
 30
0.0
  0
VERTEX
  5
8E7
  8
0
  6
CONTINUOUS
 62
     7
 10
44.61496961989565
 20
122.3205255416929
 30
0.0
  0
VERTEX
  5
8E8
  8
0
  6
CONTINUOUS
 62
     7
 10
44.61641095885911
 20
122.3410725745942
 30
0.0
  0
VERTEX
  5
8E9
  8
0
  6
CONTINUOUS
 62
     7
 10
44.61754050825088
 20
122.3609487739128
 30
0.0
  0
VERTEX
  5
8EA
  8
0
  6
CONTINUOUS
 62
     7
 10
44.61839969682705
 20
122.3802574159681
 30
0.0
  0
VERTEX
  5
8EB
  8
0
  6
CONTINUOUS
 62
     7
 10
44.61902995334364
 20
122.3991017770796
 30
0.0
  0
VERTEX
  5
8EC
  8
0
  6
CONTINUOUS
 62
     7
 10
44.6194727065567
 20
122.4175851335666
 30
0.0
  0
VERTEX
  5
8ED
  8
0
  6
CONTINUOUS
 62
     7
 10
44.61976938522228
 20
122.4358107617485
 30
0.0
  0
VERTEX
  5
8EE
  8
0
  6
CONTINUOUS
 62
     7
 10
44.61996141809642
 20
122.4538819379447
 30
0.0
  0
VERTEX
  5
8EF
  8
0
  6
CONTINUOUS
 62
     7
 10
44.62009023393519
 20
122.4719019384746
 30
0.0
  0
VERTEX
  5
8F0
  8
0
  6
CONTINUOUS
 62
     7
 10
44.6201972614946
 20
122.4899740396575
 30
0.0
  0
VERTEX
  5
8F1
  8
0
  6
CONTINUOUS
 62
     7
 10
44.62032392953073
 20
122.5082015178129
 30
0.0
  0
VERTEX
  5
8F2
  8
0
  6
CONTINUOUS
 62
     7
 10
44.62050931815521
 20
122.5266816030038
 30
0.0
  0
VERTEX
  5
8F3
  8
0
  6
CONTINUOUS
 62
     7
 10
44.620765920511
 20
122.5454430808638
 30
0.0
  0
VERTEX
  5
8F4
  8
0
  6
CONTINUOUS
 62
     7
 10
44.62108941084367
 20
122.5644714391292
 30
0.0
  0
VERTEX
  5
8F5
  8
0
  6
CONTINUOUS
 62
     7
 10
44.62147519771401
 20
122.5837514815678
 30
0.0
  0
VERTEX
  5
8F6
  8
0
  6
CONTINUOUS
 62
     7
 10
44.62191868968289
 20
122.6032680119479
 30
0.0
  0
VERTEX
  5
8F7
  8
0
  6
CONTINUOUS
 62
     7
 10
44.62241529531117
 20
122.6230058340376
 30
0.0
  0
VERTEX
  5
8F8
  8
0
  6
CONTINUOUS
 62
     7
 10
44.62296042315967
 20
122.642949751605
 30
0.0
  0
VERTEX
  5
8F9
  8
0
  6
CONTINUOUS
 62
     7
 10
44.62354948178921
 20
122.6630845684182
 30
0.0
  0
VERTEX
  5
8FA
  8
0
  6
CONTINUOUS
 62
     7
 10
44.62417787976066
 20
122.6833950882453
 30
0.0
  0
VERTEX
  5
8FB
  8
0
  6
CONTINUOUS
 62
     7
 10
44.62484102563484
 20
122.7038661148544
 30
0.0
  0
VERTEX
  5
8FC
  8
0
  6
CONTINUOUS
 62
     7
 10
44.62553432797262
 20
122.7244824520136
 30
0.0
  0
VERTEX
  5
8FD
  8
0
  6
CONTINUOUS
 62
     7
 10
44.62625319533479
 20
122.7452289034911
 30
0.0
  0
VERTEX
  5
8FE
  8
0
  6
CONTINUOUS
 62
     7
 10
44.62699303628224
 20
122.7660902730548
 30
0.0
  0
VERTEX
  5
8FF
  8
0
  6
CONTINUOUS
 62
     7
 10
44.62774925937579
 20
122.787051364473
 30
0.0
  0
VERTEX
  5
900
  8
0
  6
CONTINUOUS
 62
     7
 10
44.62851727317626
 20
122.8080969815137
 30
0.0
  0
VERTEX
  5
901
  8
0
  6
CONTINUOUS
 62
     7
 10
44.62929248624452
 20
122.8292119279451
 30
0.0
  0
VERTEX
  5
902
  8
0
  6
CONTINUOUS
 62
     7
 10
44.6300703071414
 20
122.8503810075352
 30
0.0
  0
VERTEX
  5
903
  8
0
  6
CONTINUOUS
 62
     7
 10
44.63084614442775
 20
122.8715890240522
 30
0.0
  0
VERTEX
  5
904
  8
0
  6
CONTINUOUS
 62
     7
 10
44.63161540666439
 20
122.8928207812641
 30
0.0
  0
VERTEX
  5
905
  8
0
  6
CONTINUOUS
 62
     7
 10
44.63237350241215
 20
122.9140610829391
 30
0.0
  0
VERTEX
  5
906
  8
0
  6
CONTINUOUS
 62
     7
 10
44.63311584023191
 20
122.9352947328453
 30
0.0
  0
VERTEX
  5
907
  8
0
  6
CONTINUOUS
 62
     7
 10
44.6338378286845
 20
122.9565065347507
 30
0.0
  0
VERTEX
  5
908
  8
0
  6
CONTINUOUS
 62
     7
 10
44.63453487633073
 20
122.9776812924236
 30
0.0
  0
VERTEX
  5
909
  8
0
  6
CONTINUOUS
 62
     7
 10
44.63520239173146
 20
122.9988038096319
 30
0.0
  0
VERTEX
  5
90A
  8
0
  6
CONTINUOUS
 62
     7
 10
44.63583634413943
 20
123.0198606487769
 30
0.0
  0
VERTEX
  5
90B
  8
0
  6
CONTINUOUS
 62
     7
 10
44.63643641925753
 20
123.0408500290572
 30
0.0
  0
VERTEX
  5
90C
  8
0
  6
CONTINUOUS
 62
     7
 10
44.63700381482618
 20
123.0617749122392
 30
0.0
  0
VERTEX
  5
90D
  8
0
  6
CONTINUOUS
 62
     7
 10
44.63753973298077
 20
123.0826382738739
 30
0.0
  0
VERTEX
  5
90E
  8
0
  6
CONTINUOUS
 62
     7
 10
44.63804537585663
 20
123.1034430895125
 30
0.0
  0
VERTEX
  5
90F
  8
0
  6
CONTINUOUS
 62
     7
 10
44.63852194558918
 20
123.1241923347061
 30
0.0
  0
VERTEX
  5
910
  8
0
  6
CONTINUOUS
 62
     7
 10
44.63897064431376
 20
123.144888985006
 30
0.0
  0
VERTEX
  5
911
  8
0
  6
CONTINUOUS
 62
     7
 10
44.63939267416573
 20
123.1655360159631
 30
0.0
  0
VERTEX
  5
912
  8
0
  6
CONTINUOUS
 62
     7
 10
44.63978923728049
 20
123.1861364031287
 30
0.0
  0
VERTEX
  5
913
  8
0
  6
CONTINUOUS
 62
     7
 10
44.6401615357934
 20
123.206693122054
 30
0.0
  0
VERTEX
  5
914
  8
0
  6
CONTINUOUS
 62
     7
 10
44.64051077183982
 20
123.22720914829
 30
0.0
  0
VERTEX
  5
915
  8
0
  6
CONTINUOUS
 62
     7
 10
44.64083814755514
 20
123.2476874573879
 30
0.0
  0
VERTEX
  5
916
  8
0
  6
CONTINUOUS
 62
     7
 10
44.6411448650747
 20
123.2681310248988
 30
0.0
  0
VERTEX
  5
917
  8
0
  6
CONTINUOUS
 62
     7
 10
44.64143212653391
 20
123.2885428263739
 30
0.0
  0
VERTEX
  5
918
  8
0
  6
CONTINUOUS
 62
     7
 10
44.6417011340681
 20
123.3089258373644
 30
0.0
  0
VERTEX
  5
919
  8
0
  6
CONTINUOUS
 62
     7
 10
44.64195308981267
 20
123.3292830334213
 30
0.0
  0
VERTEX
  5
91A
  8
0
  6
CONTINUOUS
 62
     7
 10
44.64218919590298
 20
123.3496173900958
 30
0.0
  0
VERTEX
  5
91B
  8
0
  6
CONTINUOUS
 62
     7
 10
44.6424106544744
 20
123.3699318829391
 30
0.0
  0
VERTEX
  5
91C
  8
0
  6
CONTINUOUS
 62
     7
 10
44.6426186676623
 20
123.3902294875023
 30
0.0
  0
VERTEX
  5
91D
  8
0
  6
CONTINUOUS
 62
     7
 10
44.64281443760206
 20
123.4105131793365
 30
0.0
  0
VERTEX
  5
91E
  8
0
  6
CONTINUOUS
 62
     7
 10
44.64299916642901
 20
123.4307859339929
 30
0.0
  0
VERTEX
  5
91F
  8
0
  6
CONTINUOUS
 62
     7
 10
44.64317405627858
 20
123.4510507270227
 30
0.0
  0
VERTEX
  5
920
  8
0
  6
CONTINUOUS
 62
     7
 10
44.6433403092861
 20
123.4713105339769
 30
0.0
  0
VERTEX
  5
921
  8
0
  6
CONTINUOUS
 62
     7
 10
44.64349912758696
 20
123.4915683304067
 30
0.0
  0
VERTEX
  5
922
  8
0
  6
CONTINUOUS
 62
     7
 10
44.64365171331653
 20
123.5118270918634
 30
0.0
  0
VERTEX
  5
923
  8
0
  6
CONTINUOUS
 62
     7
 10
44.64379926861016
 20
123.5320897938978
 30
0.0
  0
VERTEX
  5
924
  8
0
  6
CONTINUOUS
 62
     7
 10
44.64394299560324
 20
123.5523594120614
 30
0.0
  0
VERTEX
  5
925
  8
0
  6
CONTINUOUS
 62
     7
 10
44.64408409643113
 20
123.5726389219051
 30
0.0
  0
VERTEX
  5
926
  8
0
  6
CONTINUOUS
 62
     7
 10
44.6442237732292
 20
123.5929312989802
 30
0.0
  0
VERTEX
  5
927
  8
0
  6
CONTINUOUS
 62
     7
 10
44.64436315387243
 20
123.6132393439935
 30
0.0
  0
VERTEX
  5
928
  8
0
  6
CONTINUOUS
 62
     7
 10
44.64450251011508
 20
123.6335638419373
 30
0.0
  0
VERTEX
  5
929
  8
0
  6
CONTINUOUS
 62
     7
 10
44.64464156475466
 20
123.6539042852994
 30
0.0
  0
VERTEX
  5
92A
  8
0
  6
CONTINUOUS
 62
     7
 10
44.64478003159012
 20
123.6742601453801
 30
0.0
  0
VERTEX
  5
92B
  8
0
  6
CONTINUOUS
 62
     7
 10
44.64491762442033
 20
123.6946308934802
 30
0.0
  0
VERTEX
  5
92C
  8
0
  6
CONTINUOUS
 62
     7
 10
44.64505405704419
 20
123.7150160009001
 30
0.0
  0
VERTEX
  5
92D
  8
0
  6
CONTINUOUS
 62
     7
 10
44.64518904326062
 20
123.7354149389404
 30
0.0
  0
VERTEX
  5
92E
  8
0
  6
CONTINUOUS
 62
     7
 10
44.64532229686851
 20
123.7558271789016
 30
0.0
  0
VERTEX
  5
92F
  8
0
  6
CONTINUOUS
 62
     7
 10
44.64545353166677
 20
123.7762521920843
 30
0.0
  0
VERTEX
  5
930
  8
0
  6
CONTINUOUS
 62
     7
 10
44.6455824614543
 20
123.796689449789
 30
0.0
  0
VERTEX
  5
931
  8
0
  6
CONTINUOUS
 62
     7
 10
44.64570880002999
 20
123.8171384233163
 30
0.0
  0
VERTEX
  5
932
  8
0
  6
CONTINUOUS
 62
     7
 10
44.64583226119275
 20
123.8375985839666
 30
0.0
  0
VERTEX
  5
933
  8
0
  6
CONTINUOUS
 62
     7
 10
44.64595255874149
 20
123.8580694030407
 30
0.0
  0
VERTEX
  5
934
  8
0
  6
CONTINUOUS
 62
     7
 10
44.64606940647511
 20
123.878550351839
 30
0.0
  0
VERTEX
  5
935
  8
0
  6
CONTINUOUS
 62
     7
 10
44.6461825181925
 20
123.899040901662
 30
0.0
  0
VERTEX
  5
936
  8
0
  6
CONTINUOUS
 62
     7
 10
44.64629160769257
 20
123.9195405238104
 30
0.0
  0
VERTEX
  5
937
  8
0
  6
CONTINUOUS
 62
     7
 10
44.64639638877421
 20
123.9400486895846
 30
0.0
  0
VERTEX
  5
938
  8
0
  6
CONTINUOUS
 62
     7
 10
44.64649657523634
 20
123.9605648702852
 30
0.0
  0
VERTEX
  5
939
  8
0
  6
CONTINUOUS
 62
     7
 10
44.64659188087785
 20
123.9810885372128
 30
0.0
  0
VERTEX
  5
93A
  8
0
  6
CONTINUOUS
 62
     7
 10
44.64668201949766
 20
124.0016191616679
 30
0.0
  0
VERTEX
  5
93B
  8
0
  6
CONTINUOUS
 62
     7
 10
44.64676670489464
 20
124.022156214951
 30
0.0
  0
VERTEX
  5
93C
  8
0
  6
CONTINUOUS
 62
     7
 10
44.64684565086772
 20
124.0426991683627
 30
0.0
  0
VERTEX
  5
93D
  8
0
  6
CONTINUOUS
 62
     7
 10
44.64691857121579
 20
124.0632474932036
 30
0.0
  0
VERTEX
  5
93E
  8
0
  6
CONTINUOUS
 62
     7
 10
44.64698517973775
 20
124.0838006607741
 30
0.0
  0
VERTEX
  5
93F
  8
0
  6
CONTINUOUS
 62
     7
 10
44.64704519023251
 20
124.104358142375
 30
0.0
  0
VERTEX
  5
940
  8
0
  6
CONTINUOUS
 62
     7
 10
44.64709831649895
 20
124.1249194093066
 30
0.0
  0
VERTEX
  5
941
  8
0
  6
CONTINUOUS
 62
     7
 10
44.64714427233602
 20
124.1454839328695
 30
0.0
  0
VERTEX
  5
942
  8
0
  6
CONTINUOUS
 62
     7
 10
44.64718277154256
 20
124.1660511843643
 30
0.0
  0
VERTEX
  5
943
  8
0
  6
CONTINUOUS
 62
     7
 10
44.64721352791752
 20
124.1866206350916
 30
0.0
  0
VERTEX
  5
944
  8
0
  6
CONTINUOUS
 62
     7
 10
44.64723625525978
 20
124.2071917563518
 30
0.0
  0
VERTEX
  5
945
  8
0
  6
CONTINUOUS
 62
     7
 10
44.64725066736824
 20
124.2277640194456
 30
0.0
  0
VERTEX
  5
946
  8
0
  6
CONTINUOUS
 62
     7
 10
44.64725647804182
 20
124.2483368956735
 30
0.0
  0
VERTEX
  5
947
  8
0
  6
CONTINUOUS
 62
     7
 10
44.64725345761354
 20
124.2689098563401
 30
0.0
  0
VERTEX
  5
948
  8
0
  6
CONTINUOUS
 62
     7
 10
44.64724174461018
 20
124.2894823727768
 30
0.0
  0
VERTEX
  5
949
  8
0
  6
CONTINUOUS
 62
     7
 10
44.64722162498576
 20
124.310053916326
 30
0.0
  0
VERTEX
  5
94A
  8
0
  6
CONTINUOUS
 62
     7
 10
44.64719338508589
 20
124.3306239583297
 30
0.0
  0
VERTEX
  5
94B
  8
0
  6
CONTINUOUS
 62
     7
 10
44.64715731125626
 20
124.3511919701302
 30
0.0
  0
VERTEX
  5
94C
  8
0
  6
CONTINUOUS
 62
     7
 10
44.64711368984253
 20
124.3717574230697
 30
0.0
  0
VERTEX
  5
94D
  8
0
  6
CONTINUOUS
 62
     7
 10
44.6470628071904
 20
124.3923197884904
 30
0.0
  0
VERTEX
  5
94E
  8
0
  6
CONTINUOUS
 62
     7
 10
44.64700494964553
 20
124.4128785377344
 30
0.0
  0
VERTEX
  5
94F
  8
0
  6
CONTINUOUS
 62
     7
 10
44.64694040355359
 20
124.4334331421441
 30
0.0
  0
VERTEX
  5
950
  8
0
  6
CONTINUOUS
 62
     7
 10
44.64686945526027
 20
124.4539830730615
 30
0.0
  0
VERTEX
  5
951
  8
0
  6
CONTINUOUS
 62
     7
 10
44.64679239111121
 20
124.474527801829
 30
0.0
  0
VERTEX
  5
952
  8
0
  6
CONTINUOUS
 62
     7
 10
44.64670949745211
 20
124.4950667997887
 30
0.0
  0
VERTEX
  5
953
  8
0
  6
CONTINUOUS
 62
     7
 10
44.64662106062864
 20
124.5155995382827
 30
0.0
  0
VERTEX
  5
954
  8
0
  6
CONTINUOUS
 62
     7
 10
44.64652736698648
 20
124.5361254886535
 30
0.0
  0
VERTEX
  5
955
  8
0
  6
CONTINUOUS
 62
     7
 10
44.64642870287129
 20
124.556644122243
 30
0.0
  0
VERTEX
  5
956
  8
0
  6
CONTINUOUS
 62
     7
 10
44.64632535462874
 20
124.5771549103935
 30
0.0
  0
VERTEX
  5
957
  8
0
  6
CONTINUOUS
 62
     7
 10
44.64621760860452
 20
124.5976573244474
 30
0.0
  0
VERTEX
  5
958
  8
0
  6
CONTINUOUS
 62
     7
 10
44.64610575114429
 20
124.6181508357466
 30
0.0
  0
VERTEX
  5
959
  8
0
  6
CONTINUOUS
 62
     7
 10
44.64599006859373
 20
124.6386349156335
 30
0.0
  0
VERTEX
  5
95A
  8
0
  6
CONTINUOUS
 62
     7
 10
44.64587084729852
 20
124.6591090354502
 30
0.0
  0
VERTEX
  5
95B
  8
0
  6
CONTINUOUS
 62
     7
 10
44.64574837360433
 20
124.679572666539
 30
0.0
  0
VERTEX
  5
95C
  8
0
  6
CONTINUOUS
 62
     7
 10
44.64562293385682
 20
124.700025280242
 30
0.0
  0
VERTEX
  5
95D
  8
0
  6
CONTINUOUS
 62
     7
 10
44.64549481440167
 20
124.7204663479016
 30
0.0
  0
VERTEX
  5
95E
  8
0
  6
CONTINUOUS
 62
     7
 10
44.64536430158456
 20
124.7408953408598
 30
0.0
  0
VERTEX
  5
95F
  8
0
  6
CONTINUOUS
 62
     7
 10
44.64523168175117
 20
124.7613117304588
 30
0.0
  0
VERTEX
  5
960
  8
0
  6
CONTINUOUS
 62
     7
 10
44.64509724124716
 20
124.7817149880409
 30
0.0
  0
VERTEX
  5
961
  8
0
  6
CONTINUOUS
 62
     7
 10
44.64496126641819
 20
124.8021045849484
 30
0.0
  0
VERTEX
  5
962
  8
0
  6
CONTINUOUS
 62
     7
 10
44.64482404360998
 20
124.8224799925233
 30
0.0
  0
VERTEX
  5
963
  8
0
  6
CONTINUOUS
 62
     7
 10
44.64468585916815
 20
124.8428406821079
 30
0.0
  0
VERTEX
  5
964
  8
0
  6
CONTINUOUS
 62
     7
 10
44.64454699943842
 20
124.8631861250445
 30
0.0
  0
VERTEX
  5
965
  8
0
  6
CONTINUOUS
 62
     7
 10
44.64440775076642
 20
124.8835157926751
 30
0.0
  0
VERTEX
  5
966
  8
0
  6
CONTINUOUS
 62
     7
 10
44.64426839949754
 20
124.9038291563427
 30
0.0
  0
VERTEX
  5
967
  8
0
  6
CONTINUOUS
 62
     7
 10
44.64412897563599
 20
124.9241262905178
 30
0.0
  0
VERTEX
  5
968
  8
0
  6
CONTINUOUS
 62
     7
 10
44.64398851649275
 20
124.94440960531
 30
0.0
  0
VERTEX
  5
969
  8
0
  6
CONTINUOUS
 62
     7
 10
44.6438458191147
 20
124.9646820761301
 30
0.0
  0
VERTEX
  5
96A
  8
0
  6
CONTINUOUS
 62
     7
 10
44.64369968054874
 20
124.9849466783885
 30
0.0
  0
VERTEX
  5
96B
  8
0
  6
CONTINUOUS
 62
     7
 10
44.64354889784178
 20
125.005206387496
 30
0.0
  0
VERTEX
  5
96C
  8
0
  6
CONTINUOUS
 62
     7
 10
44.64339226804068
 20
125.0254641788631
 30
0.0
  0
VERTEX
  5
96D
  8
0
  6
CONTINUOUS
 62
     7
 10
44.64322858819234
 20
125.0457230279004
 30
0.0
  0
VERTEX
  5
96E
  8
0
  6
CONTINUOUS
 62
     7
 10
44.64305665534366
 20
125.0659859100185
 30
0.0
  0
VERTEX
  5
96F
  8
0
  6
CONTINUOUS
 62
     7
 10
44.64287526654152
 20
125.086255800628
 30
0.0
  0
VERTEX
  5
970
  8
0
  6
CONTINUOUS
 62
     7
 10
44.64268321883283
 20
125.1065356751396
 30
0.0
  0
VERTEX
  5
971
  8
0
  6
CONTINUOUS
 62
     7
 10
44.64247930926446
 20
125.1268285089638
 30
0.0
  0
VERTEX
  5
972
  8
0
  6
CONTINUOUS
 62
     7
 10
44.64226233488332
 20
125.1471372775113
 30
0.0
  0
VERTEX
  5
973
  8
0
  6
CONTINUOUS
 62
     7
 10
44.64203109273629
 20
125.1674649561926
 30
0.0
  0
VERTEX
  5
974
  8
0
  6
CONTINUOUS
 62
     7
 10
44.64178437987025
 20
125.1878145204184
 30
0.0
  0
VERTEX
  5
975
  8
0
  6
CONTINUOUS
 62
     7
 10
44.64152099333212
 20
125.2081889455992
 30
0.0
  0
VERTEX
  5
976
  8
0
  6
CONTINUOUS
 62
     7
 10
44.64123973016878
 20
125.2285912071457
 30
0.0
  0
VERTEX
  5
977
  8
0
  6
CONTINUOUS
 62
     7
 10
44.64093938742712
 20
125.2490242804685
 30
0.0
  0
VERTEX
  5
978
  8
0
  6
CONTINUOUS
 62
     7
 10
44.64061876215401
 20
125.2694911409782
 30
0.0
  0
VERTEX
  5
979
  8
0
  6
CONTINUOUS
 62
     7
 10
44.64027665139636
 20
125.2899947640853
 30
0.0
  0
VERTEX
  5
97A
  8
0
  6
CONTINUOUS
 62
     7
 10
44.63991185220107
 20
125.3105381252005
 30
0.0
  0
VERTEX
  5
97B
  8
0
  6
CONTINUOUS
 62
     7
 10
44.63952316161502
 20
125.3311241997345
 30
0.0
  0
VERTEX
  5
97C
  8
0
  6
CONTINUOUS
 62
     7
 10
44.63910937668511
 20
125.3517559630977
 30
0.0
  0
VERTEX
  5
97D
  8
0
  6
CONTINUOUS
 62
     7
 10
44.63866929445822
 20
125.3724363907008
 30
0.0
  0
VERTEX
  5
97E
  8
0
  6
CONTINUOUS
 62
     7
 10
44.63820171198125
 20
125.3931684579545
 30
0.0
  0
VERTEX
  5
97F
  8
0
  6
CONTINUOUS
 62
     7
 10
44.63770542630107
 20
125.4139551402692
 30
0.0
  0
VERTEX
  5
980
  8
0
  6
CONTINUOUS
 62
     7
 10
44.63717923446461
 20
125.4347994130557
 30
0.0
  0
VERTEX
  5
981
  8
0
  6
CONTINUOUS
 62
     7
 10
44.63662193351874
 20
125.4557042517245
 30
0.0
  0
VERTEX
  5
982
  8
0
  6
CONTINUOUS
 62
     7
 10
44.63603232051034
 20
125.4766726316863
 30
0.0
  0
VERTEX
  5
983
  8
0
  6
CONTINUOUS
 62
     7
 10
44.63540919248632
 20
125.4977075283516
 30
0.0
  0
VERTEX
  5
984
  8
0
  6
CONTINUOUS
 62
     7
 10
44.63475193058849
 20
125.5188100867501
 30
0.0
  0
VERTEX
  5
985
  8
0
  6
CONTINUOUS
 62
     7
 10
44.63406365391408
 20
125.5399697382643
 30
0.0
  0
VERTEX
  5
986
  8
0
  6
CONTINUOUS
 62
     7
 10
44.63334895449835
 20
125.5611712985239
 30
0.0
  0
VERTEX
  5
987
  8
0
  6
CONTINUOUS
 62
     7
 10
44.63261242794185
 20
125.5823995719863
 30
0.0
  0
VERTEX
  5
988
  8
0
  6
CONTINUOUS
 62
     7
 10
44.63185866984517
 20
125.6036393631087
 30
0.0
  0
VERTEX
  5
989
  8
0
  6
CONTINUOUS
 62
     7
 10
44.63109227580885
 20
125.6248754763483
 30
0.0
  0
VERTEX
  5
98A
  8
0
  6
CONTINUOUS
 62
     7
 10
44.63031784143349
 20
125.6460927161625
 30
0.0
  0
VERTEX
  5
98B
  8
0
  6
CONTINUOUS
 62
     7
 10
44.62953996231962
 20
125.6672758870084
 30
0.0
  0
VERTEX
  5
98C
  8
0
  6
CONTINUOUS
 62
     7
 10
44.62876323406782
 20
125.6884097933434
 30
0.0
  0
VERTEX
  5
98D
  8
0
  6
CONTINUOUS
 62
     7
 10
44.62799225227865
 20
125.7094792396246
 30
0.0
  0
VERTEX
  5
98E
  8
0
  6
CONTINUOUS
 62
     7
 10
44.62723161255268
 20
125.7304690303095
 30
0.0
  0
VERTEX
  5
98F
  8
0
  6
CONTINUOUS
 62
     7
 10
44.62648591049049
 20
125.7513639698551
 30
0.0
  0
VERTEX
  5
990
  8
0
  6
CONTINUOUS
 62
     7
 10
44.62575974169261
 20
125.7721488627189
 30
0.0
  0
VERTEX
  5
991
  8
0
  6
CONTINUOUS
 62
     7
 10
44.62505770175964
 20
125.792808513358
 30
0.0
  0
VERTEX
  5
992
  8
0
  6
CONTINUOUS
 62
     7
 10
44.62438438629213
 20
125.8133277262297
 30
0.0
  0
VERTEX
  5
993
  8
0
  6
CONTINUOUS
 62
     7
 10
44.62374439089062
 20
125.8336913057912
 30
0.0
  0
VERTEX
  5
994
  8
0
  6
CONTINUOUS
 62
     7
 10
44.62314231115572
 20
125.8538840564999
 30
0.0
  0
VERTEX
  5
995
  8
0
  6
CONTINUOUS
 62
     7
 10
44.62258274268798
 20
125.873890782813
 30
0.0
  0
VERTEX
  5
996
  8
0
  6
CONTINUOUS
 62
     7
 10
44.62207028108796
 20
125.8936962891878
 30
0.0
  0
VERTEX
  5
997
  8
0
  6
CONTINUOUS
 62
     7
 10
44.62160952195622
 20
125.9132853800814
 30
0.0
  0
VERTEX
  5
998
  8
0
  6
CONTINUOUS
 62
     7
 10
44.62120506089332
 20
125.9326428599513
 30
0.0
  0
VERTEX
  5
999
  8
0
  6
CONTINUOUS
 62
     7
 10
44.62086149349985
 20
125.9517535332545
 30
0.0
  0
VERTEX
  5
99A
  8
0
  6
CONTINUOUS
 62
     7
 10
44.62058341537636
 20
125.9706022044485
 30
0.0
  0
VERTEX
  5
99B
  8
0
  6
CONTINUOUS
 62
     7
 10
44.62037542212195
 20
125.9891736779942
 30
0.0
  0
VERTEX
  5
99C
  8
0
  6
CONTINUOUS
 62
     7
 10
44.6202343009843
 20
126.0074728447101
 30
0.0
  0
VERTEX
  5
99D
  8
0
  6
CONTINUOUS
 62
     7
 10
44.6201261388485
 20
126.0255835696339
 30
0.0
  0
VERTEX
  5
99E
  8
0
  6
CONTINUOUS
 62
     7
 10
44.62000947850331
 20
126.0436091243859
 30
0.0
  0
VERTEX
  5
99F
  8
0
  6
CONTINUOUS
 62
     7
 10
44.61984286273745
 20
126.0616527805861
 30
0.0
  0
VERTEX
  5
9A0
  8
0
  6
CONTINUOUS
 62
     7
 10
44.6195848343397
 20
126.0798178098548
 30
0.0
  0
VERTEX
  5
9A1
  8
0
  6
CONTINUOUS
 62
     7
 10
44.61919393609878
 20
126.0982074838122
 30
0.0
  0
VERTEX
  5
9A2
  8
0
  6
CONTINUOUS
 62
     7
 10
44.61862871080346
 20
126.1169250740785
 30
0.0
  0
VERTEX
  5
9A3
  8
0
  6
CONTINUOUS
 62
     7
 10
44.61784770124248
 20
126.1360738522738
 30
0.0
  0
VERTEX
  5
9A4
  8
0
  6
CONTINUOUS
 62
     7
 10
44.61680945020458
 20
126.1557570900183
 30
0.0
  0
VERTEX
  5
9A5
  8
0
  6
CONTINUOUS
 62
     7
 10
44.6154725004785
 20
126.1760780589323
 30
0.0
  0
VERTEX
  5
9A6
  8
0
  6
CONTINUOUS
 62
     7
 10
44.61379539485301
 20
126.1971400306359
 30
0.0
  0
VERTEX
  5
9A7
  8
0
  6
CONTINUOUS
 62
     7
 10
44.61173667611684
 20
126.2190462767493
 30
0.0
  0
VERTEX
  5
9A8
  8
0
  6
CONTINUOUS
 62
     7
 10
44.60925488705875
 20
126.2419000688927
 30
0.0
  0
VERTEX
  5
9A9
  8
0
  6
CONTINUOUS
 62
     7
 10
44.60630857046748
 20
126.2658046786862
 30
0.0
  0
VERTEX
  5
9AA
  8
0
  6
CONTINUOUS
 62
     7
 10
44.60285626913176
 20
126.2908633777501
 30
0.0
  0
VERTEX
  5
9AB
  8
0
  6
CONTINUOUS
 62
     7
 10
44.59885662181937
 20
126.3171782690788
 30
0.0
  0
VERTEX
  5
9AC
  8
0
  6
CONTINUOUS
 62
     7
 10
44.59431563737728
 20
126.3442746847071
 30
0.0
  0
VERTEX
  5
9AD
  8
0
  6
CONTINUOUS
 62
     7
 10
44.58936306574595
 20
126.3701713037295
 30
0.0
  0
VERTEX
  5
9AE
  8
0
  6
CONTINUOUS
 62
     7
 10
44.58414861047659
 20
126.3926438530775
 30
0.0
  0
VERTEX
  5
9AF
  8
0
  6
CONTINUOUS
 62
     7
 10
44.57882197512041
 20
126.4094680596827
 30
0.0
  0
VERTEX
  5
9B0
  8
0
  6
CONTINUOUS
 62
     7
 10
44.5735328632286
 20
126.4184196504764
 30
0.0
  0
VERTEX
  5
9B1
  8
0
  6
CONTINUOUS
 62
     7
 10
44.56842002920233
 20
126.4176455893575
 30
0.0
  0
VERTEX
  5
9B2
  8
0
  6
CONTINUOUS
 62
     7
 10
44.56354598416822
 20
126.4078779104751
 30
0.0
  0
VERTEX
  5
9B3
  8
0
  6
CONTINUOUS
 62
     7
 10
44.55894081508084
 20
126.3909480074057
 30
0.0
  0
VERTEX
  5
9B4
  8
0
  6
CONTINUOUS
 62
     7
 10
44.5546344898902
 20
126.3686913086403
 30
0.0
  0
VERTEX
  5
9B5
  8
0
  6
CONTINUOUS
 62
     7
 10
44.55065697654631
 20
126.3429432426699
 30
0.0
  0
VERTEX
  5
9B6
  8
0
  6
CONTINUOUS
 62
     7
 10
44.54703824299916
 20
126.3155392379854
 30
0.0
  0
VERTEX
  5
9B7
  8
0
  6
CONTINUOUS
 62
     7
 10
44.54380825719882
 20
126.2883147230779
 30
0.0
  0
VERTEX
  5
9B8
  8
0
  6
CONTINUOUS
 62
     7
 10
44.54099698709523
 20
126.2631051264382
 30
0.0
  0
VERTEX
  5
9B9
  8
0
  6
CONTINUOUS
 62
     7
 10
44.53863452423769
 20
126.2415488466133
 30
0.0
  0
SEQEND
  5
9F5
  8
0
  6
CONTINUOUS
 62
     7
  0
POLYLINE
  5
65F
  8
0
  6
CONTINUOUS
 62
     7
 66
     1
 10
0.0
 20
0.0
 30
0.0
  0
VERTEX
  5
9BA
  8
0
  6
CONTINUOUS
 62
     7
 10
22.5518679815
 20
208.113763953
 30
0.0
  0
VERTEX
  5
9BB
  8
0
  6
CONTINUOUS
 62
     7
 10
22.55524039775462
 20
208.1165728936429
 30
0.0
  0
VERTEX
  5
9BC
  8
0
  6
CONTINUOUS
 62
     7
 10
22.55861529602776
 20
208.1193788951783
 30
0.0
  0
VERTEX
  5
9BD
  8
0
  6
CONTINUOUS
 62
     7
 10
22.56199515815118
 20
208.1221790187385
 30
0.0
  0
VERTEX
  5
9BE
  8
0
  6
CONTINUOUS
 62
     7
 10
22.56538246595668
 20
208.1249703254558
 30
0.0
  0
VERTEX
  5
9BF
  8
0
  6
CONTINUOUS
 62
     7
 10
22.56877970127601
 20
208.1277498764624
 30
0.0
  0
VERTEX
  5
9C0
  8
0
  6
CONTINUOUS
 62
     7
 10
22.57218934594095
 20
208.1305147328906
 30
0.0
  0
VERTEX
  5
9C1
  8
0
  6
CONTINUOUS
 62
     7
 10
22.57561388178325
 20
208.1332619558727
 30
0.0
  0
VERTEX
  5
9C2
  8
0
  6
CONTINUOUS
 62
     7
 10
22.5790557906347
 20
208.135988606541
 30
0.0
  0
VERTEX
  5
9C3
  8
0
  6
CONTINUOUS
 62
     7
 10
22.58251755432707
 20
208.1386917460277
 30
0.0
  0
VERTEX
  5
9C4
  8
0
  6
CONTINUOUS
 62
     7
 10
22.58600165469213
 20
208.141368435465
 30
0.0
  0
VERTEX
  5
9C5
  8
0
  6
CONTINUOUS
 62
     7
 10
22.58951057356163
 20
208.1440157359853
 30
0.0
  0
VERTEX
  5
9C6
  8
0
  6
CONTINUOUS
 62
     7
 10
22.59304679276737
 20
208.1466307087209
 30
0.0
  0
VERTEX
  5
9C7
  8
0
  6
CONTINUOUS
 62
     7
 10
22.59661263669297
 20
208.1492102301723
 30
0.0
  0
VERTEX
  5
9C8
  8
0
  6
CONTINUOUS
 62
     7
 10
22.60020947339774
 20
208.1517500554074
 30
0.0
  0
VERTEX
  5
9C9
  8
0
  6
CONTINUOUS
 62
     7
 10
22.60383831182808
 20
208.1542455183798
 30
0.0
  0
VERTEX
  5
9CA
  8
0
  6
CONTINUOUS
 62
     7
 10
22.60750016028874
 20
208.1566919522912
 30
0.0
  0
VERTEX
  5
9CB
  8
0
  6
CONTINUOUS
 62
     7
 10
22.61119602708447
 20
208.1590846903428
 30
0.0
  0
VERTEX
  5
9CC
  8
0
  6
CONTINUOUS
 62
     7
 10
22.61492692052001
 20
208.1614190657363
 30
0.0
  0
VERTEX
  5
9CD
  8
0
  6
CONTINUOUS
 62
     7
 10
22.61869384890013
 20
208.1636904116731
 30
0.0
  0
VERTEX
  5
9CE
  8
0
  6
CONTINUOUS
 62
     7
 10
22.62249782052957
 20
208.1658940613546
 30
0.0
  0
VERTEX
  5
9CF
  8
0
  6
CONTINUOUS
 62
     7
 10
22.62633984371309
 20
208.1680253479825
 30
0.0
  0
VERTEX
  5
9D0
  8
0
  6
CONTINUOUS
 62
     7
 10
22.63022092675543
 20
208.170079604758
 30
0.0
  0
VERTEX
  5
9D1
  8
0
  6
CONTINUOUS
 62
     7
 10
22.63414207796136
 20
208.1720521648828
 30
0.0
  0
VERTEX
  5
9D2
  8
0
  6
CONTINUOUS
 62
     7
 10
22.63810430563561
 20
208.1739383615582
 30
0.0
  0
VERTEX
  5
9D3
  8
0
  6
CONTINUOUS
 62
     7
 10
22.64210796657021
 20
208.1757349372253
 30
0.0
  0
VERTEX
  5
9D4
  8
0
  6
CONTINUOUS
 62
     7
 10
22.6461508106714
 20
208.1774442730886
 30
0.0
  0
VERTEX
  5
9D5
  8
0
  6
CONTINUOUS
 62
     7
 10
22.65022993591522
 20
208.179070160495
 30
0.0
  0
VERTEX
  5
9D6
  8
0
  6
CONTINUOUS
 62
     7
 10
22.65434244027772
 20
208.1806163907916
 30
0.0
  0
VERTEX
  5
9D7
  8
0
  6
CONTINUOUS
 62
     7
 10
22.65848542173496
 20
208.1820867553253
 30
0.0
  0
VERTEX
  5
9D8
  8
0
  6
CONTINUOUS
 62
     7
 10
22.66265597826296
 20
208.1834850454431
 30
0.0
  0
VERTEX
  5
9D9
  8
0
  6
CONTINUOUS
 62
     7
 10
22.66685120783779
 20
208.1848150524921
 30
0.0
  0
VERTEX
  5
9DA
  8
0
  6
CONTINUOUS
 62
     7
 10
22.67106820843549
 20
208.1860805678191
 30
0.0
  0
VERTEX
  5
9DB
  8
0
  6
CONTINUOUS
 62
     7
 10
22.6753040780321
 20
208.1872853827712
 30
0.0
  0
VERTEX
  5
9DC
  8
0
  6
CONTINUOUS
 62
     7
 10
22.67955591460368
 20
208.1884332886953
 30
0.0
  0
VERTEX
  5
9DD
  8
0
  6
CONTINUOUS
 62
     7
 10
22.68382081612626
 20
208.1895280769385
 30
0.0
  0
VERTEX
  5
9DE
  8
0
  6
CONTINUOUS
 62
     7
 10
22.68809588156241
 20
208.1905735388491
 30
0.0
  0
VERTEX
  5
9DF
  8
0
  6
CONTINUOUS
 62
     7
 10
22.69237876316658
 20
208.1915734665488
 30
0.0
  0
VERTEX
  5
9E0
  8
0
  6
CONTINUOUS
 62
     7
 10
22.69666858708336
 20
208.1925316542194
 30
0.0
  0
VERTEX
  5
9E1
  8
0
  6
CONTINUOUS
 62
     7
 10
22.70096472219904
 20
208.1934518963818
 30
0.0
  0
VERTEX
  5
9E2
  8
0
  6
CONTINUOUS
 62
     7
 10
22.70526653739989
 20
208.1943379875573
 30
0.0
  0
VERTEX
  5
9E3
  8
0
  6
CONTINUOUS
 62
     7
 10
22.70957340157218
 20
208.1951937222668
 30
0.0
  0
VERTEX
  5
9E4
  8
0
  6
CONTINUOUS
 62
     7
 10
22.7138846836022
 20
208.1960228950313
 30
0.0
  0
VERTEX
  5
9E5
  8
0
  6
CONTINUOUS
 62
     7
 10
22.71819975237622
 20
208.196829300372
 30
0.0
  0
VERTEX
  5
9E6
  8
0
  6
CONTINUOUS
 62
     7
 10
22.72251797678052
 20
208.1976167328099
 30
0.0
  0
VERTEX
  5
9E7
  8
0
  6
CONTINUOUS
 62
     7
 10
22.72683872570137
 20
208.198388986866
 30
0.0
  0
VERTEX
  5
9E8
  8
0
  6
CONTINUOUS
 62
     7
 10
22.73116136802504
 20
208.1991498570613
 30
0.0
  0
VERTEX
  5
9E9
  8
0
  6
CONTINUOUS
 62
     7
 10
22.73548527263783
 20
208.199903137917
 30
0.0
  0
VERTEX
  5
9EA
  8
0
  6
CONTINUOUS
 62
     7
 10
22.739809808426
 20
208.200652623954
 30
0.0
  0
SEQEND
  5
9F6
  8
0
  6
CONTINUOUS
 62
     7
  0
POLYLINE
  5
660
  8
0
  6
CONTINUOUS
 62
     7
 66
     1
 10
0.0
 20
0.0
 30
0.0
  0
VERTEX
  5
9EB
  8
0
  6
CONTINUOUS
 62
     7
 10
28.08506558255527
 20
168.8227488634247
 30
0.0
  0
VERTEX
  5
9EC
  8
0
  6
CONTINUOUS
 62
     7
 10
28.01588915365528
 20
168.7674394783247
 30
0.0
  0
VERTEX
  5
9ED
  8
0
  6
CONTINUOUS
 62
     7
 10
27.96057988495528
 20
168.6982645628247
 30
0.0
  0
SEQEND
  5
9F7
  8
0
  6
CONTINUOUS
 62
     7
  0
POLYLINE
  5
661
  8
0
  6
CONTINUOUS
 62
     7
 66
     1
 10
0.0
 20
0.0
 30
0.0
  0
VERTEX
  5
9EE
  8
0
  6
CONTINUOUS
 62
     7
 10
28.08506558255527
 20
185.8227488634247
 30
0.0
  0
VERTEX
  5
9EF
  8
0
  6
CONTINUOUS
 62
     7
 10
28.01588915365528
 20
185.7674394783247
 30
0.0
  0
VERTEX
  5
9F0
  8
0
  6
CONTINUOUS
 62
     7
 10
27.96057988495528
 20
185.6982645628247
 30
0.0
  0
SEQEND
  5
9F8
  8
0
  6
CONTINUOUS
 62
     7
  0
POLYLINE
  5
662
  8
0
  6
CONTINUOUS
 62
     7
 66
     1
 10
0.0
 20
0.0
 30
0.0
  0
VERTEX
  5
9F1
  8
0
  6
CONTINUOUS
 62
     7
 10
28.08506558255527
 20
177.3227488634247
 30
0.0
  0
VERTEX
  5
9F2
  8
0
  6
CONTINUOUS
 62
     7
 10
28.01588915365528
 20
177.2674394783247
 30
0.0
  0
VERTEX
  5
9F3
  8
0
  6
CONTINUOUS
 62
     7
 10
27.96057988495528
 20
177.1982645628247
 30
0.0
  0
SEQEND
  5
9F9
  8
0
  6
CONTINUOUS
 62
     7
  0
ENDSEC
  0
EOF
