  0
SECTION
  2
HEADER
  9
$ACADVER
  1
AC1014
  9
$ACADMAINTVER
 70
             0
  9
$DWGCODEPAGE
  3
ANSI_1252
  9
$INSBASE
 10
0.0
 20
0.0
 30
0.0
  9
$EXTMIN
 10
1.00000000000000E+20
 20
1.00000000000000E+20
 30
1.00000000000000E+20
  9
$EXTMAX
 10
-1.00000000000000E+20
 20
-1.00000000000000E+20
 30
-1.00000000000000E+20
  9
$LIMMIN
 10
0.0
 20
0.0
  9
$LIMMAX
 10
0.0
 20
0.0
  9
$ORTHOMODE
 70
             0
  9
$REGENMODE
 70
             1
  9
$FILLMODE
 70
             1
  9
$QTEXTMODE
 70
             0
  9
$MIRRTEXT
 70
             1
  9
$DRAGMODE
 70
             2
  9
$LTSCALE
 40
1.0
  9
$OSMODE
 70
             0
  9
$ATTMODE
 70
             1
  9
$TEXTSIZE
 40
0.2
  9
$TRACEWID
 40
0.05
  9
$TEXTSTYLE
  7
STANDARD
  9
$CLAYER
  8
0
  9
$CELTYPE
  6
CONTINUOUS
  9
$CECOLOR
 62
           256
  9
$CELTSCALE
 40
1.0
  9
$DELOBJ
 70
             1
  9
$DISPSILH
 70
             0
  9
$DIMSCALE
 40
1.0
  9
$DIMASZ
 40
0.18
  9
$DIMEXO
 40
0.0625
  9
$DIMDLI
 40
0.38
  9
$DIMRND
 40
0.0
  9
$DIMDLE
 40
0.0
  9
$DIMEXE
 40
0.18
  9
$DIMTP
 40
0.0
  9
$DIMTM
 40
0.0
  9
$DIMTXT
 40
0.18
  9
$DIMCEN
 40
0.09
  9
$DIMTSZ
 40
0.0
  9
$DIMTOL
 70
             0
  9
$DIMLIM
 70
             0
  9
$DIMTIH
 70
             1
  9
$DIMTOH
 70
             1
  9
$DIMSE1
 70
             0
  9
$DIMSE2
 70
             0
  9
$DIMTAD
 70
             0
  9
$DIMZIN
 70
             0
  9
$DIMBLK
  1

  9
$DIMASO
 70
             1
  9
$DIMSHO
 70
             1
  9
$DIMPOST
  1

  9
$DIMAPOST
  1

  9
$DIMALT
 70
             0
  9
$DIMALTD
 70
             2
  9
$DIMALTF
 40
25.4
  9
$DIMLFAC
 40
1.0
  9
$DIMTOFL
 70
             0
  9
$DIMTVP
 40
0.0
  9
$DIMTIX
 70
             0
  9
$DIMSOXD
 70
             0
  9
$DIMSAH
 70
             0
  9
$DIMBLK1
  1

  9
$DIMBLK2
  1

  9
$DIMSTYLE
  2
STANDARD
  9
$DIMCLRD
 70
             0
  9
$DIMCLRE
 70
             0
  9
$DIMCLRT
 70
             0
  9
$DIMTFAC
 40
1.0
  9
$DIMGAP
 40
0.09
  9
$DIMJUST
 70
             0
  9
$DIMSD1
 70
             0
  9
$DIMSD2
 70
             0
  9
$DIMTOLJ
 70
             1
  9
$DIMTZIN
 70
             0
  9
$DIMALTZ
 70
             0
  9
$DIMALTTZ
 70
             0
  9
$DIMFIT
 70
             3
  9
$DIMUPT
 70
             0
  9
$DIMUNIT
 70
             2
  9
$DIMDEC
 70
             4
  9
$DIMTDEC
 70
             4
  9
$DIMALTU
 70
             2
  9
$DIMALTTD
 70
             2
  9
$DIMTXSTY
  7
STANDARD
  9
$DIMAUNIT
 70
             0
  9
$LUNITS
 70
             2
  9
$LUPREC
 70
             4
  9
$SKETCHINC
 40
0.1
  9
$FILLETRAD
 40
0.0
  9
$AUNITS
 70
             0
  9
$AUPREC
 70
             0
  9
$MENU
  1
acad
  9
$ELEVATION
 40
0.0
  9
$PELEVATION
 40
0.0
  9
$THICKNESS
 40
0.0
  9
$LIMCHECK
 70
             0
  9
$BLIPMODE
 70
             1
  9
$CHAMFERA
 40
0.0
  9
$CHAMFERB
 40
0.0
  9
$CHAMFERC
 40
0.0
  9
$CHAMFERD
 40
0.0
  9
$SKPOLY
 70
             0
  9
$TDCREATE
 40
0.000000000
  9
$TDUPDATE
 40
0.000000000
  9
$TDINDWG
 40
0.0000000000
  9
$TDUSRTIMER
 40
0.0000000000
  9
$USRTIMER
 70
             1
  9
$ANGBASE
 50
0.0
  9
$ANGDIR
 70
             0
  9
$PDMODE
 70
             0
  9
$PDSIZE
 40
0.0
  9
$PLINEWID
 40
0.0
  9
$COORDS
 70
             0
  9
$SPLFRAME
 70
             0
  9
$SPLINETYPE
 70
             6
  9
$SPLINESEGS
 70
             8
  9
$ATTDIA
 70
             0
  9
$ATTREQ
 70
             1
  9
$HANDLING
 70
             1
  9
$HANDSEED
  5
1B1
  9
$SURFTAB1
 70
             6
  9
$SURFTAB2
 70
             6
  9
$SURFTYPE
 70
             6
  9
$SURFU
 70
             6
  9
$SURFV
 70
             6
  9
$UCSNAME
  2

  9
$UCSORG
 10
0.0
 20
0.0
 30
0.0
  9
$UCSXDIR
 10
1.0
 20
0.0
 30
0.0
  9
$UCSYDIR
 10
0.0
 20
1.0
 30
0.0
  9
$PUCSNAME
  2

  9
$PUCSORG
 10
0.0
 20
0.0
 30
0.0
  9
$PUCSXDIR
 10
1.0
 20
0.0
 30
0.0
  9
$PUCSYDIR
 10
0.0
 20
1.0
 30
0.0
  9
$USERI1
 70
             0
  9
$USERI2
 70
             0
  9
$USERI3
 70
             0
  9
$USERI4
 70
             0
  9
$USERI5
 70
             0
  9
$USERR1
 40
11.6
  9
$USERR2
 40
0.0
  9
$USERR3
 40
0.0
  9
$USERR4
 40
0.0
  9
$USERR5
 40
0.0
  9
$WORLDVIEW
 70
             1
  9
$SHADEDGE
 70
             3
  9
$SHADEDIF
 70
            70
  9
$TILEMODE
 70
             1
  9
$MAXACTVP
 70
            16
  9
$PINSBASE
 10
0.0
 20
0.0
 30
0.0
  9
$PLIMCHECK
 70
             0
  9
$PEXTMIN
 10
1.00000000000000E+20
 20
1.00000000000000E+20
 30
1.00000000000000E+20
  9
$PEXTMAX
 10
-1.00000000000000E+20
 20
-1.00000000000000E+20
 30
-1.00000000000000E+20
  9
$PLIMMIN
 10
0.0
 20
0.0
  9
$PLIMMAX
 10
12.0
 20
9.0
  9
$UNITMODE
 70
             0
  9
$VISRETAIN
 70
             0
  9
$PLINEGEN
 70
             1
  9
$PSLTSCALE
 70
             0
  9
$TREEDEPTH
 70
          3020
  9
$PICKSTYLE
 70
             1
  9
$CMLSTYLE
  2
STANDARD
  9
$CMLJUST
 70
             0
  9
$CMLSCALE
 40
1.0
  9
$PROXYGRAPHICS
 70
             0
  9
$MEASUREMENT
 70
             1
  0
ENDSEC
  0
SECTION
  2
CLASSES
  0
CLASS
  1
LWPOLYLINE
  2
AcDbPolyline
  3
"AutoCAD"
 90
        0
280
             0
281
             1
  0
CLASS
  1
IMAGE
  2
AcDbRasterImage
  3
ISM
 90
      127
280
             0
281
             1
  0
CLASS
  1
OLE2FRAME
  2
AcDbOle2Frame
  3
""
 90
        0
280
             0
281
             1
  0
CLASS
  1
HATCH
  2
AcDbHatch
  3
"ACAD_SEDONA"
 90
        0
280
             0
281
             1
  0
CLASS
  1
DICTIONARYVAR
  2
AcDbDictionaryVar
  3
"AutoCAD"
 90
        0
280
             0
281
             0
  0
CLASS
  1
RASTERVARIABLES
  2
AcDbRasterVariables
  3
ISM
 90
        0
280
             0
281
             0
  0
CLASS
  1
IMAGEDEF
  2
AcDbRasterImageDef
  3
ISM
 90
        0
280
             0
281
             0
  0
CLASS
  1
IMAGEDEF_REACTOR
  2
AcDbRasterImageDefReactor
  3
ISM
 90
        1
280
             0
281
             0
  0
CLASS
  1
IDBUFFER
  2
AcDbIdBuffer
  3
"Acad"
 90
        0
280
             0
281
             0
  0
CLASS
  1
SPATIAL_FILTER
  2
AcDbSpatialFilter
  3
"Acad"
 90
        0
280
             0
281
             0
  0
CLASS
  1
XRECORD
  2
AcDbXrecord
  3
"<Built In>"
 90
        0
280
             0
281
             0
  0
CLASS
  1
SORTENTSTABLE
  2
AcDbSortentsTable
  3
"AutoCAD"
 90
        0
280
             0
281
             0
  0
CLASS
  1
LAYER_INDEX
  2
AcDbLayerIndex
  3
"Acad"
 90
        0
280
             0
281
             0
  0
CLASS
  1
SPATIAL_INDEX
  2
AcDbSpatialIndex
  3
"Acad"
 90
        0
280
             0
281
             0
  0
CLASS
  1
OBJECT_PTR
  2
CAseDLPNTableRecord
  3
"ASE-LPNTableRecord"
 90
        1
280
             0
281
             0
  0
CLASS
  1
LAYOUT
  2
AcDbLayout
  3
"AutoCAD 2000"
 90
        1
280
             0
281
             0
  0
CLASS
  1
PLOTSETTINGS
  2
AcDbPlotSettings
  3
"AutoCAD 2000"
 90
        1
280
             0
281
             0
  0
CLASS
  1
ACDBDICTIONARYWDFLT
  2
AcDbDictionaryWithDefault
  3
"AutoCAD 2000"
 90
        1
280
             0
281
             0
  0
CLASS
  1
ACDBPLACEHOLDER
  2
AcDbPlaceHolder
  3
"AutoCAD 2000"
 90
        1
280
             0
281
             0
  0
ENDSEC
  0
SECTION
  2
TABLES
  0
TABLE
  2
VPORT
  5
7
100
AcDbSymbolTable
 70
             1
  0
VPORT
  5
15
100
AcDbSymbolTableRecord
100
AcDbViewportTableRecord
  2
*ACTIVE
 70
             0
 10
0.0
 20
0.0
 11
1.0
 21
1.0
 12
5611.5599999999995
 22
2183.7495737238469
 13
0.0
 23
0.0
 14
1.0
 24
1.0
 15
0.0
 25
0.0
 16
0.0
 26
0.0
 36
1.0
 17
0.0
 27
0.0
 37
0.0
 40
131.16167130919189
 41
1.60267857142857
 42
50.0
 43
0.0
 44
0.0
 50
0.0
 51
0.0
 71
             0
 72
           100
 73
             1
 74
             1
 75
             0
 76
             0
 77
             0
 78
             0
  0
ENDTAB
  0
TABLE
  2
LTYPE
  5
4
100
AcDbSymbolTable
 70
            10
  0
LTYPE
  5
11
100
AcDbSymbolTableRecord
100
AcDbLinetypeTableRecord
  2
BYBLOCK
 70
            64
  3

 72
            65
 73
             0
 40
0.0
  0
LTYPE
  5
12
100
AcDbSymbolTableRecord
100
AcDbLinetypeTableRecord
  2
BYLAYER
 70
            64
  3

 72
            65
 73
             0
 40
0.0
  0
LTYPE
  5
13
100
AcDbSymbolTableRecord
100
AcDbLinetypeTableRecord
  2
CONTINUOUS
 70
            64
  3
Solid line
 72
            65
 73
             0
 40
0.0
  0
LTYPE
  5
1D
100
AcDbSymbolTableRecord
100
AcDbLinetypeTableRecord
  2
DASHED
 70
            64
  3
Dashed
 72
            65
 73
             2
 40
15.0
 49
12.0
 74
             0
 49
-3.0
 74
             0
  0
LTYPE
  5
1E
100
AcDbSymbolTableRecord
100
AcDbLinetypeTableRecord
  2
DOTTED
 70
            64
  3
Dotted
 72
            65
 73
             2
 40
3.5
 49
0.5
 74
             0
 49
-3.0
 74
             0
  0
LTYPE
  5
1F
100
AcDbSymbolTableRecord
100
AcDbLinetypeTableRecord
  2
DOT_CENTER
 70
            64
  3
Dot_Center
 72
            65
 73
             4
 40
2.0
 49
1.25
 74
             0
 49
-0.25
 74
             0
 49
0.25
 74
             0
 49
-0.25
 74
             0
  0
LTYPE
  5
20
100
AcDbSymbolTableRecord
100
AcDbLinetypeTableRecord
  2
LONG_DASHED
 70
            64
  3
Long_Dashed
 72
            65
 73
             2
 40
2.0
 49
1.5
 74
             0
 49
-0.5
 74
             0
  0
LTYPE
  5
21
100
AcDbSymbolTableRecord
100
AcDbLinetypeTableRecord
  2
DASH_CENTER
 70
            64
  3
Dash_Center
 72
            65
 73
             4
 40
36.0
 49
24.0
 74
             0
 49
-3.0
 74
             0
 49
6.0
 74
             0
 49
-3.0
 74
             0
  0
LTYPE
  5
22
100
AcDbSymbolTableRecord
100
AcDbLinetypeTableRecord
  2
PHANTOM
 70
            64
  3
Phantom
 72
            65
 73
             6
 40
2.5
 49
1.25
 74
             0
 49
-0.25
 74
             0
 49
0.25
 74
             0
 49
-0.25
 74
             0
 49
0.25
 74
             0
 49
-0.25
 74
             0
  0
LTYPE
  5
23
100
AcDbSymbolTableRecord
100
AcDbLinetypeTableRecord
  2
CENTER_DASH_DASH
 70
            64
  3
Center_Dash_Dash
 72
            65
 73
             6
 40
22.0
 49
12.0
 74
             0
 49
-3.0
 74
             0
 49
0.5
 74
             0
 49
-3.0
 74
             0
 49
0.5
 74
             0
 49
-3.0
 74
             0
  0
ENDTAB
  0
TABLE
  2
LAYER
  5
2
100
AcDbSymbolTable
 70
             2
  0
LAYER
  5
14
100
AcDbSymbolTableRecord
100
AcDbLayerTableRecord
  2
0
 70
             0
 62
             7
  6
CONTINUOUS
  0
LAYER
  5
24
100
AcDbSymbolTableRecord
100
AcDbLayerTableRecord
  2
1
 70
             0
 62
             7
  6
CONTINUOUS
  0
ENDTAB
  0
TABLE
  2
STYLE
  5
3
100
AcDbSymbolTable
 70
             1
  0
STYLE
  5
17
100
AcDbSymbolTableRecord
100
AcDbTextStyleTableRecord
  2
STANDARD
 70
             0
 40
0.0
 41
1.0
 50
0.0
 71
             0
 42
0.0
  3
txt
  4

  0
ENDTAB
  0
TABLE
  2
VIEW
  5
5
100
AcDbSymbolTable
 70
             0
  0
ENDTAB
  0
TABLE
  2
UCS
  5
6
100
AcDbSymbolTable
 70
             0
  0
ENDTAB
  0
TABLE
  2
APPID
  5
8
100
AcDbSymbolTable
 70
             1
  0
APPID
  5
16
100
AcDbSymbolTableRecord
100
AcDbRegAppTableRecord
  2
ACAD
 70
             0
  0
ENDTAB
  0
TABLE
  2
DIMSTYLE
  5
9
100
AcDbSymbolTable
 70
             1
  0
DIMSTYLE
105
18
100
AcDbSymbolTableRecord
100
AcDbDimStyleTableRecord
  2
STANDARD
 70
             0
  3

  4

  5

  6

  7

 40
1.0
 41
0.18
 42
0.0625
 43
0.38
 44
0.18
 45
0.0
 46
0.0
 47
0.0
 48
0.0
 71
             0
 72
             0
 73
             1
 74
             1
 75
             0
 76
             0
 77
             0
 78
             0
140
0.18
141
0.09
142
0.0
143
25.4
144
1.0
145
0.0
146
1.0
147
0.09
170
             0
171
             2
172
             0
173
             0
174
             0
175
             0
176
             0
177
             0
178
             0
270
             2
271
             4
272
             4
273
             2
274
             2
275
             0
280
             0
281
             0
282
             0
283
             1
284
             0
285
             0
286
             0
287
             0
288
             0
340
17
  0
ENDTAB
  0
TABLE
  2
BLOCK_RECORD
  5
1
100
AcDbSymbolTable
 70
             0
  0
BLOCK_RECORD
  5
A
100
AcDbSymbolTableRecord
100
AcDbBlockTableRecord
  2
*MODEL_SPACE
  0
BLOCK_RECORD
  5
B
100
AcDbSymbolTableRecord
100
AcDbBlockTableRecord
  2
*PAPER_SPACE
  0
ENDTAB
  0
ENDSEC
  0
SECTION
  2
BLOCKS
  0
BLOCK
  5
D
100
AcDbEntity
  8
0
100
AcDbBlockBegin
  2
*MODEL_SPACE
 70
             0
 10
0.0
 20
0.0
 30
0.0
  3
*MODEL_SPACE
  1

  0
ENDBLK
  5
E
100
AcDbEntity
  8
0
100
AcDbBlockEnd
  0
BLOCK
  5
F
100
AcDbEntity
 67
             1
  8
0
100
AcDbBlockBegin
  2
*PAPER_SPACE
 70
             0
 10
0.0
 20
0.0
 30
0.0
  3
*PAPER_SPACE
  1

  0
ENDBLK
  5
10
100
AcDbEntity
 67
             1
  8
0
100
AcDbBlockEnd
  0
ENDSEC
  0
SECTION
  2
ENTITIES
  0
LWPOLYLINE
  5
1AF
100
AcDbEntity
  8
0
  6
CONTINUOUS
 62
             7
100
AcDbPolyline
 90
       12
 70
             1
 10
5525.4849999999997
 20
2147.7495737238469
 10
5525.4849999999997
 20
2146.5495737238471
 10
5525.4849999999997
 20
2146.5495737238471
 10
5531.4849999999997
 20
2146.5495737238471
 10
5531.4849999999997
 20
2146.5495737238471
 10
5531.4849999999997
 20
2147.7495737238469
 10
5531.4849999999997
 20
2147.7495737238469
 10
5525.4849999999997
 20
2147.7495737238469
 10
5525.4849999999997
 20
2147.7495737238469
 10
5525.4849999999997
 20
2147.7495737238469
 10
5525.4849999999997
 20
2147.7495737238469
 10
5525.4849999999997
 20
2147.7495737238469
  0
ARC
  5
1AD
100
AcDbEntity
  8
1
  6
CONTINUOUS
 62
             7
100
AcDbCircle
 10
5533.5100000000002
 20
2145.2495737238469
 40
1.0
100
AcDbArc
 50
-90.0
 51
0.0
  0
ARC
  5
1AC
100
AcDbEntity
  8
1
  6
CONTINUOUS
 62
             7
100
AcDbCircle
 10
5533.5100000000002
 20
2222.2495737238469
 40
1.0
100
AcDbArc
 50
0.0
 51
90.0
  0
ARC
  5
1AB
100
AcDbEntity
  8
1
  6
CONTINUOUS
 62
             7
100
AcDbCircle
 10
5523.5099999999993
 20
2222.2495737238469
 40
1.0
100
AcDbArc
 50
90.0
 51
180.0
  0
ARC
  5
1AA
100
AcDbEntity
  8
1
  6
CONTINUOUS
 62
             7
100
AcDbCircle
 10
5533.5100000000002
 20
2145.2495737238469
 40
1.5
100
AcDbArc
 50
-90.0
 51
0.0
  0
ARC
  5
1A9
100
AcDbEntity
  8
1
  6
CONTINUOUS
 62
             7
100
AcDbCircle
 10
5523.5099999999993
 20
2145.2495737238469
 40
0.99999999999909
100
AcDbArc
 50
180.0
 51
-90.0
  0
ARC
  5
1A8
100
AcDbEntity
  8
1
  6
CONTINUOUS
 62
             7
100
AcDbCircle
 10
5540.0100000000002
 20
2148.7495737238469
 40
1.0
100
AcDbArc
 50
-90.0
 51
0.0
  0
ARC
  5
1A7
100
AcDbEntity
  8
1
  6
CONTINUOUS
 62
             7
100
AcDbCircle
 10
5517.0100000000002
 20
2148.7495737238469
 40
1.0
100
AcDbArc
 50
180.0
 51
-90.0
  0
ARC
  5
1A6
100
AcDbEntity
  8
1
  6
CONTINUOUS
 62
             7
100
AcDbCircle
 10
5540.0100000000002
 20
2218.7495737238469
 40
1.0
100
AcDbArc
 50
0.0
 51
90.0
  0
ARC
  5
1A5
100
AcDbEntity
  8
1
  6
CONTINUOUS
 62
             7
100
AcDbCircle
 10
5518.0100000000002
 20
2135.7495737238469
 40
2.0
100
AcDbArc
 50
180.0
 51
-90.0
  0
ARC
  5
1A4
100
AcDbEntity
  8
1
  6
CONTINUOUS
 62
             7
100
AcDbCircle
 10
5539.0100000000002
 20
2135.7495737238469
 40
2.0
100
AcDbArc
 50
-90.0
 51
0.0
  0
ARC
  5
1A3
100
AcDbEntity
  8
1
  6
CONTINUOUS
 62
             7
100
AcDbCircle
 10
5576.5100000000002
 20
2218.2495737238469
 40
1.5
100
AcDbArc
 50
90.0
 51
180.0
  0
ARC
  5
1A2
100
AcDbEntity
  8
1
  6
CONTINUOUS
 62
             7
100
AcDbCircle
 10
5576.5100000000002
 20
2149.2495737238469
 40
1.5
100
AcDbArc
 50
180.0
 51
-90.0
  0
ARC
  5
1A1
100
AcDbEntity
  8
1
  6
CONTINUOUS
 62
             7
100
AcDbCircle
 10
5592.5100000000002
 20
2188.9995737238469
 40
2.5
100
AcDbArc
 50
90.0
 51
180.0
  0
ARC
  5
1A0
100
AcDbEntity
  8
1
  6
CONTINUOUS
 62
             7
100
AcDbCircle
 10
5592.5100000000002
 20
2178.4995737238469
 40
2.5
100
AcDbArc
 50
180.0
 51
-90.0
  0
ARC
  5
19F
100
AcDbEntity
  8
1
  6
CONTINUOUS
 62
             7
100
AcDbCircle
 10
5539.0100000000002
 20
2231.7495737238469
 40
2.0
100
AcDbArc
 50
0.0
 51
90.0
  0
ARC
  5
19E
100
AcDbEntity
  8
1
  6
CONTINUOUS
 62
             7
100
AcDbCircle
 10
5518.0100000000002
 20
2231.7495737238469
 40
2.0
100
AcDbArc
 50
90.0
 51
180.0
  0
ARC
  5
19D
100
AcDbEntity
  8
1
  6
CONTINUOUS
 62
             7
100
AcDbCircle
 10
5526.4600000000009
 20
2209.399573723847
 40
0.5
100
AcDbArc
 50
-90.0
 51
0.0
  0
ARC
  5
19C
100
AcDbEntity
  8
1
  6
CONTINUOUS
 62
             7
100
AcDbCircle
 10
5519.7600000000002
 20
2209.399573723847
 40
0.5
100
AcDbArc
 50
180.0
 51
-90.0
  0
ARC
  5
19B
100
AcDbEntity
  8
1
  6
CONTINUOUS
 62
             7
100
AcDbCircle
 10
5519.7600000000002
 20
2216.0995737238468
 40
0.5
100
AcDbArc
 50
90.0
 51
180.0
  0
ARC
  5
19A
100
AcDbEntity
  8
1
  6
CONTINUOUS
 62
             7
100
AcDbCircle
 10
5526.4600000000009
 20
2216.0995737238468
 40
0.5
100
AcDbArc
 50
0.0
 51
90.0
  0
ARC
  5
199
100
AcDbEntity
  8
1
  6
CONTINUOUS
 62
             7
100
AcDbCircle
 10
5537.2600000000002
 20
2209.399573723847
 40
0.5
100
AcDbArc
 50
-90.0
 51
0.0
  0
ARC
  5
198
100
AcDbEntity
  8
1
  6
CONTINUOUS
 62
             7
100
AcDbCircle
 10
5530.5600000000004
 20
2209.399573723847
 40
0.5
100
AcDbArc
 50
180.0
 51
-90.0
  0
ARC
  5
197
100
AcDbEntity
  8
1
  6
CONTINUOUS
 62
             7
100
AcDbCircle
 10
5530.5600000000004
 20
2216.0995737238468
 40
0.5
100
AcDbArc
 50
90.0
 51
180.0
  0
ARC
  5
196
100
AcDbEntity
  8
1
  6
CONTINUOUS
 62
             7
100
AcDbCircle
 10
5537.2600000000002
 20
2216.0995737238468
 40
0.5
100
AcDbArc
 50
0.0
 51
90.0
  0
ARC
  5
195
100
AcDbEntity
  8
1
  6
CONTINUOUS
 62
             7
100
AcDbCircle
 10
5537.2600000000002
 20
2197.399573723847
 40
0.5
100
AcDbArc
 50
-90.0
 51
0.0
  0
ARC
  5
194
100
AcDbEntity
  8
1
  6
CONTINUOUS
 62
             7
100
AcDbCircle
 10
5530.5600000000004
 20
2197.399573723847
 40
0.5
100
AcDbArc
 50
180.0
 51
-90.0
  0
ARC
  5
193
100
AcDbEntity
  8
1
  6
CONTINUOUS
 62
             7
100
AcDbCircle
 10
5530.5600000000004
 20
2204.0995737238468
 40
0.5
100
AcDbArc
 50
90.0
 51
180.0
  0
ARC
  5
192
100
AcDbEntity
  8
1
  6
CONTINUOUS
 62
             7
100
AcDbCircle
 10
5537.2600000000002
 20
2204.0995737238468
 40
0.5
100
AcDbArc
 50
0.0
 51
90.0
  0
ARC
  5
191
100
AcDbEntity
  8
1
  6
CONTINUOUS
 62
             7
100
AcDbCircle
 10
5526.4600000000009
 20
2197.399573723847
 40
0.5
100
AcDbArc
 50
-90.0
 51
0.0
  0
ARC
  5
190
100
AcDbEntity
  8
1
  6
CONTINUOUS
 62
             7
100
AcDbCircle
 10
5519.7600000000002
 20
2197.399573723847
 40
0.5
100
AcDbArc
 50
180.0
 51
-90.0
  0
ARC
  5
18F
100
AcDbEntity
  8
1
  6
CONTINUOUS
 62
             7
100
AcDbCircle
 10
5519.7600000000002
 20
2204.0995737238468
 40
0.5
100
AcDbArc
 50
90.0
 51
180.0
  0
ARC
  5
18E
100
AcDbEntity
  8
1
  6
CONTINUOUS
 62
             7
100
AcDbCircle
 10
5526.4600000000009
 20
2204.0995737238468
 40
0.5
100
AcDbArc
 50
0.0
 51
90.0
  0
ARC
  5
18D
100
AcDbEntity
  8
1
  6
CONTINUOUS
 62
             7
100
AcDbCircle
 10
5526.4600000000009
 20
2163.399573723847
 40
0.5
100
AcDbArc
 50
-90.0
 51
0.0
  0
ARC
  5
18C
100
AcDbEntity
  8
1
  6
CONTINUOUS
 62
             7
100
AcDbCircle
 10
5519.7600000000002
 20
2163.399573723847
 40
0.5
100
AcDbArc
 50
180.0
 51
-90.0
  0
ARC
  5
18B
100
AcDbEntity
  8
1
  6
CONTINUOUS
 62
             7
100
AcDbCircle
 10
5519.7600000000002
 20
2170.0995737238468
 40
0.5
100
AcDbArc
 50
90.0
 51
180.0
  0
ARC
  5
18A
100
AcDbEntity
  8
1
  6
CONTINUOUS
 62
             7
100
AcDbCircle
 10
5526.4600000000009
 20
2170.0995737238468
 40
0.5
100
AcDbArc
 50
0.0
 51
90.0
  0
ARC
  5
189
100
AcDbEntity
  8
1
  6
CONTINUOUS
 62
             7
100
AcDbCircle
 10
5537.2600000000002
 20
2163.399573723847
 40
0.5
100
AcDbArc
 50
-90.0
 51
0.0
  0
ARC
  5
188
100
AcDbEntity
  8
1
  6
CONTINUOUS
 62
             7
100
AcDbCircle
 10
5530.5600000000004
 20
2163.399573723847
 40
0.5
100
AcDbArc
 50
180.0
 51
-90.0
  0
ARC
  5
187
100
AcDbEntity
  8
1
  6
CONTINUOUS
 62
             7
100
AcDbCircle
 10
5530.5600000000004
 20
2170.0995737238468
 40
0.5
100
AcDbArc
 50
90.0
 51
180.0
  0
ARC
  5
186
100
AcDbEntity
  8
1
  6
CONTINUOUS
 62
             7
100
AcDbCircle
 10
5537.2600000000002
 20
2170.0995737238468
 40
0.5
100
AcDbArc
 50
0.0
 51
90.0
  0
ARC
  5
185
100
AcDbEntity
  8
1
  6
CONTINUOUS
 62
             7
100
AcDbCircle
 10
5531.8600000000006
 20
2151.399573723847
 40
0.5
100
AcDbArc
 50
-90.0
 51
0.0
  0
ARC
  5
184
100
AcDbEntity
  8
1
  6
CONTINUOUS
 62
             7
100
AcDbCircle
 10
5525.1599999999999
 20
2151.399573723847
 40
0.5
100
AcDbArc
 50
180.0
 51
-90.0
  0
ARC
  5
183
100
AcDbEntity
  8
1
  6
CONTINUOUS
 62
             7
100
AcDbCircle
 10
5525.1599999999999
 20
2158.0995737238468
 40
0.5
100
AcDbArc
 50
90.0
 51
180.0
  0
ARC
  5
182
100
AcDbEntity
  8
1
  6
CONTINUOUS
 62
             7
100
AcDbCircle
 10
5531.8600000000006
 20
2158.0995737238468
 40
0.5
100
AcDbArc
 50
0.0
 51
90.0
  0
ARC
  5
181
100
AcDbEntity
  8
1
  6
DOTTED
 62
             7
100
AcDbCircle
 10
5701.6099999999997
 20
2198.2495737238469
 40
2.0
100
AcDbArc
 50
180.0
 51
-90.0
  0
ARC
  5
180
100
AcDbEntity
  8
1
  6
DOTTED
 62
             7
100
AcDbCircle
 10
5701.6099999999997
 20
2169.2495737238469
 40
2.0
100
AcDbArc
 50
90.0
 51
180.0
  0
ARC
  5
17F
100
AcDbEntity
  8
1
  6
DOTTED
 62
             7
100
AcDbCircle
 10
5706.1099999999997
 20
2196.7495737238469
 40
1.0
100
AcDbArc
 50
0.0
 51
90.0
  0
ARC
  5
17E
100
AcDbEntity
  8
1
  6
DOTTED
 62
             7
100
AcDbCircle
 10
5706.1099999999997
 20
2170.7495737238469
 40
1.0
100
AcDbArc
 50
-90.0
 51
0.0
  0
CIRCLE
  5
17D
100
AcDbEntity
  8
1
  6
DOTTED
 62
             1
100
AcDbCircle
 10
5526.5100000000011
 20
2181.2495737238492
 40
2.49999999999942
  0
CIRCLE
  5
17C
100
AcDbEntity
  8
1
  6
CONTINUOUS
 62
             7
100
AcDbCircle
 10
5526.5100000000002
 20
2188.8495737238468
 40
2.5
  0
CIRCLE
  5
17B
100
AcDbEntity
  8
1
  6
CONTINUOUS
 62
             7
100
AcDbCircle
 10
5526.5100000000002
 20
2181.2495737238469
 40
2.5
  0
CIRCLE
  5
17A
100
AcDbEntity
  8
0
  6
CONTINUOUS
 62
             7
100
AcDbCircle
 10
5528.4849999999997
 20
2138.7495737238469
 40
2.5
  0
CIRCLE
  5
179
100
AcDbEntity
  8
0
  6
CONTINUOUS
 62
             7
100
AcDbCircle
 10
5528.4849999999997
 20
2228.7495737238469
 40
2.5
  0
CIRCLE
  5
178
100
AcDbEntity
  8
1
  6
CONTINUOUS
 62
             7
100
AcDbCircle
 10
5523.1100000000006
 20
2212.7495737238469
 40
3.35000000000036
  0
CIRCLE
  5
177
100
AcDbEntity
  8
1
  6
CONTINUOUS
 62
             7
100
AcDbCircle
 10
5533.9099999999999
 20
2212.7495737238469
 40
3.35000000000036
  0
CIRCLE
  5
176
100
AcDbEntity
  8
1
  6
CONTINUOUS
 62
             7
100
AcDbCircle
 10
5533.9099999999999
 20
2200.7495737238469
 40
3.35000000000036
  0
CIRCLE
  5
175
100
AcDbEntity
  8
1
  6
CONTINUOUS
 62
             7
100
AcDbCircle
 10
5523.1100000000006
 20
2200.7495737238469
 40
3.35000000000036
  0
CIRCLE
  5
174
100
AcDbEntity
  8
1
  6
CONTINUOUS
 62
             7
100
AcDbCircle
 10
5523.1100000000006
 20
2166.7495737238469
 40
3.35000000000036
  0
CIRCLE
  5
173
100
AcDbEntity
  8
1
  6
CONTINUOUS
 62
             7
100
AcDbCircle
 10
5533.9099999999999
 20
2166.7495737238469
 40
3.35000000000036
  0
CIRCLE
  5
172
100
AcDbEntity
  8
1
  6
CONTINUOUS
 62
             7
100
AcDbCircle
 10
5528.5100000000002
 20
2154.7495737238469
 40
3.35000000000036
  0
CIRCLE
  5
171
100
AcDbEntity
  8
0
  6
CONTINUOUS
 62
             7
100
AcDbCircle
 10
5526.5100000000002
 20
2188.849573723845
 40
1.75
  0
CIRCLE
  5
170
100
AcDbEntity
  8
0
  6
CONTINUOUS
 62
             7
100
AcDbCircle
 10
5526.5100000000002
 20
2188.849573723845
 40
1.5
  0
CIRCLE
  5
16F
100
AcDbEntity
  8
0
  6
CONTINUOUS
 62
             7
100
AcDbCircle
 10
5526.5100000000002
 20
2181.2495737238469
 40
1.5
  0
CIRCLE
  5
16E
100
AcDbEntity
  8
0
  6
CONTINUOUS
 62
             7
100
AcDbCircle
 10
5526.5100000000002
 20
2181.2495737238469
 40
1.75
  0
ARC
  5
16D
100
AcDbEntity
  8
1
  6
CONTINUOUS
 62
             7
100
AcDbCircle
 10
5523.5100000000039
 20
2145.249573723851
 40
1.50000000000455
100
AcDbArc
 50
-179.99999999984368
 51
-90.00000000017371
  0
ARC
  5
16C
100
AcDbEntity
  8
1
  6
CONTINUOUS
 62
             7
100
AcDbCircle
 10
5517.0100000000029
 20
2218.7495737238442
 40
1.00000000000273
100
AcDbArc
 50
90.00000000015633
 51
179.99999999984368
  0
ARC
  5
16B
100
AcDbEntity
  8
0
  6
CONTINUOUS
 62
             7
100
AcDbCircle
 10
5527.0600000000004
 20
2189.3995737238452
 40
0.20000000000073
100
AcDbArc
 50
180.0
 51
-90.0
  0
ARC
  5
16A
100
AcDbEntity
  8
0
  6
CONTINUOUS
 62
             7
100
AcDbCircle
 10
5527.0600000000004
 20
2188.2995737238448
 40
0.20000000000027
100
AcDbArc
 50
90.0
 51
180.0
  0
ARC
  5
169
100
AcDbEntity
  8
0
  6
CONTINUOUS
 62
             7
100
AcDbCircle
 10
5525.96
 20
2188.2995737238448
 40
0.19999999999982
100
AcDbArc
 50
0.0
 51
90.0
  0
ARC
  5
168
100
AcDbEntity
  8
0
  6
CONTINUOUS
 62
             7
100
AcDbCircle
 10
5525.96
 20
2189.3995737238452
 40
0.20000000000027
100
AcDbArc
 50
-90.0
 51
0.0
  0
ARC
  5
167
100
AcDbEntity
  8
0
  6
CONTINUOUS
 62
             7
100
AcDbCircle
 10
5525.96
 20
2181.7995737238471
 40
0.20000000000027
100
AcDbArc
 50
-90.0
 51
0.0
  0
ARC
  5
166
100
AcDbEntity
  8
0
  6
CONTINUOUS
 62
             7
100
AcDbCircle
 10
5525.96
 20
2180.6995737238472
 40
0.19999999999982
100
AcDbArc
 50
0.0
 51
90.0
  0
ARC
  5
165
100
AcDbEntity
  8
0
  6
CONTINUOUS
 62
             7
100
AcDbCircle
 10
5527.0600000000004
 20
2180.6995737238472
 40
0.19999999999982
100
AcDbArc
 50
90.0
 51
180.0
  0
ARC
  5
164
100
AcDbEntity
  8
0
  6
CONTINUOUS
 62
             7
100
AcDbCircle
 10
5527.0600000000004
 20
2181.7995737238471
 40
0.20000000000073
100
AcDbArc
 50
180.0
 51
-90.0
  0
LINE
  5
163
100
AcDbEntity
  8
0
  6
CONTINUOUS
 62
             7
100
AcDbLine
 10
5540.0100000000002
 20
2179.7495737238469
 11
5540.0100000000002
 21
2187.7495737238469
  0
LINE
  5
162
100
AcDbEntity
  8
0
  6
CONTINUOUS
 62
             7
100
AcDbLine
 10
5541.0100000000002
 20
2179.7495737238469
 11
5541.0100000000002
 21
2178.7495737238469
  0
LINE
  5
161
100
AcDbEntity
  8
1
  6
CONTINUOUS
 62
             7
100
AcDbLine
 10
5540.0100000000002
 20
2179.7495737238469
 11
5541.0100000000002
 21
2179.7495737238469
  0
LINE
  5
160
100
AcDbEntity
  8
0
  6
CONTINUOUS
 62
             7
100
AcDbLine
 10
5700.7400000000007
 20
2166.2495737238469
 11
5699.1099999999997
 21
2166.2495737238469
  0
LINE
  5
15F
100
AcDbEntity
  8
0
  6
CONTINUOUS
 62
             7
100
AcDbLine
 10
5699.1099999999997
 20
2201.2495737238469
 11
5703.0100000000002
 21
2201.2495737238469
  0
LINE
  5
15E
100
AcDbEntity
  8
0
  6
CONTINUOUS
 62
             7
100
AcDbLine
 10
5577.9099999999999
 20
2213.7495737238469
 11
5577.9099999999999
 21
2203.7495737238469
  0
LINE
  5
15D
100
AcDbEntity
  8
0
  6
CONTINUOUS
 62
             7
100
AcDbLine
 10
5576.9099999999999
 20
2213.7495737238469
 11
5576.9099999999999
 21
2210.7495737238469
  0
LINE
  5
15C
100
AcDbEntity
  8
0
  6
CONTINUOUS
 62
             7
100
AcDbLine
 10
5577.9099999999999
 20
2163.7495737238469
 11
5577.9099999999999
 21
2153.7495737238469
  0
LINE
  5
15B
100
AcDbEntity
  8
0
  6
CONTINUOUS
 62
             7
100
AcDbLine
 10
5576.9099999999999
 20
2156.7495737238469
 11
5576.9099999999999
 21
2153.7495737238469
  0
LINE
  5
15A
100
AcDbEntity
  8
0
  6
CONTINUOUS
 62
             7
100
AcDbLine
 10
5701.1599999999999
 20
2168.3495737238468
 11
5700.7400000000007
 21
2166.2495737238469
  0
LINE
  5
159
100
AcDbEntity
  8
0
  6
CONTINUOUS
 62
             7
100
AcDbLine
 10
5703.0100000000002
 20
2205.7495737238469
 11
5703.0100000000002
 21
2201.2495737238469
  0
LINE
  5
158
100
AcDbEntity
  8
1
  6
CONTINUOUS
 62
             7
100
AcDbLine
 10
5696.0100000000002
 20
2205.7495737238469
 11
5703.0100000000002
 21
2205.7495737238469
  0
LINE
  5
157
100
AcDbEntity
  8
1
  6
CONTINUOUS
 62
             7
100
AcDbLine
 10
5696.0100000000002
 20
2219.7495737238469
 11
5696.0100000000002
 21
2205.7495737238469
  0
LINE
  5
156
100
AcDbEntity
  8
1
  6
CONTINUOUS
 62
             7
100
AcDbLine
 10
5519.0100000000002
 20
2193.2495737238469
 11
5522.8100000000004
 21
2193.2495737238469
  0
LINE
  5
155
100
AcDbEntity
  8
1
  6
CONTINUOUS
 62
             7
100
AcDbLine
 10
5538.0100000000002
 20
2174.2495737238469
 11
5530.4099999999999
 21
2174.2495737238469
  0
LINE
  5
154
100
AcDbEntity
  8
1
  6
CONTINUOUS
 62
             7
100
AcDbLine
 10
5519.0100000000002
 20
2174.2495737238469
 11
5519.0100000000002
 21
2179.2495737238469
  0
LINE
  5
153
100
AcDbEntity
  8
1
  6
CONTINUOUS
 62
             7
100
AcDbLine
 10
5519.0100000000002
 20
2189.7495737238469
 11
5519.0100000000002
 21
2193.2495737238469
  0
LINE
  5
152
100
AcDbEntity
  8
1
  6
CONTINUOUS
 62
             7
100
AcDbLine
 10
5522.8100000000004
 20
2193.2495737238469
 11
5533.9099999999999
 21
2193.2495737238469
  0
LINE
  5
151
100
AcDbEntity
  8
1
  6
CONTINUOUS
 62
             7
100
AcDbLine
 10
5519.0100000000002
 20
2188.7495737238469
 11
5519.0100000000002
 21
2189.7495737238469
  0
LINE
  5
150
100
AcDbEntity
  8
1
  6
CONTINUOUS
 62
             7
100
AcDbLine
 10
5519.0100000000002
 20
2185.2495737238469
 11
5519.0100000000002
 21
2188.7495737238469
  0
LINE
  5
14F
100
AcDbEntity
  8
1
  6
CONTINUOUS
 62
             7
100
AcDbLine
 10
5519.0100000000002
 20
2184.2495737238469
 11
5519.0100000000002
 21
2185.2495737238469
  0
LINE
  5
14E
100
AcDbEntity
  8
1
  6
CONTINUOUS
 62
             7
100
AcDbLine
 10
5519.0100000000002
 20
2179.2495737238469
 11
5519.0100000000002
 21
2184.2495737238469
  0
LINE
  5
14D
100
AcDbEntity
  8
1
  6
CONTINUOUS
 62
             7
100
AcDbLine
 10
5538.0100000000002
 20
2179.2495737238469
 11
5538.0100000000002
 21
2174.2495737238469
  0
LINE
  5
14C
100
AcDbEntity
  8
1
  6
CONTINUOUS
 62
             7
100
AcDbLine
 10
5525.7636433515599
 20
2183.7401462993889
 11
5525.7636433516018
 21
2183.740146299258
  0
LINE
  5
14B
100
AcDbEntity
  8
1
  6
CONTINUOUS
 62
             7
100
AcDbLine
 10
5526.3100000000004
 20
2174.2495737238469
 11
5519.0100000000002
 21
2174.2495737238469
  0
LINE
  5
14A
100
AcDbEntity
  8
1
  6
CONTINUOUS
 62
             7
100
AcDbLine
 10
5530.4099999999999
 20
2174.2495737238469
 11
5526.3100000000004
 21
2174.2495737238469
  0
LINE
  5
149
100
AcDbEntity
  8
1
  6
CONTINUOUS
 62
             7
100
AcDbLine
 10
5534.5100000000002
 20
2222.2495737238469
 11
5534.5100000000002
 21
2219.7495737238469
  0
LINE
  5
148
100
AcDbEntity
  8
0
  6
CONTINUOUS
 62
             7
100
AcDbLine
 10
5533.5100000000002
 20
2223.2495737238469
 11
5523.5099999999993
 21
2223.2495737238469
  0
LINE
  5
147
100
AcDbEntity
  8
1
  6
CONTINUOUS
 62
             7
100
AcDbLine
 10
5522.5100000000002
 20
2222.2495737238469
 11
5522.5100000000002
 21
2219.7495737238469
  0
LINE
  5
146
100
AcDbEntity
  8
0
  6
CONTINUOUS
 62
             7
100
AcDbLine
 10
5527.71
 20
2219.7495737238469
 11
5529.3100000000004
 21
2219.7495737238469
  0
LINE
  5
145
100
AcDbEntity
  8
0
  6
CONTINUOUS
 62
             7
100
AcDbLine
 10
5523.5099999999993
 20
2144.2495737238469
 11
5533.5100000000002
 21
2144.2495737238469
  0
LINE
  5
144
100
AcDbEntity
  8
1
  6
CONTINUOUS
 62
             7
100
AcDbLine
 10
5534.5100000000002
 20
2147.7495737238469
 11
5534.5100000000002
 21
2145.2495737238469
  0
LINE
  5
143
100
AcDbEntity
  8
0
  6
CONTINUOUS
 62
             7
100
AcDbLine
 10
5523.5099999999993
 20
2143.7495737238469
 11
5533.5100000000002
 21
2143.7495737238469
  0
LINE
  5
142
100
AcDbEntity
  8
0
  6
CONTINUOUS
 62
             7
100
AcDbLine
 10
5522.0099999999993
 20
2147.7495737238469
 11
5517.0100000000002
 21
2147.7495737238469
  0
LINE
  5
141
100
AcDbEntity
  8
1
  6
CONTINUOUS
 62
             7
100
AcDbLine
 10
5522.0099999999993
 20
2147.7495737238469
 11
5522.0099999999993
 21
2145.2495737238469
  0
LINE
  5
140
100
AcDbEntity
  8
0
  6
CONTINUOUS
 62
             7
100
AcDbLine
 10
5522.5100000000002
 20
2147.7495737238469
 11
5522.0099999999993
 21
2147.7495737238469
  0
LINE
  5
13F
100
AcDbEntity
  8
1
  6
CONTINUOUS
 62
             7
100
AcDbLine
 10
5522.5100000000002
 20
2147.7495737238469
 11
5522.5100000000002
 21
2145.2495737238469
  0
LINE
  5
13E
100
AcDbEntity
  8
0
  6
CONTINUOUS
 62
             7
100
AcDbLine
 10
5534.5100000000002
 20
2147.7495737238469
 11
5522.5100000000002
 21
2147.7495737238469
  0
LINE
  5
13D
100
AcDbEntity
  8
0
  6
CONTINUOUS
 62
             7
100
AcDbLine
 10
5535.0100000000002
 20
2147.7495737238469
 11
5534.5100000000002
 21
2147.7495737238469
  0
LINE
  5
13C
100
AcDbEntity
  8
1
  6
CONTINUOUS
 62
             7
100
AcDbLine
 10
5535.0100000000002
 20
2147.7495737238469
 11
5535.0100000000002
 21
2145.2495737238469
  0
LINE
  5
13B
100
AcDbEntity
  8
0
  6
CONTINUOUS
 62
             7
100
AcDbLine
 10
5600.0100000000002
 20
2191.4995737238469
 11
5600.0100000000002
 21
2175.9995737238469
  0
LINE
  5
136
100
AcDbEntity
  8
0
  6
CONTINUOUS
 62
             7
100
AcDbLine
 10
5600.0100000000002
 20
2180.2495737238469
 11
5597.0100000000002
 21
2180.2495737238469
  0
LINE
  5
135
100
AcDbEntity
  8
0
  6
CONTINUOUS
 62
             7
100
AcDbLine
 10
5597.0100000000002
 20
2187.2495737238469
 11
5600.0100000000002
 21
2187.2495737238469
  0
LINE
  5
134
100
AcDbEntity
  8
0
  6
CONTINUOUS
 62
             7
100
AcDbLine
 10
5703.0100000000002
 20
2233.7495737238469
 11
5703.0100000000002
 21
2205.7495737238469
  0
LINE
  5
133
100
AcDbEntity
  8
0
  6
CONTINUOUS
 62
             7
100
AcDbLine
 10
5696.0100000000002
 20
2219.7495737238469
 11
5696.0100000000002
 21
2233.7495737238469
  0
LINE
  5
132
100
AcDbEntity
  8
0
  6
CONTINUOUS
 62
             7
100
AcDbLine
 10
5696.0100000000002
 20
2233.7495737238469
 11
5703.0100000000002
 21
2233.7495737238469
  0
LINE
  5
131
100
AcDbEntity
  8
0
  6
CONTINUOUS
 62
             7
100
AcDbLine
 10
5696.0100000000002
 20
2133.7495737238469
 11
5703.0100000000002
 21
2133.7495737238469
  0
LINE
  5
130
100
AcDbEntity
  8
0
  6
CONTINUOUS
 62
             7
100
AcDbLine
 10
5696.0100000000002
 20
2161.774573723847
 11
5696.0100000000002
 21
2133.7495737238469
  0
LINE
  5
12F
100
AcDbEntity
  8
0
  6
CONTINUOUS
 62
             7
100
AcDbLine
 10
5703.0100000000002
 20
2161.7495737238469
 11
5696.0100000000002
 21
2161.7495737238469
  0
LINE
  5
12E
100
AcDbEntity
  8
0
  6
CONTINUOUS
 62
             7
100
AcDbLine
 10
5518.0100000000002
 20
2133.7495737238469
 11
5539.0100000000002
 21
2133.7495737238469
  0
LINE
  5
12D
100
AcDbEntity
  8
0
  6
CONTINUOUS
 62
             7
100
AcDbLine
 10
5541.0100000000002
 20
2135.7495737238469
 11
5541.0100000000002
 21
2148.7495737238469
  0
LINE
  5
12C
100
AcDbEntity
  8
0
  6
CONTINUOUS
 62
             7
100
AcDbLine
 10
5516.0100000000002
 20
2148.7495737238469
 11
5516.0100000000002
 21
2135.7495737238469
  0
LINE
  5
12B
100
AcDbEntity
  8
0
  6
CONTINUOUS
 62
             7
100
AcDbLine
 10
5541.0100000000002
 20
2231.7495737238469
 11
5541.0100000000002
 21
2218.7495737238469
  0
LINE
  5
12A
100
AcDbEntity
  8
0
  6
CONTINUOUS
 62
             7
100
AcDbLine
 10
5518.0100000000002
 20
2233.7495737238469
 11
5539.0100000000002
 21
2233.7495737238469
  0
LINE
  5
129
100
AcDbEntity
  8
0
  6
CONTINUOUS
 62
             7
100
AcDbLine
 10
5516.0100000000002
 20
2218.7495737238469
 11
5516.0100000000002
 21
2231.7495737238469
  0
LINE
  5
128
100
AcDbEntity
  8
0
  6
CONTINUOUS
 62
             7
100
AcDbLine
 10
5702.4099999999999
 20
2168.3495737238468
 11
5703.0100000000002
 21
2166.3495737238468
  0
LINE
  5
127
100
AcDbEntity
  8
0
  6
CONTINUOUS
 62
             7
100
AcDbLine
 10
5701.1599999999999
 20
2168.3495737238468
 11
5702.4099999999999
 21
2168.3495737238468
  0
LINE
  5
126
100
AcDbEntity
  8
0
  6
CONTINUOUS
 62
             7
100
AcDbLine
 10
5701.1599999999999
 20
2199.2495737238469
 11
5700.7600000000002
 21
2201.2495737238469
  0
LINE
  5
125
100
AcDbEntity
  8
0
  6
CONTINUOUS
 62
             7
100
AcDbLine
 10
5702.4099999999999
 20
2199.2495737238469
 11
5703.0100000000002
 21
2201.2495737238469
  0
LINE
  5
124
100
AcDbEntity
  8
0
  6
CONTINUOUS
 62
             7
100
AcDbLine
 10
5701.1599999999999
 20
2199.2495737238469
 11
5702.4099999999999
 21
2199.2495737238469
  0
LINE
  5
123
100
AcDbEntity
  8
0
  6
CONTINUOUS
 62
             7
100
AcDbLine
 10
5703.0100000000002
 20
2166.3495737238468
 11
5703.0100000000002
 21
2166.2495737238469
  0
LINE
  5
122
100
AcDbEntity
  8
0
  6
CONTINUOUS
 62
             7
100
AcDbLine
 10
5699.1099999999997
 20
2166.2495737238469
 11
5699.1099999999997
 21
2201.2495737238469
  0
LINE
  5
121
100
AcDbEntity
  8
0
  6
CONTINUOUS
 62
             7
100
AcDbLine
 10
5597.0100000000002
 20
2180.2495737238469
 11
5597.0100000000002
 21
2187.2495737238469
  0
LINE
  5
120
100
AcDbEntity
  8
0
  6
CONTINUOUS
 62
             7
100
AcDbLine
 10
5590.0100000000002
 20
2178.4995737238469
 11
5590.0100000000002
 21
2179.7495737238469
  0
LINE
  5
11F
100
AcDbEntity
  8
0
  6
CONTINUOUS
 62
             7
100
AcDbLine
 10
5592.5100000000002
 20
2191.4995737238469
 11
5600.0100000000002
 21
2191.4995737238469
  0
LINE
  5
11E
100
AcDbEntity
  8
0
  6
CONTINUOUS
 62
             7
100
AcDbLine
 10
5575.0100000000002
 20
2210.7495737238469
 11
5575.0100000000002
 21
2218.2495737238469
  0
LINE
  5
11D
100
AcDbEntity
  8
0
  6
CONTINUOUS
 62
             7
100
AcDbLine
 10
5575.0100000000002
 20
2183.7495737238469
 11
5575.0100000000002
 21
2178.7495737238469
  0
LINE
  5
11C
100
AcDbEntity
  8
0
  6
CONTINUOUS
 62
             7
100
AcDbLine
 10
5576.9099999999999
 20
2153.7495737238469
 11
5577.9099999999999
 21
2153.7495737238469
  0
LINE
  5
11B
100
AcDbEntity
  8
0
  6
CONTINUOUS
 62
             7
100
AcDbLine
 10
5576.9099999999999
 20
2213.7495737238469
 11
5577.9099999999999
 21
2213.7495737238469
  0
LINE
  5
11A
100
AcDbEntity
  8
0
  6
CONTINUOUS
 62
             7
100
AcDbLine
 10
5575.0100000000002
 20
2156.7495737238469
 11
5576.9099999999999
 21
2156.7495737238469
  0
LINE
  5
119
100
AcDbEntity
  8
0
  6
CONTINUOUS
 62
             7
100
AcDbLine
 10
5575.0100000000002
 20
2163.7495737238469
 11
5577.9099999999999
 21
2163.7495737238469
  0
LINE
  5
118
100
AcDbEntity
  8
0
  6
CONTINUOUS
 62
             7
100
AcDbLine
 10
5575.0100000000002
 20
2210.7495737238469
 11
5576.9099999999999
 21
2210.7495737238469
  0
LINE
  5
117
100
AcDbEntity
  8
0
  6
CONTINUOUS
 62
             7
100
AcDbLine
 10
5575.0100000000002
 20
2203.7495737238469
 11
5577.9099999999999
 21
2203.7495737238469
  0
LINE
  5
116
100
AcDbEntity
  8
0
  6
CONTINUOUS
 62
             7
100
AcDbLine
 10
5600.0100000000002
 20
2219.7495737238469
 11
5600.0100000000002
 21
2191.4995737238469
  0
LINE
  5
115
100
AcDbEntity
  8
0
  6
CONTINUOUS
 62
             7
100
AcDbLine
 10
5538.5100000000002
 20
2156.7495737238469
 11
5541.0100000000002
 21
2156.7495737238469
  0
LINE
  5
114
100
AcDbEntity
  8
0
  6
CONTINUOUS
 62
             7
100
AcDbLine
 10
5516.0100000000002
 20
2156.7495737238469
 11
5518.5100000000002
 21
2156.7495737238469
  0
LINE
  5
113
100
AcDbEntity
  8
0
  6
CONTINUOUS
 62
             7
100
AcDbLine
 10
5538.5100000000002
 20
2210.7495737238469
 11
5541.0100000000002
 21
2210.7495737238469
  0
LINE
  5
112
100
AcDbEntity
  8
0
  6
CONTINUOUS
 62
             7
100
AcDbLine
 10
5516.0100000000002
 20
2210.7495737238469
 11
5518.5100000000002
 21
2210.7495737238469
  0
LINE
  5
111
100
AcDbEntity
  8
0
  6
CONTINUOUS
 62
             7
100
AcDbLine
 10
5538.5100000000002
 20
2163.7495737238469
 11
5541.0100000000002
 21
2163.7495737238469
  0
LINE
  5
110
100
AcDbEntity
  8
0
  6
CONTINUOUS
 62
             7
100
AcDbLine
 10
5538.5100000000002
 20
2203.7495737238469
 11
5541.0100000000002
 21
2203.7495737238469
  0
LINE
  5
10F
100
AcDbEntity
  8
0
  6
CONTINUOUS
 62
             7
100
AcDbLine
 10
5516.0100000000002
 20
2163.7495737238469
 11
5518.5100000000002
 21
2163.7495737238469
  0
LINE
  5
10E
100
AcDbEntity
  8
0
  6
CONTINUOUS
 62
             7
100
AcDbLine
 10
5516.0100000000002
 20
2203.7495737238469
 11
5518.5100000000002
 21
2203.7495737238469
  0
LINE
  5
10D
100
AcDbEntity
  8
0
  6
CONTINUOUS
 62
             7
100
AcDbLine
 10
5529.3100000000004
 20
2205.7495737238469
 11
5538.5100000000002
 21
2205.7495737238469
  0
LINE
  5
10C
100
AcDbEntity
  8
0
  6
CONTINUOUS
 62
             7
100
AcDbLine
 10
5518.5100000000002
 20
2205.7495737238469
 11
5527.71
 21
2205.7495737238469
  0
LINE
  5
10B
100
AcDbEntity
  8
0
  6
CONTINUOUS
 62
             7
100
AcDbLine
 10
5518.5100000000002
 20
2207.7495737238469
 11
5538.5100000000002
 21
2207.7495737238469
  0
LINE
  5
10A
100
AcDbEntity
  8
0
  6
CONTINUOUS
 62
             7
100
AcDbLine
 10
5529.3100000000004
 20
2217.7495737238469
 11
5538.5100000000002
 21
2217.7495737238469
  0
LINE
  5
109
100
AcDbEntity
  8
0
  6
CONTINUOUS
 62
             7
100
AcDbLine
 10
5518.5100000000002
 20
2217.7495737238469
 11
5527.71
 21
2217.7495737238469
  0
LINE
  5
108
100
AcDbEntity
  8
0
  6
CONTINUOUS
 62
             7
100
AcDbLine
 10
5523.71
 20
2149.7495737238469
 11
5533.3100000000004
 21
2149.7495737238469
  0
LINE
  5
107
100
AcDbEntity
  8
0
  6
CONTINUOUS
 62
             7
100
AcDbLine
 10
5533.3100000000004
 20
2159.7495737238469
 11
5533.3100000000004
 21
2147.7495737238469
  0
LINE
  5
106
100
AcDbEntity
  8
0
  6
CONTINUOUS
 62
             7
100
AcDbLine
 10
5529.3100000000004
 20
2161.7495737238469
 11
5529.3100000000004
 21
2159.7495737238469
  0
LINE
  5
105
100
AcDbEntity
  8
0
  6
CONTINUOUS
 62
             7
100
AcDbLine
 10
5518.5100000000002
 20
2161.7495737238469
 11
5527.71
 21
2161.7495737238469
  0
LINE
  5
104
100
AcDbEntity
  8
0
  6
CONTINUOUS
 62
             7
100
AcDbLine
 10
5529.3100000000004
 20
2161.7495737238469
 11
5538.5100000000002
 21
2161.7495737238469
  0
LINE
  5
103
100
AcDbEntity
  8
0
  6
CONTINUOUS
 62
             7
100
AcDbLine
 10
5518.5100000000002
 20
2159.7495737238469
 11
5538.5100000000002
 21
2159.7495737238469
  0
LINE
  5
102
100
AcDbEntity
  8
0
  6
CONTINUOUS
 62
             7
100
AcDbLine
 10
5529.3100000000004
 20
2171.7495737238469
 11
5538.5100000000002
 21
2171.7495737238469
  0
LINE
  5
101
100
AcDbEntity
  8
0
  6
CONTINUOUS
 62
             7
100
AcDbLine
 10
5529.3100000000004
 20
2171.7495737238469
 11
5529.3100000000004
 21
2161.7495737238469
  0
LINE
  5
100
100
AcDbEntity
  8
0
  6
CONTINUOUS
 62
             7
100
AcDbLine
 10
5518.5100000000002
 20
2195.7495737238469
 11
5527.71
 21
2195.7495737238469
  0
LINE
  5
FF
100
AcDbEntity
  8
0
  6
CONTINUOUS
 62
             7
100
AcDbLine
 10
5529.3100000000004
 20
2219.7495737238469
 11
5529.3100000000004
 21
2217.7495737238469
  0
LINE
  5
FE
100
AcDbEntity
  8
0
  6
CONTINUOUS
 62
             7
100
AcDbLine
 10
5527.71
 20
2171.7495737238469
 11
5527.71
 21
2161.7495737238469
  0
LINE
  5
FD
100
AcDbEntity
  8
0
  6
CONTINUOUS
 62
             7
100
AcDbLine
 10
5527.71
 20
2219.7495737238469
 11
5527.71
 21
2217.7495737238469
  0
LINE
  5
FC
100
AcDbEntity
  8
0
  6
CONTINUOUS
 62
             7
100
AcDbLine
 10
5518.5100000000002
 20
2171.7495737238469
 11
5527.71
 21
2171.7495737238469
  0
LINE
  5
FB
100
AcDbEntity
  8
0
  6
CONTINUOUS
 62
             7
100
AcDbLine
 10
5529.3100000000004
 20
2195.7495737238469
 11
5538.5100000000002
 21
2195.7495737238469
  0
LINE
  5
FA
100
AcDbEntity
  8
0
  6
CONTINUOUS
 62
             7
100
AcDbLine
 10
5518.5100000000002
 20
2173.7495737238469
 11
5538.5100000000002
 21
2173.7495737238469
  0
LINE
  5
F9
100
AcDbEntity
  8
0
  6
CONTINUOUS
 62
             7
100
AcDbLine
 10
5518.5100000000002
 20
2193.7495737238469
 11
5538.5100000000002
 21
2193.7495737238469
  0
LINE
  5
F8
100
AcDbEntity
  8
0
  6
CONTINUOUS
 62
             7
100
AcDbLine
 10
5518.5100000000002
 20
2219.7495737238469
 11
5518.5100000000002
 21
2217.7495737238469
  0
LINE
  5
F7
100
AcDbEntity
  8
0
  6
CONTINUOUS
 62
             7
100
AcDbLine
 10
5538.5100000000002
 20
2219.7495737238469
 11
5538.5100000000002
 21
2217.7495737238469
  0
LINE
  5
F6
100
AcDbEntity
  8
0
  6
CONTINUOUS
 62
             7
100
AcDbLine
 10
5575.0100000000002
 20
2183.7495737238469
 11
5575.0100000000002
 21
2188.7495737238469
  0
LINE
  5
F5
100
AcDbEntity
  8
0
  6
CONTINUOUS
 62
             7
100
AcDbLine
 10
5575.0100000000002
 20
2149.2495737238469
 11
5575.0100000000002
 21
2156.7495737238469
  0
LINE
  5
F4
100
AcDbEntity
  8
0
  6
CONTINUOUS
 62
             7
100
AcDbLine
 10
5696.0100000000002
 20
2147.7495737238469
 11
5576.5100000000002
 21
2147.7495737238469
  0
LINE
  5
F3
100
AcDbEntity
  8
0
  6
CONTINUOUS
 62
             7
100
AcDbLine
 10
5576.5100000000002
 20
2219.7495737238469
 11
5600.0100000000002
 21
2219.7495737238469
  0
LINE
  5
F2
100
AcDbEntity
  8
0
  6
CONTINUOUS
 62
             7
100
AcDbLine
 10
5540.0100000000002
 20
2147.7495737238469
 11
5535.0100000000002
 21
2147.7495737238469
  0
LINE
  5
F1
100
AcDbEntity
  8
0
  6
CONTINUOUS
 62
             7
100
AcDbLine
 10
5541.0100000000002
 20
2218.7495737238469
 11
5541.0100000000002
 21
2210.7495737238469
  0
LINE
  5
F0
100
AcDbEntity
  8
0
  6
CONTINUOUS
 62
             7
100
AcDbLine
 10
5517.0100000000002
 20
2219.7495737238469
 11
5518.5100000000002
 21
2219.7495737238469
  0
LINE
  5
EF
100
AcDbEntity
  8
0
  6
CONTINUOUS
 62
             7
100
AcDbLine
 10
5516.0100000000002
 20
2148.7495737238469
 11
5516.0100000000002
 21
2178.7495737238469
  0
LINE
  5
EE
100
AcDbEntity
  8
0
  6
CONTINUOUS
 62
             7
100
AcDbLine
 10
5541.0100000000002
 20
2210.7495737238469
 11
5541.0100000000002
 21
2203.7495737238469
  0
LINE
  5
ED
100
AcDbEntity
  8
0
  6
CONTINUOUS
 62
             7
100
AcDbLine
 10
5538.5100000000002
 20
2210.7495737238469
 11
5538.5100000000002
 21
2203.7495737238469
  0
LINE
  5
EC
100
AcDbEntity
  8
0
  6
CONTINUOUS
 62
             7
100
AcDbLine
 10
5541.0100000000002
 20
2203.7495737238469
 11
5541.0100000000002
 21
2188.7495737238469
  0
LINE
  5
EB
100
AcDbEntity
  8
0
  6
CONTINUOUS
 62
             7
100
AcDbLine
 10
5538.5100000000002
 20
2203.7495737238469
 11
5538.5100000000002
 21
2163.7495737238469
  0
LINE
  5
EA
100
AcDbEntity
  8
0
  6
CONTINUOUS
 62
             7
100
AcDbLine
 10
5527.71
 20
2217.7495737238469
 11
5527.71
 21
2195.7495737238469
  0
LINE
  5
E9
100
AcDbEntity
  8
0
  6
CONTINUOUS
 62
             7
100
AcDbLine
 10
5518.5100000000002
 20
2219.7495737238469
 11
5527.71
 21
2219.7495737238469
  0
LINE
  5
E8
100
AcDbEntity
  8
0
  6
CONTINUOUS
 62
             7
100
AcDbLine
 10
5529.3100000000004
 20
2217.7495737238469
 11
5529.3100000000004
 21
2195.7495737238469
  0
LINE
  5
E7
100
AcDbEntity
  8
0
  6
CONTINUOUS
 62
             7
100
AcDbLine
 10
5518.5100000000002
 20
2217.7495737238469
 11
5518.5100000000002
 21
2195.7495737238469
  0
LINE
  5
E6
100
AcDbEntity
  8
0
  6
CONTINUOUS
 62
             7
100
AcDbLine
 10
5527.71
 20
2161.7495737238469
 11
5527.71
 21
2159.7495737238469
  0
LINE
  5
E5
100
AcDbEntity
  8
0
  6
CONTINUOUS
 62
             7
100
AcDbLine
 10
5538.5100000000002
 20
2163.7495737238469
 11
5538.5100000000002
 21
2156.7495737238469
  0
LINE
  5
E4
100
AcDbEntity
  8
0
  6
CONTINUOUS
 62
             7
100
AcDbLine
 10
5529.3100000000004
 20
2219.7495737238469
 11
5538.5100000000002
 21
2219.7495737238469
  0
LINE
  5
E3
100
AcDbEntity
  8
0
  6
CONTINUOUS
 62
             7
100
AcDbLine
 10
5518.5100000000002
 20
2195.7495737238469
 11
5518.5100000000002
 21
2161.7495737238469
  0
LINE
  5
E2
100
AcDbEntity
  8
0
  6
CONTINUOUS
 62
             7
100
AcDbLine
 10
5538.5100000000002
 20
2156.7495737238469
 11
5538.5100000000002
 21
2147.7495737238469
  0
LINE
  5
E1
100
AcDbEntity
  8
0
  6
CONTINUOUS
 62
             7
100
AcDbLine
 10
5538.5100000000002
 20
2219.7495737238469
 11
5540.0100000000002
 21
2219.7495737238469
  0
LINE
  5
E0
100
AcDbEntity
  8
0
  6
CONTINUOUS
 62
             7
100
AcDbLine
 10
5518.5100000000002
 20
2161.7495737238469
 11
5518.5100000000002
 21
2147.7495737238469
  0
LINE
  5
DF
100
AcDbEntity
  8
1
  6
CONTINUOUS
 62
             7
100
AcDbLine
 10
5600.0100000000002
 20
2175.9995737238469
 11
5592.5100000000002
 21
2175.9995737238469
  0
LINE
  5
DE
100
AcDbEntity
  8
0
  6
CONTINUOUS
 62
             7
100
AcDbLine
 10
5600.0100000000002
 20
2175.9995737238469
 11
5600.0100000000002
 21
2147.7495737238469
  0
LINE
  5
DD
100
AcDbEntity
  8
0
  6
CONTINUOUS
 62
             7
100
AcDbLine
 10
5703.0100000000002
 20
2166.2495737238469
 11
5700.7400000000007
 21
2166.2495737238469
  0
LINE
  5
DC
100
AcDbEntity
  8
0
  6
CONTINUOUS
 62
             7
100
AcDbLine
 10
5703.0100000000002
 20
2166.2495737238469
 11
5703.0100000000002
 21
2133.7495737238469
  0
LINE
  5
DB
100
AcDbEntity
  8
0
  6
CONTINUOUS
 62
             7
100
AcDbLine
 10
5538.5100000000002
 20
2217.7495737238469
 11
5538.5100000000002
 21
2210.7495737238469
  0
LINE
  5
DA
100
AcDbEntity
  8
1
  6
CONTINUOUS
 62
             7
100
AcDbLine
 10
5575.0100000000002
 20
2188.7495737238469
 11
5590.0100000000002
 21
2187.7495737238469
  0
LINE
  5
D9
100
AcDbEntity
  8
0
  6
CONTINUOUS
 62
             7
100
AcDbLine
 10
5590.0100000000002
 20
2187.7495737238469
 11
5590.0100000000002
 21
2188.9995737238469
  0
LINE
  5
D8
100
AcDbEntity
  8
0
  6
CONTINUOUS
 62
             7
100
AcDbLine
 10
5575.0100000000002
 20
2188.7495737238469
 11
5575.0100000000002
 21
2203.7495737238469
  0
LINE
  5
D7
100
AcDbEntity
  8
1
  6
CONTINUOUS
 62
             7
100
AcDbLine
 10
5590.0100000000002
 20
2179.7495737238469
 11
5575.0100000000002
 21
2178.7495737238469
  0
LINE
  5
D6
100
AcDbEntity
  8
0
  6
CONTINUOUS
 62
             7
100
AcDbLine
 10
5590.0100000000002
 20
2179.7495737238469
 11
5590.0100000000002
 21
2187.7495737238469
  0
LINE
  5
D5
100
AcDbEntity
  8
0
  6
CONTINUOUS
 62
             7
100
AcDbLine
 10
5575.0100000000002
 20
2178.7495737238469
 11
5575.0100000000002
 21
2163.7495737238469
  0
LINE
  5
D4
100
AcDbEntity
  8
1
  6
CONTINUOUS
 62
             7
100
AcDbLine
 10
5540.0100000000002
 20
2188.7495737238469
 11
5541.0100000000002
 21
2188.7495737238469
  0
LINE
  5
D3
100
AcDbEntity
  8
0
  6
CONTINUOUS
 62
             7
100
AcDbLine
 10
5541.0100000000002
 20
2188.7495737238469
 11
5541.0100000000002
 21
2187.7495737238469
  0
LINE
  5
D2
100
AcDbEntity
  8
1
  6
CONTINUOUS
 62
             7
100
AcDbLine
 10
5540.0100000000002
 20
2178.7495737238469
 11
5541.0100000000002
 21
2178.7495737238469
  0
LINE
  5
D1
100
AcDbEntity
  8
0
  6
CONTINUOUS
 62
             7
100
AcDbLine
 10
5540.0100000000002
 20
2178.7495737238469
 11
5540.0100000000002
 21
2179.7495737238469
  0
LINE
  5
D0
100
AcDbEntity
  8
0
  6
CONTINUOUS
 62
             7
100
AcDbLine
 10
5541.0100000000002
 20
2178.7495737238469
 11
5541.0100000000002
 21
2148.7495737238469
  0
LINE
  5
CF
100
AcDbEntity
  8
1
  6
CONTINUOUS
 62
             7
100
AcDbLine
 10
5516.0100000000002
 20
2178.7495737238469
 11
5517.0100000000002
 21
2178.7495737238469
  0
LINE
  5
CE
100
AcDbEntity
  8
0
  6
CONTINUOUS
 62
             7
100
AcDbLine
 10
5517.0100000000002
 20
2178.7495737238469
 11
5517.0100000000002
 21
2179.7495737238469
  0
LINE
  5
CD
100
AcDbEntity
  8
0
  6
CONTINUOUS
 62
             7
100
AcDbLine
 10
5516.0100000000002
 20
2178.7495737238469
 11
5516.0100000000002
 21
2179.7495737238469
  0
LINE
  5
CC
100
AcDbEntity
  8
1
  6
CONTINUOUS
 62
             7
100
AcDbLine
 10
5517.0100000000002
 20
2188.7495737238469
 11
5516.0100000000002
 21
2188.7495737238469
  0
LINE
  5
CB
100
AcDbEntity
  8
0
  6
CONTINUOUS
 62
             7
100
AcDbLine
 10
5516.0100000000002
 20
2188.7495737238469
 11
5516.0100000000002
 21
2218.7495737238469
  0
LINE
  5
CA
100
AcDbEntity
  8
1
  6
CONTINUOUS
 62
             7
100
AcDbLine
 10
5540.0100000000002
 20
2187.7495737238469
 11
5541.0100000000002
 21
2187.7495737238469
  0
LINE
  5
C9
100
AcDbEntity
  8
0
  6
CONTINUOUS
 62
             7
100
AcDbLine
 10
5541.0100000000002
 20
2187.7495737238469
 11
5541.0100000000002
 21
2179.7495737238469
  0
LINE
  5
C8
100
AcDbEntity
  8
0
  6
CONTINUOUS
 62
             7
100
AcDbLine
 10
5540.0100000000002
 20
2187.7495737238469
 11
5540.0100000000002
 21
2188.7495737238469
  0
LINE
  5
C7
100
AcDbEntity
  8
1
  6
CONTINUOUS
 62
             7
100
AcDbLine
 10
5516.0100000000002
 20
2179.7495737238469
 11
5517.0100000000002
 21
2179.7495737238469
  0
LINE
  5
C6
100
AcDbEntity
  8
0
  6
CONTINUOUS
 62
             7
100
AcDbLine
 10
5517.0100000000002
 20
2179.7495737238469
 11
5517.0100000000002
 21
2187.7495737238469
  0
LINE
  5
C5
100
AcDbEntity
  8
0
  6
CONTINUOUS
 62
             7
100
AcDbLine
 10
5516.0100000000002
 20
2179.7495737238469
 11
5516.0100000000002
 21
2187.7495737238469
  0
LINE
  5
C4
100
AcDbEntity
  8
1
  6
CONTINUOUS
 62
             7
100
AcDbLine
 10
5517.0100000000002
 20
2187.7495737238469
 11
5516.0100000000002
 21
2187.7495737238469
  0
LINE
  5
C3
100
AcDbEntity
  8
0
  6
CONTINUOUS
 62
             7
100
AcDbLine
 10
5517.0100000000002
 20
2187.7495737238469
 11
5517.0100000000002
 21
2188.7495737238469
  0
LINE
  5
C2
100
AcDbEntity
  8
0
  6
CONTINUOUS
 62
             7
100
AcDbLine
 10
5516.0100000000002
 20
2187.7495737238469
 11
5516.0100000000002
 21
2188.7495737238469
  0
LINE
  5
C1
100
AcDbEntity
  8
1
  6
CONTINUOUS
 62
             7
100
AcDbLine
 10
5519.2600000000002
 20
2209.399573723847
 11
5519.2600000000002
 21
2216.0995737238468
  0
LINE
  5
C0
100
AcDbEntity
  8
1
  6
CONTINUOUS
 62
             7
100
AcDbLine
 10
5526.4600000000009
 20
2208.899573723847
 11
5519.7600000000002
 21
2208.899573723847
  0
LINE
  5
BF
100
AcDbEntity
  8
1
  6
CONTINUOUS
 62
             7
100
AcDbLine
 10
5526.9600000000009
 20
2216.0995737238468
 11
5526.9600000000009
 21
2209.399573723847
  0
LINE
  5
BE
100
AcDbEntity
  8
1
  6
CONTINUOUS
 62
             7
100
AcDbLine
 10
5519.7600000000002
 20
2216.5995737238468
 11
5526.4600000000009
 21
2216.5995737238468
  0
LINE
  5
BD
100
AcDbEntity
  8
1
  6
CONTINUOUS
 62
             7
100
AcDbLine
 10
5520.7411922830242
 20
2210.3807660068719
 11
5525.4788077169751
 21
2215.1183814408232
  0
LINE
  5
BC
100
AcDbEntity
  8
1
  6
CONTINUOUS
 62
             7
100
AcDbLine
 10
5521.6957864376263
 20
2214.1637872862188
 11
5524.5242135623721
 21
2211.3353601614749
  0
LINE
  5
BB
100
AcDbEntity
  8
1
  6
CONTINUOUS
 62
             7
100
AcDbLine
 10
5530.0600000000004
 20
2209.399573723847
 11
5530.0600000000004
 21
2216.0995737238468
  0
LINE
  5
BA
100
AcDbEntity
  8
1
  6
CONTINUOUS
 62
             7
100
AcDbLine
 10
5537.2600000000002
 20
2208.899573723847
 11
5530.5600000000004
 21
2208.899573723847
  0
LINE
  5
B9
100
AcDbEntity
  8
1
  6
CONTINUOUS
 62
             7
100
AcDbLine
 10
5537.7600000000002
 20
2216.0995737238468
 11
5537.7600000000002
 21
2209.399573723847
  0
LINE
  5
B8
100
AcDbEntity
  8
1
  6
CONTINUOUS
 62
             7
100
AcDbLine
 10
5530.5600000000004
 20
2216.5995737238468
 11
5537.2600000000002
 21
2216.5995737238468
  0
LINE
  5
B7
100
AcDbEntity
  8
1
  6
CONTINUOUS
 62
             7
100
AcDbLine
 10
5531.5411922830244
 20
2210.3807660068719
 11
5536.2788077169744
 21
2215.1183814408232
  0
LINE
  5
B6
100
AcDbEntity
  8
1
  6
CONTINUOUS
 62
             7
100
AcDbLine
 10
5532.4957864376256
 20
2214.1637872862188
 11
5535.3242135623714
 21
2211.3353601614749
  0
LINE
  5
B5
100
AcDbEntity
  8
1
  6
CONTINUOUS
 62
             7
100
AcDbLine
 10
5530.0600000000004
 20
2197.399573723847
 11
5530.0600000000004
 21
2204.0995737238468
  0
LINE
  5
B4
100
AcDbEntity
  8
1
  6
CONTINUOUS
 62
             7
100
AcDbLine
 10
5537.2600000000002
 20
2196.899573723847
 11
5530.5600000000004
 21
2196.899573723847
  0
LINE
  5
B3
100
AcDbEntity
  8
1
  6
CONTINUOUS
 62
             7
100
AcDbLine
 10
5537.7600000000002
 20
2204.0995737238468
 11
5537.7600000000002
 21
2197.399573723847
  0
LINE
  5
B2
100
AcDbEntity
  8
1
  6
CONTINUOUS
 62
             7
100
AcDbLine
 10
5530.5600000000004
 20
2204.5995737238468
 11
5537.2600000000002
 21
2204.5995737238468
  0
LINE
  5
B1
100
AcDbEntity
  8
1
  6
CONTINUOUS
 62
             7
100
AcDbLine
 10
5531.5411922830244
 20
2198.3807660068719
 11
5536.2788077169744
 21
2203.1183814408232
  0
LINE
  5
B0
100
AcDbEntity
  8
1
  6
CONTINUOUS
 62
             7
100
AcDbLine
 10
5532.4957864376256
 20
2202.1637872862188
 11
5535.3242135623714
 21
2199.3353601614749
  0
LINE
  5
AF
100
AcDbEntity
  8
1
  6
CONTINUOUS
 62
             7
100
AcDbLine
 10
5519.2600000000002
 20
2197.399573723847
 11
5519.2600000000002
 21
2204.0995737238468
  0
LINE
  5
AE
100
AcDbEntity
  8
1
  6
CONTINUOUS
 62
             7
100
AcDbLine
 10
5526.4600000000009
 20
2196.899573723847
 11
5519.7600000000002
 21
2196.899573723847
  0
LINE
  5
AD
100
AcDbEntity
  8
1
  6
CONTINUOUS
 62
             7
100
AcDbLine
 10
5526.9600000000009
 20
2204.0995737238468
 11
5526.9600000000009
 21
2197.399573723847
  0
LINE
  5
AC
100
AcDbEntity
  8
1
  6
CONTINUOUS
 62
             7
100
AcDbLine
 10
5519.7600000000002
 20
2204.5995737238468
 11
5526.4600000000009
 21
2204.5995737238468
  0
LINE
  5
AB
100
AcDbEntity
  8
1
  6
CONTINUOUS
 62
             7
100
AcDbLine
 10
5520.7411922830242
 20
2198.3807660068719
 11
5525.4788077169751
 21
2203.1183814408232
  0
LINE
  5
AA
100
AcDbEntity
  8
1
  6
CONTINUOUS
 62
             7
100
AcDbLine
 10
5521.6957864376263
 20
2202.1637872862188
 11
5524.5242135623721
 21
2199.3353601614749
  0
LINE
  5
A9
100
AcDbEntity
  8
1
  6
CONTINUOUS
 62
             7
100
AcDbLine
 10
5519.2600000000002
 20
2163.399573723847
 11
5519.2600000000002
 21
2170.0995737238468
  0
LINE
  5
A8
100
AcDbEntity
  8
1
  6
CONTINUOUS
 62
             7
100
AcDbLine
 10
5526.4600000000009
 20
2162.899573723847
 11
5519.7600000000002
 21
2162.899573723847
  0
LINE
  5
A7
100
AcDbEntity
  8
1
  6
CONTINUOUS
 62
             7
100
AcDbLine
 10
5526.9600000000009
 20
2170.0995737238468
 11
5526.9600000000009
 21
2163.399573723847
  0
LINE
  5
A6
100
AcDbEntity
  8
1
  6
CONTINUOUS
 62
             7
100
AcDbLine
 10
5519.7600000000002
 20
2170.5995737238468
 11
5526.4600000000009
 21
2170.5995737238468
  0
LINE
  5
A5
100
AcDbEntity
  8
1
  6
CONTINUOUS
 62
             7
100
AcDbLine
 10
5520.7411922830242
 20
2164.3807660068719
 11
5525.4788077169751
 21
2169.1183814408232
  0
LINE
  5
A4
100
AcDbEntity
  8
1
  6
CONTINUOUS
 62
             7
100
AcDbLine
 10
5521.6957864376263
 20
2168.1637872862188
 11
5524.5242135623721
 21
2165.3353601614749
  0
LINE
  5
A3
100
AcDbEntity
  8
1
  6
CONTINUOUS
 62
             7
100
AcDbLine
 10
5530.0600000000004
 20
2163.399573723847
 11
5530.0600000000004
 21
2170.0995737238468
  0
LINE
  5
A2
100
AcDbEntity
  8
1
  6
CONTINUOUS
 62
             7
100
AcDbLine
 10
5537.2600000000002
 20
2162.899573723847
 11
5530.5600000000004
 21
2162.899573723847
  0
LINE
  5
A1
100
AcDbEntity
  8
1
  6
CONTINUOUS
 62
             7
100
AcDbLine
 10
5537.7600000000002
 20
2170.0995737238468
 11
5537.7600000000002
 21
2163.399573723847
  0
LINE
  5
A0
100
AcDbEntity
  8
1
  6
CONTINUOUS
 62
             7
100
AcDbLine
 10
5530.5600000000004
 20
2170.5995737238468
 11
5537.2600000000002
 21
2170.5995737238468
  0
LINE
  5
9F
100
AcDbEntity
  8
1
  6
CONTINUOUS
 62
             7
100
AcDbLine
 10
5531.5411922830244
 20
2164.3807660068719
 11
5536.2788077169744
 21
2169.1183814408232
  0
LINE
  5
9E
100
AcDbEntity
  8
1
  6
CONTINUOUS
 62
             7
100
AcDbLine
 10
5532.4957864376256
 20
2168.1637872862188
 11
5535.3242135623714
 21
2165.3353601614749
  0
LINE
  5
9D
100
AcDbEntity
  8
1
  6
CONTINUOUS
 62
             7
100
AcDbLine
 10
5524.6599999999999
 20
2151.399573723847
 11
5524.6599999999999
 21
2158.0995737238468
  0
LINE
  5
9C
100
AcDbEntity
  8
1
  6
CONTINUOUS
 62
             7
100
AcDbLine
 10
5531.8600000000006
 20
2150.899573723847
 11
5525.1599999999999
 21
2150.899573723847
  0
LINE
  5
9B
100
AcDbEntity
  8
1
  6
CONTINUOUS
 62
             7
100
AcDbLine
 10
5532.3600000000006
 20
2158.0995737238468
 11
5532.3600000000006
 21
2151.399573723847
  0
LINE
  5
9A
100
AcDbEntity
  8
1
  6
CONTINUOUS
 62
             7
100
AcDbLine
 10
5525.1599999999999
 20
2158.5995737238468
 11
5531.8600000000006
 21
2158.5995737238468
  0
LINE
  5
99
100
AcDbEntity
  8
1
  6
CONTINUOUS
 62
             7
100
AcDbLine
 10
5526.1411922830239
 20
2152.3807660068719
 11
5530.8788077169747
 21
2157.1183814408232
  0
LINE
  5
98
100
AcDbEntity
  8
1
  6
CONTINUOUS
 62
             7
100
AcDbLine
 10
5527.095786437626
 20
2156.1637872862188
 11
5529.9242135623717
 21
2153.3353601614749
  0
LINE
  5
97
100
AcDbEntity
  8
0
  6
CONTINUOUS
 62
             7
100
AcDbLine
 10
5523.71
 20
2159.7495737238469
 11
5523.71
 21
2147.7495737238469
  0
LINE
  5
96
100
AcDbEntity
  8
1
  6
DOTTED
 62
             7
100
AcDbLine
 10
5700.6099999999997
 20
2166.3495737238468
 11
5700.6099999999997
 21
2168.2495737238469
  0
LINE
  5
95
100
AcDbEntity
  8
1
  6
DOTTED
 62
             7
100
AcDbLine
 10
5700.6099999999997
 20
2199.2495737238469
 11
5700.6099999999997
 21
2201.2495737238469
  0
LINE
  5
94
100
AcDbEntity
  8
1
  6
DOTTED
 62
             7
100
AcDbLine
 10
5700.6099999999997
 20
2201.149573723847
 11
5699.6099999999997
 21
2201.149573723847
  0
LINE
  5
93
100
AcDbEntity
  8
1
  6
DOTTED
 62
             7
100
AcDbLine
 10
5699.6099999999997
 20
2201.149573723847
 11
5699.6099999999997
 21
2198.2495737238469
  0
LINE
  5
92
100
AcDbEntity
  8
1
  6
DOTTED
 62
             7
100
AcDbLine
 10
5701.6099999999997
 20
2196.2495737238469
 11
5705.5100000000002
 21
2196.2495737238469
  0
LINE
  5
91
100
AcDbEntity
  8
1
  6
DOTTED
 62
             7
100
AcDbLine
 10
5705.5100000000002
 20
2196.2495737238469
 11
5705.5100000000002
 21
2171.2495737238469
  0
LINE
  5
90
100
AcDbEntity
  8
1
  6
DOTTED
 62
             7
100
AcDbLine
 10
5705.5100000000002
 20
2171.2495737238469
 11
5701.6099999999997
 21
2171.2495737238469
  0
LINE
  5
8F
100
AcDbEntity
  8
1
  6
DOTTED
 62
             7
100
AcDbLine
 10
5699.6099999999997
 20
2169.2495737238469
 11
5699.6099999999997
 21
2166.3495737238468
  0
LINE
  5
8E
100
AcDbEntity
  8
1
  6
DOTTED
 62
             7
100
AcDbLine
 10
5699.6099999999997
 20
2166.3495737238468
 11
5700.6099999999997
 21
2166.3495737238468
  0
LINE
  5
8D
100
AcDbEntity
  8
1
  6
DOTTED
 62
             7
100
AcDbLine
 10
5700.6099999999997
 20
2168.2495737238469
 11
5701.6099999999997
 21
2169.7495737238469
  0
LINE
  5
8C
100
AcDbEntity
  8
1
  6
DOTTED
 62
             7
100
AcDbLine
 10
5701.6099999999997
 20
2169.7495737238469
 11
5706.1099999999997
 21
2169.7495737238469
  0
LINE
  5
8B
100
AcDbEntity
  8
1
  6
DOTTED
 62
             7
100
AcDbLine
 10
5707.1099999999997
 20
2170.7495737238469
 11
5707.1099999999997
 21
2196.7495737238469
  0
LINE
  5
8A
100
AcDbEntity
  8
1
  6
DOTTED
 62
             7
100
AcDbLine
 10
5706.1099999999997
 20
2197.7495737238469
 11
5701.6099999999997
 21
2197.7495737238469
  0
LINE
  5
89
100
AcDbEntity
  8
1
  6
DOTTED
 62
             7
100
AcDbLine
 10
5701.6099999999997
 20
2197.7495737238469
 11
5700.6099999999997
 21
2199.2495737238469
  0
LINE
  5
88
100
AcDbEntity
  8
0
  6
CONTINUOUS
 62
             7
100
AcDbLine
 10
5600.0100000000002
 20
2219.7495737238469
 11
5696.0100000000002
 21
2219.7495737238469
  0
LINE
  5
87
100
AcDbEntity
  8
1
  6
CONTINUOUS
 62
             7
100
AcDbLine
 10
5527.5100000000002
 20
2189.1995737238449
 11
5527.5100000000002
 21
2189.599573723845
  0
LINE
  5
86
100
AcDbEntity
  8
1
  6
CONTINUOUS
 62
             7
100
AcDbLine
 10
5527.5100000000002
 20
2188.099573723845
 11
5527.5100000000002
 21
2188.4995737238451
  0
LINE
  5
85
100
AcDbEntity
  8
0
  6
CONTINUOUS
 62
             7
100
AcDbLine
 10
5528.5100000000002
 20
2189.0495737238448
 11
5528.5100000000002
 21
2188.6495737238452
  0
LINE
  5
84
100
AcDbEntity
  8
0
  6
CONTINUOUS
 62
             7
100
AcDbLine
 10
5528.5100000000002
 20
2188.6495737238452
 11
5529.0019871588756
 21
2188.6495737238452
  0
LINE
  5
83
100
AcDbEntity
  8
0
  6
CONTINUOUS
 62
             7
100
AcDbLine
 10
5529.0019871588765
 20
2189.0495737238448
 11
5528.5100000000002
 21
2189.0495737238448
  0
LINE
  5
82
100
AcDbEntity
  8
0
  6
CONTINUOUS
 62
             7
100
AcDbLine
 10
5528.8530310106216
 20
2187.977675975676
 11
5528.40713925
 21
2188.185598723845
  0
LINE
  5
81
100
AcDbEntity
  8
0
  6
CONTINUOUS
 62
             7
100
AcDbLine
 10
5528.40713925
 20
2188.185598723845
 11
5528.2380920000014
 21
2187.8230757238448
  0
LINE
  5
80
100
AcDbEntity
  8
0
  6
CONTINUOUS
 62
             7
100
AcDbLine
 10
5528.2380920000014
 20
2187.8230757238448
 11
5528.6839837222606
 21
2187.615152897974
  0
LINE
  5
7F
100
AcDbEntity
  8
0
  6
CONTINUOUS
 62
             7
100
AcDbLine
 10
5527.9487840000002
 20
2187.446042473845
 11
5527.6423662500001
 21
2187.188927223845
  0
LINE
  5
7E
100
AcDbEntity
  8
0
  6
CONTINUOUS
 62
             7
100
AcDbLine
 10
5527.6423662500001
 20
2187.188927223845
 11
5527.9586096478406
 21
2186.8120433343361
  0
LINE
  5
7D
100
AcDbEntity
  8
0
  6
CONTINUOUS
 62
             7
100
AcDbLine
 10
5528.2650274022099
 20
2187.0691583741341
 11
5527.9487840000002
 21
2187.446042473845
  0
LINE
  5
7C
100
AcDbEntity
  8
0
  6
CONTINUOUS
 62
             7
100
AcDbLine
 10
5527.2208232500006
 20
2186.9694859738452
 11
5526.8344530000004
 21
2186.8659582238452
  0
LINE
  5
7B
100
AcDbEntity
  8
0
  6
CONTINUOUS
 62
             7
100
AcDbLine
 10
5526.8344530000004
 20
2186.8659582238452
 11
5526.9617884940753
 21
2186.3907351450421
  0
LINE
  5
7A
100
AcDbEntity
  8
0
  6
CONTINUOUS
 62
             7
100
AcDbLine
 10
5527.3481589737794
 20
2186.4942628028271
 11
5527.2208232500006
 21
2186.9694859738452
  0
LINE
  5
79
100
AcDbEntity
  8
0
  6
CONTINUOUS
 62
             7
100
AcDbLine
 10
5526.2742324896144
 20
2186.3607158168861
 11
5526.35966525
 21
2186.8452287238451
  0
LINE
  5
78
100
AcDbEntity
  8
0
  6
CONTINUOUS
 62
             7
100
AcDbLine
 10
5526.35966525
 20
2186.8452287238451
 11
5525.9657420000003
 21
2186.914687973845
  0
LINE
  5
77
100
AcDbEntity
  8
0
  6
CONTINUOUS
 62
             7
100
AcDbLine
 10
5525.9657420000003
 20
2186.914687973845
 11
5525.8803094465884
 21
2186.430175078121
  0
LINE
  5
76
100
AcDbEntity
  8
0
  6
CONTINUOUS
 62
             7
100
AcDbLine
 10
5525.8803094541754
 20
2191.2689723715471
 11
5525.9657420000003
 21
2190.784459723845
  0
LINE
  5
75
100
AcDbEntity
  8
0
  6
CONTINUOUS
 62
             7
100
AcDbLine
 10
5525.9657420000003
 20
2190.784459723845
 11
5526.35966525
 21
2190.8539189738449
  0
LINE
  5
74
100
AcDbEntity
  8
0
  6
CONTINUOUS
 62
             7
100
AcDbLine
 10
5526.35966525
 20
2190.8539189738449
 11
5526.2742324974179
 21
2191.3384316315469
  0
LINE
  5
73
100
AcDbEntity
  8
0
  6
CONTINUOUS
 62
             7
100
AcDbLine
 10
5526.8344530000004
 20
2190.8331892238448
 11
5527.2208232500006
 21
2190.7296614738452
  0
LINE
  5
72
100
AcDbEntity
  8
0
  6
CONTINUOUS
 62
             7
100
AcDbLine
 10
5527.2208232500006
 20
2190.7296614738452
 11
5527.3481589737794
 21
2191.2048846448661
  0
LINE
  5
71
100
AcDbEntity
  8
0
  6
CONTINUOUS
 62
             7
100
AcDbLine
 10
5526.9617884940762
 20
2191.308412302652
 11
5526.8344530000004
 21
2190.8331892238448
  0
LINE
  5
70
100
AcDbEntity
  8
0
  6
CONTINUOUS
 62
             7
100
AcDbLine
 10
5527.6423662500001
 20
2190.510220223845
 11
5527.9487840000002
 21
2190.2531052238451
  0
LINE
  5
6F
100
AcDbEntity
  8
0
  6
CONTINUOUS
 62
             7
100
AcDbLine
 10
5527.9487840000002
 20
2190.2531052238451
 11
5528.2650273815434
 21
2190.6299890939322
  0
LINE
  5
6E
100
AcDbEntity
  8
0
  6
CONTINUOUS
 62
             7
100
AcDbLine
 10
5527.9586096478433
 20
2190.8871041133571
 11
5527.6423662500001
 21
2190.510220223845
  0
LINE
  5
6D
100
AcDbEntity
  8
0
  6
CONTINUOUS
 62
             7
100
AcDbLine
 10
5528.6839837222624
 20
2190.0839945497169
 11
5528.2380920000014
 21
2189.8760717238451
  0
LINE
  5
6C
100
AcDbEntity
  8
0
  6
CONTINUOUS
 62
             7
100
AcDbLine
 10
5528.2380920000014
 20
2189.8760717238451
 11
5528.40713925
 21
2189.5135487238449
  0
LINE
  5
6B
100
AcDbEntity
  8
0
  6
CONTINUOUS
 62
             7
100
AcDbLine
 10
5528.40713925
 20
2189.5135487238449
 11
5528.8530310106244
 21
2189.7214714720149
  0
LINE
  5
6A
100
AcDbEntity
  8
0
  6
CONTINUOUS
 62
             7
100
AcDbLine
 10
5525.2444852667541
 20
2186.6935420775271
 11
5525.5266775
 21
2187.0965544738451
  0
LINE
  5
69
100
AcDbEntity
  8
0
  6
CONTINUOUS
 62
             7
100
AcDbLine
 10
5525.5266775
 20
2187.0965544738451
 11
5525.1990167499998
 21
2187.3259849738452
  0
LINE
  5
68
100
AcDbEntity
  8
0
  6
CONTINUOUS
 62
             7
100
AcDbLine
 10
5525.1990167499998
 20
2187.3259849738452
 11
5524.9168244673638
 21
2186.9229726436529
  0
LINE
  5
67
100
AcDbEntity
  8
0
  6
CONTINUOUS
 62
             7
100
AcDbLine
 10
5525.2444853229954
 20
2191.0056054031779
 11
5525.5266775
 21
2190.6025932238449
  0
LINE
  5
66
100
AcDbEntity
  8
0
  6
CONTINUOUS
 62
             7
100
AcDbLine
 10
5525.5266775
 20
2190.6025932238449
 11
5525.1990167499998
 21
2190.3731624738448
  0
LINE
  5
65
100
AcDbEntity
  8
0
  6
CONTINUOUS
 62
             7
100
AcDbLine
 10
5525.1990167499998
 20
2190.3731624738448
 11
5524.9168245279643
 21
2190.7761748541529
  0
LINE
  5
64
100
AcDbEntity
  8
0
  6
CONTINUOUS
 62
             7
100
AcDbLine
 10
5527.5100000000002
 20
2189.599573723845
 11
5528.0100000000002
 21
2188.849573723845
  0
LINE
  5
63
100
AcDbEntity
  8
0
  6
CONTINUOUS
 62
             7
100
AcDbLine
 10
5528.0100000000002
 20
2188.849573723845
 11
5527.5100000000002
 21
2188.099573723845
  0
LINE
  5
62
100
AcDbEntity
  8
0
  6
CONTINUOUS
 62
             7
100
AcDbLine
 10
5526.8599999999997
 20
2187.3909784738448
 11
5526.8599999999997
 21
2188.2995737238448
  0
LINE
  5
61
100
AcDbEntity
  8
0
  6
CONTINUOUS
 62
             7
100
AcDbLine
 10
5526.1599999999999
 20
2187.3909784738448
 11
5526.1599999999999
 21
2188.2995737238448
  0
LINE
  5
60
100
AcDbEntity
  8
0
  6
CONTINUOUS
 62
             7
100
AcDbLine
 10
5525.0514047500001
 20
2189.1995737238449
 11
5525.96
 21
2189.1995737238449
  0
LINE
  5
5F
100
AcDbEntity
  8
0
  6
CONTINUOUS
 62
             7
100
AcDbLine
 10
5525.0514047500001
 20
2188.4995737238451
 11
5525.96
 21
2188.4995737238451
  0
LINE
  5
5E
100
AcDbEntity
  8
0
  6
CONTINUOUS
 62
             7
100
AcDbLine
 10
5526.1599999999999
 20
2190.3081689738451
 11
5526.1599999999999
 21
2189.3995737238452
  0
LINE
  5
5D
100
AcDbEntity
  8
0
  6
CONTINUOUS
 62
             7
100
AcDbLine
 10
5526.8599999999997
 20
2190.3081689738451
 11
5526.8599999999997
 21
2189.3995737238452
  0
LINE
  5
5C
100
AcDbEntity
  8
0
  6
CONTINUOUS
 62
             7
100
AcDbLine
 10
5527.0600000000004
 20
2188.4995737238451
 11
5527.5100000000002
 21
2188.4995737238451
  0
LINE
  5
5B
100
AcDbEntity
  8
0
  6
CONTINUOUS
 62
             7
100
AcDbLine
 10
5527.0600000000004
 20
2189.1995737238449
 11
5527.5100000000002
 21
2189.1995737238449
  0
LINE
  5
5A
100
AcDbEntity
  8
0
  6
CONTINUOUS
 62
             7
100
AcDbLine
 10
5527.0600000000004
 20
2181.5995737238468
 11
5527.5100000000002
 21
2181.5995737238468
  0
LINE
  5
59
100
AcDbEntity
  8
0
  6
CONTINUOUS
 62
             7
100
AcDbLine
 10
5527.0600000000004
 20
2180.899573723847
 11
5527.5100000000002
 21
2180.899573723847
  0
LINE
  5
58
100
AcDbEntity
  8
0
  6
CONTINUOUS
 62
             7
100
AcDbLine
 10
5526.8599999999997
 20
2182.708168973847
 11
5526.8599999999997
 21
2181.7995737238471
  0
LINE
  5
57
100
AcDbEntity
  8
0
  6
CONTINUOUS
 62
             7
100
AcDbLine
 10
5526.1599999999999
 20
2182.708168973847
 11
5526.1599999999999
 21
2181.7995737238471
  0
LINE
  5
56
100
AcDbEntity
  8
0
  6
CONTINUOUS
 62
             7
100
AcDbLine
 10
5525.0514047500001
 20
2180.899573723847
 11
5525.96
 21
2180.899573723847
  0
LINE
  5
55
100
AcDbEntity
  8
0
  6
CONTINUOUS
 62
             7
100
AcDbLine
 10
5525.0514047500001
 20
2181.5995737238468
 11
5525.96
 21
2181.5995737238468
  0
LINE
  5
54
100
AcDbEntity
  8
0
  6
CONTINUOUS
 62
             7
100
AcDbLine
 10
5526.1599999999999
 20
2179.7909784738472
 11
5526.1599999999999
 21
2180.6995737238472
  0
LINE
  5
53
100
AcDbEntity
  8
0
  6
CONTINUOUS
 62
             7
100
AcDbLine
 10
5526.8599999999997
 20
2179.7909784738472
 11
5526.8599999999997
 21
2180.6995737238472
  0
LINE
  5
52
100
AcDbEntity
  8
0
  6
CONTINUOUS
 62
             7
100
AcDbLine
 10
5528.0100000000002
 20
2181.2495737238469
 11
5527.5100000000002
 21
2180.4995737238469
  0
LINE
  5
51
100
AcDbEntity
  8
0
  6
CONTINUOUS
 62
             7
100
AcDbLine
 10
5527.5100000000002
 20
2181.9995737238469
 11
5528.0100000000002
 21
2181.2495737238469
  0
LINE
  5
50
100
AcDbEntity
  8
0
  6
CONTINUOUS
 62
             7
100
AcDbLine
 10
5525.1990167499998
 20
2182.7731624738472
 11
5524.9168245279643
 21
2183.1761748541549
  0
LINE
  5
4F
100
AcDbEntity
  8
0
  6
CONTINUOUS
 62
             7
100
AcDbLine
 10
5525.5266775
 20
2183.0025932238468
 11
5525.1990167499998
 21
2182.7731624738472
  0
LINE
  5
4E
100
AcDbEntity
  8
0
  6
CONTINUOUS
 62
             7
100
AcDbLine
 10
5525.2444853229954
 20
2183.4056054031798
 11
5525.5266775
 21
2183.0025932238468
  0
LINE
  5
4D
100
AcDbEntity
  8
0
  6
CONTINUOUS
 62
             7
100
AcDbLine
 10
5525.1990167499998
 20
2179.7259849738471
 11
5524.9168244673638
 21
2179.3229726436548
  0
LINE
  5
4C
100
AcDbEntity
  8
0
  6
CONTINUOUS
 62
             7
100
AcDbLine
 10
5525.5266775
 20
2179.496554473847
 11
5525.1990167499998
 21
2179.7259849738471
  0
LINE
  5
4B
100
AcDbEntity
  8
0
  6
CONTINUOUS
 62
             7
100
AcDbLine
 10
5525.2444852667541
 20
2179.093542077529
 11
5525.5266775
 21
2179.496554473847
  0
LINE
  5
4A
100
AcDbEntity
  8
0
  6
CONTINUOUS
 62
             7
100
AcDbLine
 10
5528.40713925
 20
2181.9135487238468
 11
5528.8530310106244
 21
2182.1214714720172
  0
LINE
  5
49
100
AcDbEntity
  8
0
  6
CONTINUOUS
 62
             7
100
AcDbLine
 10
5528.2380920000014
 20
2182.2760717238471
 11
5528.40713925
 21
2181.9135487238468
  0
LINE
  5
48
100
AcDbEntity
  8
0
  6
CONTINUOUS
 62
             7
100
AcDbLine
 10
5528.6839837222624
 20
2182.4839945497188
 11
5528.2380920000014
 21
2182.2760717238471
  0
LINE
  5
47
100
AcDbEntity
  8
0
  6
CONTINUOUS
 62
             7
100
AcDbLine
 10
5527.9586096478433
 20
2183.287104113359
 11
5527.6423662500001
 21
2182.9102202238469
  0
LINE
  5
46
100
AcDbEntity
  8
0
  6
CONTINUOUS
 62
             7
100
AcDbLine
 10
5527.9487840000002
 20
2182.653105223847
 11
5528.2650273815434
 21
2183.0299890939341
  0
LINE
  5
45
100
AcDbEntity
  8
0
  6
CONTINUOUS
 62
             7
100
AcDbLine
 10
5527.6423662500001
 20
2182.9102202238469
 11
5527.9487840000002
 21
2182.653105223847
  0
LINE
  5
44
100
AcDbEntity
  8
0
  6
CONTINUOUS
 62
             7
100
AcDbLine
 10
5526.9617884940762
 20
2183.708412302653
 11
5526.8344530000004
 21
2183.2331892238471
  0
LINE
  5
43
100
AcDbEntity
  8
0
  6
CONTINUOUS
 62
             7
100
AcDbLine
 10
5527.2208232500006
 20
2183.1296614738471
 11
5527.3481589737794
 21
2183.604884644868
  0
LINE
  5
42
100
AcDbEntity
  8
0
  6
CONTINUOUS
 62
             7
100
AcDbLine
 10
5526.8344530000004
 20
2183.2331892238471
 11
5527.2208232500006
 21
2183.1296614738471
  0
LINE
  5
41
100
AcDbEntity
  8
0
  6
CONTINUOUS
 62
             7
100
AcDbLine
 10
5526.35966525
 20
2183.2539189738468
 11
5526.2742324974179
 21
2183.7384316315488
  0
LINE
  5
40
100
AcDbEntity
  8
0
  6
CONTINUOUS
 62
             7
100
AcDbLine
 10
5525.9657420000003
 20
2183.1844597238469
 11
5526.35966525
 21
2183.2539189738468
  0
LINE
  5
3F
100
AcDbEntity
  8
0
  6
CONTINUOUS
 62
             7
100
AcDbLine
 10
5525.8803094541754
 20
2183.668972371549
 11
5525.9657420000003
 21
2183.1844597238469
  0
LINE
  5
3E
100
AcDbEntity
  8
0
  6
CONTINUOUS
 62
             7
100
AcDbLine
 10
5525.9657420000003
 20
2179.314687973847
 11
5525.8803094465884
 21
2178.8301750781229
  0
LINE
  5
3D
100
AcDbEntity
  8
0
  6
CONTINUOUS
 62
             7
100
AcDbLine
 10
5526.35966525
 20
2179.245228723847
 11
5525.9657420000003
 21
2179.314687973847
  0
LINE
  5
3C
100
AcDbEntity
  8
0
  6
CONTINUOUS
 62
             7
100
AcDbLine
 10
5526.2742324896144
 20
2178.760715816888
 11
5526.35966525
 21
2179.245228723847
  0
LINE
  5
3B
100
AcDbEntity
  8
0
  6
CONTINUOUS
 62
             7
100
AcDbLine
 10
5527.3481589737794
 20
2178.894262802829
 11
5527.2208232500006
 21
2179.3694859738471
  0
LINE
  5
3A
100
AcDbEntity
  8
0
  6
CONTINUOUS
 62
             7
100
AcDbLine
 10
5526.8344530000004
 20
2179.2659582238471
 11
5526.9617884940753
 21
2178.790735145044
  0
LINE
  5
39
100
AcDbEntity
  8
0
  6
CONTINUOUS
 62
             7
100
AcDbLine
 10
5527.2208232500006
 20
2179.3694859738471
 11
5526.8344530000004
 21
2179.2659582238471
  0
LINE
  5
38
100
AcDbEntity
  8
0
  6
CONTINUOUS
 62
             7
100
AcDbLine
 10
5528.2650274022099
 20
2179.469158374136
 11
5527.9487840000002
 21
2179.8460424738469
  0
LINE
  5
37
100
AcDbEntity
  8
0
  6
CONTINUOUS
 62
             7
100
AcDbLine
 10
5527.6423662500001
 20
2179.5889272238469
 11
5527.9586096478406
 21
2179.212043334338
  0
LINE
  5
36
100
AcDbEntity
  8
0
  6
CONTINUOUS
 62
             7
100
AcDbLine
 10
5527.9487840000002
 20
2179.8460424738469
 11
5527.6423662500001
 21
2179.5889272238469
  0
LINE
  5
35
100
AcDbEntity
  8
0
  6
CONTINUOUS
 62
             7
100
AcDbLine
 10
5528.2380920000014
 20
2180.2230757238472
 11
5528.6839837222606
 21
2180.015152897975
  0
LINE
  5
34
100
AcDbEntity
  8
0
  6
CONTINUOUS
 62
             7
100
AcDbLine
 10
5528.40713925
 20
2180.5855987238469
 11
5528.2380920000014
 21
2180.2230757238472
  0
LINE
  5
33
100
AcDbEntity
  8
0
  6
CONTINUOUS
 62
             7
100
AcDbLine
 10
5528.8530310106216
 20
2180.377675975677
 11
5528.40713925
 21
2180.5855987238469
  0
LINE
  5
32
100
AcDbEntity
  8
0
  6
CONTINUOUS
 62
             7
100
AcDbLine
 10
5529.0019871588765
 20
2181.4495737238472
 11
5528.5100000000002
 21
2181.4495737238472
  0
LINE
  5
31
100
AcDbEntity
  8
0
  6
CONTINUOUS
 62
             7
100
AcDbLine
 10
5528.5100000000002
 20
2181.0495737238471
 11
5529.0019871588756
 21
2181.0495737238471
  0
LINE
  5
30
100
AcDbEntity
  8
0
  6
CONTINUOUS
 62
             7
100
AcDbLine
 10
5528.5100000000002
 20
2181.4495737238472
 11
5528.5100000000002
 21
2181.0495737238471
  0
LINE
  5
2F
100
AcDbEntity
  8
1
  6
CONTINUOUS
 62
             7
100
AcDbLine
 10
5527.5100000000002
 20
2180.4995737238469
 11
5527.5100000000002
 21
2180.899573723847
  0
LINE
  5
2E
100
AcDbEntity
  8
1
  6
CONTINUOUS
 62
             7
100
AcDbLine
 10
5527.5100000000002
 20
2181.5995737238468
 11
5527.5100000000002
 21
2181.9995737238469
  0
LINE
  5
2D
100
AcDbEntity
  8
1
  6
CONTINUOUS
 62
             7
100
AcDbLine
 10
5538.0100000000002
 20
2184.2495737238469
 11
5538.0100000000002
 21
2179.2495737238469
  0
LINE
  5
2C
100
AcDbEntity
  8
1
  6
CONTINUOUS
 62
             7
100
AcDbLine
 10
5538.0100000000002
 20
2185.2495737238469
 11
5538.0100000000002
 21
2184.2495737238469
  0
LINE
  5
2B
100
AcDbEntity
  8
1
  6
CONTINUOUS
 62
             7
100
AcDbLine
 10
5538.0100000000002
 20
2188.7495737238469
 11
5538.0100000000002
 21
2185.2495737238469
  0
LINE
  5
2A
100
AcDbEntity
  8
1
  6
CONTINUOUS
 62
             7
100
AcDbLine
 10
5538.0100000000002
 20
2189.7495737238469
 11
5538.0100000000002
 21
2188.7495737238469
  0
LINE
  5
29
100
AcDbEntity
  8
1
  6
CONTINUOUS
 62
             7
100
AcDbLine
 10
5533.9099999999999
 20
2193.2495737238469
 11
5538.0100000000002
 21
2193.2495737238469
  0
LINE
  5
28
100
AcDbEntity
  8
1
  6
CONTINUOUS
 62
             7
100
AcDbLine
 10
5538.0100000000002
 20
2193.2495737238469
 11
5538.0100000000002
 21
2189.7495737238469
  0
ENDSEC
  0
SECTION
  2
OBJECTS
  0
DICTIONARY
  5
19
100
AcDbDictionary
  3
ACAD_GROUP
350
1A
  3
ACAD_MLINESTYLE
350
1B
  0
DICTIONARY
  5
1A
102
{ACAD_REACTORS
330
19
102
}
100
AcDbDictionary
  0
DICTIONARY
  5
1B
102
{ACAD_REACTORS
330
19
102
}
100
AcDbDictionary
  3
STANDARD
350
1C
  0
MLINESTYLE
  5
1C
102
{ACAD_REACTORS
330
1B
102
}
100
AcDbMlineStyle
  2
STANDARD
 70
             0
  3

 62
             0
 51
90.0
 52
90.0
 71
             2
 49
0.5
 62
           256
  6
BYLAYER
 49
-0.5
 62
           256
  6
BYLAYER
  0
ENDSEC
  0
EOF
