  0
SECTION
  2
HEADER
  9
$ACADVER
  1
AC1014
  9
$ACADMAINTVER
 70
             0
  9
$DWGCODEPAGE
  3
ANSI_1252
  9
$INSBASE
 10
0.0
 20
0.0
 30
0.0
  9
$EXTMIN
 10
1.00000000000000E+20
 20
1.00000000000000E+20
 30
1.00000000000000E+20
  9
$EXTMAX
 10
-1.00000000000000E+20
 20
-1.00000000000000E+20
 30
-1.00000000000000E+20
  9
$LIMMIN
 10
0.0
 20
0.0
  9
$LIMMAX
 10
0.0
 20
0.0
  9
$ORTHOMODE
 70
             0
  9
$REGENMODE
 70
             1
  9
$FILLMODE
 70
             1
  9
$QTEXTMODE
 70
             0
  9
$MIRRTEXT
 70
             1
  9
$DRAGMODE
 70
             2
  9
$LTSCALE
 40
1.0
  9
$OSMODE
 70
             0
  9
$ATTMODE
 70
             1
  9
$TEXTSIZE
 40
0.2
  9
$TRACEWID
 40
0.05
  9
$TEXTSTYLE
  7
STANDARD
  9
$CLAYER
  8
0
  9
$CELTYPE
  6
CONTINUOUS
  9
$CECOLOR
 62
           256
  9
$CELTSCALE
 40
1.0
  9
$DELOBJ
 70
             1
  9
$DISPSILH
 70
             0
  9
$DIMSCALE
 40
1.0
  9
$DIMASZ
 40
0.18
  9
$DIMEXO
 40
0.0625
  9
$DIMDLI
 40
0.38
  9
$DIMRND
 40
0.0
  9
$DIMDLE
 40
0.0
  9
$DIMEXE
 40
0.18
  9
$DIMTP
 40
0.0
  9
$DIMTM
 40
0.0
  9
$DIMTXT
 40
0.18
  9
$DIMCEN
 40
0.09
  9
$DIMTSZ
 40
0.0
  9
$DIMTOL
 70
             0
  9
$DIMLIM
 70
             0
  9
$DIMTIH
 70
             1
  9
$DIMTOH
 70
             1
  9
$DIMSE1
 70
             0
  9
$DIMSE2
 70
             0
  9
$DIMTAD
 70
             0
  9
$DIMZIN
 70
             0
  9
$DIMBLK
  1

  9
$DIMASO
 70
             1
  9
$DIMSHO
 70
             1
  9
$DIMPOST
  1

  9
$DIMAPOST
  1

  9
$DIMALT
 70
             0
  9
$DIMALTD
 70
             2
  9
$DIMALTF
 40
25.4
  9
$DIMLFAC
 40
1.0
  9
$DIMTOFL
 70
             0
  9
$DIMTVP
 40
0.0
  9
$DIMTIX
 70
             0
  9
$DIMSOXD
 70
             0
  9
$DIMSAH
 70
             0
  9
$DIMBLK1
  1

  9
$DIMBLK2
  1

  9
$DIMSTYLE
  2
STANDARD
  9
$DIMCLRD
 70
             0
  9
$DIMCLRE
 70
             0
  9
$DIMCLRT
 70
             0
  9
$DIMTFAC
 40
1.0
  9
$DIMGAP
 40
0.09
  9
$DIMJUST
 70
             0
  9
$DIMSD1
 70
             0
  9
$DIMSD2
 70
             0
  9
$DIMTOLJ
 70
             1
  9
$DIMTZIN
 70
             0
  9
$DIMALTZ
 70
             0
  9
$DIMALTTZ
 70
             0
  9
$DIMFIT
 70
             3
  9
$DIMUPT
 70
             0
  9
$DIMUNIT
 70
             2
  9
$DIMDEC
 70
             4
  9
$DIMTDEC
 70
             4
  9
$DIMALTU
 70
             2
  9
$DIMALTTD
 70
             2
  9
$DIMTXSTY
  7
STANDARD
  9
$DIMAUNIT
 70
             0
  9
$LUNITS
 70
             2
  9
$LUPREC
 70
             4
  9
$SKETCHINC
 40
0.1
  9
$FILLETRAD
 40
0.0
  9
$AUNITS
 70
             0
  9
$AUPREC
 70
             0
  9
$MENU
  1
acad
  9
$ELEVATION
 40
0.0
  9
$PELEVATION
 40
0.0
  9
$THICKNESS
 40
0.0
  9
$LIMCHECK
 70
             0
  9
$BLIPMODE
 70
             1
  9
$CHAMFERA
 40
0.0
  9
$CHAMFERB
 40
0.0
  9
$CHAMFERC
 40
0.0
  9
$CHAMFERD
 40
0.0
  9
$SKPOLY
 70
             0
  9
$TDCREATE
 40
0.000000000
  9
$TDUPDATE
 40
0.000000000
  9
$TDINDWG
 40
0.0000000000
  9
$TDUSRTIMER
 40
0.0000000000
  9
$USRTIMER
 70
             1
  9
$ANGBASE
 50
0.0
  9
$ANGDIR
 70
             0
  9
$PDMODE
 70
             0
  9
$PDSIZE
 40
0.0
  9
$PLINEWID
 40
0.0
  9
$COORDS
 70
             0
  9
$SPLFRAME
 70
             0
  9
$SPLINETYPE
 70
             6
  9
$SPLINESEGS
 70
             8
  9
$ATTDIA
 70
             0
  9
$ATTREQ
 70
             1
  9
$HANDLING
 70
             1
  9
$HANDSEED
  5
28B
  9
$SURFTAB1
 70
             6
  9
$SURFTAB2
 70
             6
  9
$SURFTYPE
 70
             6
  9
$SURFU
 70
             6
  9
$SURFV
 70
             6
  9
$UCSNAME
  2

  9
$UCSORG
 10
0.0
 20
0.0
 30
0.0
  9
$UCSXDIR
 10
1.0
 20
0.0
 30
0.0
  9
$UCSYDIR
 10
0.0
 20
1.0
 30
0.0
  9
$PUCSNAME
  2

  9
$PUCSORG
 10
0.0
 20
0.0
 30
0.0
  9
$PUCSXDIR
 10
1.0
 20
0.0
 30
0.0
  9
$PUCSYDIR
 10
0.0
 20
1.0
 30
0.0
  9
$USERI1
 70
             0
  9
$USERI2
 70
             0
  9
$USERI3
 70
             0
  9
$USERI4
 70
             0
  9
$USERI5
 70
             0
  9
$USERR1
 40
11.6
  9
$USERR2
 40
0.0
  9
$USERR3
 40
0.0
  9
$USERR4
 40
0.0
  9
$USERR5
 40
0.0
  9
$WORLDVIEW
 70
             1
  9
$SHADEDGE
 70
             3
  9
$SHADEDIF
 70
            70
  9
$TILEMODE
 70
             1
  9
$MAXACTVP
 70
            16
  9
$PINSBASE
 10
0.0
 20
0.0
 30
0.0
  9
$PLIMCHECK
 70
             0
  9
$PEXTMIN
 10
1.00000000000000E+20
 20
1.00000000000000E+20
 30
1.00000000000000E+20
  9
$PEXTMAX
 10
-1.00000000000000E+20
 20
-1.00000000000000E+20
 30
-1.00000000000000E+20
  9
$PLIMMIN
 10
0.0
 20
0.0
  9
$PLIMMAX
 10
12.0
 20
9.0
  9
$UNITMODE
 70
             0
  9
$VISRETAIN
 70
             0
  9
$PLINEGEN
 70
             1
  9
$PSLTSCALE
 70
             0
  9
$TREEDEPTH
 70
          3020
  9
$PICKSTYLE
 70
             1
  9
$CMLSTYLE
  2
STANDARD
  9
$CMLJUST
 70
             0
  9
$CMLSCALE
 40
1.0
  9
$PROXYGRAPHICS
 70
             0
  9
$MEASUREMENT
 70
             1
  0
ENDSEC
  0
SECTION
  2
CLASSES
  0
CLASS
  1
LWPOLYLINE
  2
AcDbPolyline
  3
"AutoCAD"
 90
        0
280
             0
281
             1
  0
CLASS
  1
IMAGE
  2
AcDbRasterImage
  3
ISM
 90
      127
280
             0
281
             1
  0
CLASS
  1
OLE2FRAME
  2
AcDbOle2Frame
  3
""
 90
        0
280
             0
281
             1
  0
CLASS
  1
HATCH
  2
AcDbHatch
  3
"ACAD_SEDONA"
 90
        0
280
             0
281
             1
  0
CLASS
  1
DICTIONARYVAR
  2
AcDbDictionaryVar
  3
"AutoCAD"
 90
        0
280
             0
281
             0
  0
CLASS
  1
RASTERVARIABLES
  2
AcDbRasterVariables
  3
ISM
 90
        0
280
             0
281
             0
  0
CLASS
  1
IMAGEDEF
  2
AcDbRasterImageDef
  3
ISM
 90
        0
280
             0
281
             0
  0
CLASS
  1
IMAGEDEF_REACTOR
  2
AcDbRasterImageDefReactor
  3
ISM
 90
        1
280
             0
281
             0
  0
CLASS
  1
IDBUFFER
  2
AcDbIdBuffer
  3
"Acad"
 90
        0
280
             0
281
             0
  0
CLASS
  1
SPATIAL_FILTER
  2
AcDbSpatialFilter
  3
"Acad"
 90
        0
280
             0
281
             0
  0
CLASS
  1
XRECORD
  2
AcDbXrecord
  3
"<Built In>"
 90
        0
280
             0
281
             0
  0
CLASS
  1
SORTENTSTABLE
  2
AcDbSortentsTable
  3
"AutoCAD"
 90
        0
280
             0
281
             0
  0
CLASS
  1
LAYER_INDEX
  2
AcDbLayerIndex
  3
"Acad"
 90
        0
280
             0
281
             0
  0
CLASS
  1
SPATIAL_INDEX
  2
AcDbSpatialIndex
  3
"Acad"
 90
        0
280
             0
281
             0
  0
CLASS
  1
OBJECT_PTR
  2
CAseDLPNTableRecord
  3
"ASE-LPNTableRecord"
 90
        1
280
             0
281
             0
  0
CLASS
  1
LAYOUT
  2
AcDbLayout
  3
"AutoCAD 2000"
 90
        1
280
             0
281
             0
  0
CLASS
  1
PLOTSETTINGS
  2
AcDbPlotSettings
  3
"AutoCAD 2000"
 90
        1
280
             0
281
             0
  0
CLASS
  1
ACDBDICTIONARYWDFLT
  2
AcDbDictionaryWithDefault
  3
"AutoCAD 2000"
 90
        1
280
             0
281
             0
  0
CLASS
  1
ACDBPLACEHOLDER
  2
AcDbPlaceHolder
  3
"AutoCAD 2000"
 90
        1
280
             0
281
             0
  0
ENDSEC
  0
SECTION
  2
TABLES
  0
TABLE
  2
VPORT
  5
7
100
AcDbSymbolTable
 70
             1
  0
VPORT
  5
15
100
AcDbSymbolTableRecord
100
AcDbViewportTableRecord
  2
*ACTIVE
 70
             0
 10
0.0
 20
0.0
 11
1.0
 21
1.0
 12
1462.7126192961696
 22
4251.2613782651597
 13
0.0
 23
0.0
 14
1.0
 24
1.0
 15
0.0
 25
0.0
 16
0.0
 26
0.0
 36
1.0
 17
0.0
 27
0.0
 37
0.0
 40
114.14016922552447
 41
1.60267857142857
 42
50.0
 43
0.0
 44
0.0
 50
0.0
 51
0.0
 71
             0
 72
           100
 73
             1
 74
             1
 75
             0
 76
             0
 77
             0
 78
             0
  0
ENDTAB
  0
TABLE
  2
LTYPE
  5
4
100
AcDbSymbolTable
 70
            10
  0
LTYPE
  5
11
100
AcDbSymbolTableRecord
100
AcDbLinetypeTableRecord
  2
BYBLOCK
 70
            64
  3

 72
            65
 73
             0
 40
0.0
  0
LTYPE
  5
12
100
AcDbSymbolTableRecord
100
AcDbLinetypeTableRecord
  2
BYLAYER
 70
            64
  3

 72
            65
 73
             0
 40
0.0
  0
LTYPE
  5
13
100
AcDbSymbolTableRecord
100
AcDbLinetypeTableRecord
  2
CONTINUOUS
 70
            64
  3
Solid line
 72
            65
 73
             0
 40
0.0
  0
LTYPE
  5
1D
100
AcDbSymbolTableRecord
100
AcDbLinetypeTableRecord
  2
DASHED
 70
            64
  3
Dashed
 72
            65
 73
             2
 40
15.0
 49
12.0
 74
             0
 49
-3.0
 74
             0
  0
LTYPE
  5
1E
100
AcDbSymbolTableRecord
100
AcDbLinetypeTableRecord
  2
DOTTED
 70
            64
  3
Dotted
 72
            65
 73
             2
 40
3.5
 49
0.5
 74
             0
 49
-3.0
 74
             0
  0
LTYPE
  5
1F
100
AcDbSymbolTableRecord
100
AcDbLinetypeTableRecord
  2
DOT_CENTER
 70
            64
  3
Dot_Center
 72
            65
 73
             4
 40
2.0
 49
1.25
 74
             0
 49
-0.25
 74
             0
 49
0.25
 74
             0
 49
-0.25
 74
             0
  0
LTYPE
  5
20
100
AcDbSymbolTableRecord
100
AcDbLinetypeTableRecord
  2
LONG_DASHED
 70
            64
  3
Long_Dashed
 72
            65
 73
             2
 40
2.0
 49
1.5
 74
             0
 49
-0.5
 74
             0
  0
LTYPE
  5
21
100
AcDbSymbolTableRecord
100
AcDbLinetypeTableRecord
  2
DASH_CENTER
 70
            64
  3
Dash_Center
 72
            65
 73
             4
 40
36.0
 49
24.0
 74
             0
 49
-3.0
 74
             0
 49
6.0
 74
             0
 49
-3.0
 74
             0
  0
LTYPE
  5
22
100
AcDbSymbolTableRecord
100
AcDbLinetypeTableRecord
  2
PHANTOM
 70
            64
  3
Phantom
 72
            65
 73
             6
 40
2.5
 49
1.25
 74
             0
 49
-0.25
 74
             0
 49
0.25
 74
             0
 49
-0.25
 74
             0
 49
0.25
 74
             0
 49
-0.25
 74
             0
  0
LTYPE
  5
23
100
AcDbSymbolTableRecord
100
AcDbLinetypeTableRecord
  2
CENTER_DASH_DASH
 70
            64
  3
Center_Dash_Dash
 72
            65
 73
             6
 40
22.0
 49
12.0
 74
             0
 49
-3.0
 74
             0
 49
0.5
 74
             0
 49
-3.0
 74
             0
 49
0.5
 74
             0
 49
-3.0
 74
             0
  0
ENDTAB
  0
TABLE
  2
LAYER
  5
2
100
AcDbSymbolTable
 70
             2
  0
LAYER
  5
14
100
AcDbSymbolTableRecord
100
AcDbLayerTableRecord
  2
0
 70
             0
 62
             7
  6
CONTINUOUS
  0
LAYER
  5
24
100
AcDbSymbolTableRecord
100
AcDbLayerTableRecord
  2
1
 70
             0
 62
             7
  6
CONTINUOUS
  0
ENDTAB
  0
TABLE
  2
STYLE
  5
3
100
AcDbSymbolTable
 70
             1
  0
STYLE
  5
17
100
AcDbSymbolTableRecord
100
AcDbTextStyleTableRecord
  2
STANDARD
 70
             0
 40
0.0
 41
1.0
 50
0.0
 71
             0
 42
0.0
  3
txt
  4

  0
ENDTAB
  0
TABLE
  2
VIEW
  5
5
100
AcDbSymbolTable
 70
             0
  0
ENDTAB
  0
TABLE
  2
UCS
  5
6
100
AcDbSymbolTable
 70
             0
  0
ENDTAB
  0
TABLE
  2
APPID
  5
8
100
AcDbSymbolTable
 70
             1
  0
APPID
  5
16
100
AcDbSymbolTableRecord
100
AcDbRegAppTableRecord
  2
ACAD
 70
             0
  0
ENDTAB
  0
TABLE
  2
DIMSTYLE
  5
9
100
AcDbSymbolTable
 70
             1
  0
DIMSTYLE
105
18
100
AcDbSymbolTableRecord
100
AcDbDimStyleTableRecord
  2
STANDARD
 70
             0
  3

  4

  5

  6

  7

 40
1.0
 41
0.18
 42
0.0625
 43
0.38
 44
0.18
 45
0.0
 46
0.0
 47
0.0
 48
0.0
 71
             0
 72
             0
 73
             1
 74
             1
 75
             0
 76
             0
 77
             0
 78
             0
140
0.18
141
0.09
142
0.0
143
25.4
144
1.0
145
0.0
146
1.0
147
0.09
170
             0
171
             2
172
             0
173
             0
174
             0
175
             0
176
             0
177
             0
178
             0
270
             2
271
             4
272
             4
273
             2
274
             2
275
             0
280
             0
281
             0
282
             0
283
             1
284
             0
285
             0
286
             0
287
             0
288
             0
340
17
  0
ENDTAB
  0
TABLE
  2
BLOCK_RECORD
  5
1
100
AcDbSymbolTable
 70
             0
  0
BLOCK_RECORD
  5
A
100
AcDbSymbolTableRecord
100
AcDbBlockTableRecord
  2
*MODEL_SPACE
  0
BLOCK_RECORD
  5
B
100
AcDbSymbolTableRecord
100
AcDbBlockTableRecord
  2
*PAPER_SPACE
  0
ENDTAB
  0
ENDSEC
  0
SECTION
  2
BLOCKS
  0
BLOCK
  5
D
100
AcDbEntity
  8
0
100
AcDbBlockBegin
  2
*MODEL_SPACE
 70
             0
 10
0.0
 20
0.0
 30
0.0
  3
*MODEL_SPACE
  1

  0
ENDBLK
  5
E
100
AcDbEntity
  8
0
100
AcDbBlockEnd
  0
BLOCK
  5
F
100
AcDbEntity
 67
             1
  8
0
100
AcDbBlockBegin
  2
*PAPER_SPACE
 70
             0
 10
0.0
 20
0.0
 30
0.0
  3
*PAPER_SPACE
  1

  0
ENDBLK
  5
10
100
AcDbEntity
 67
             1
  8
0
100
AcDbBlockEnd
  0
ENDSEC
  0
SECTION
  2
ENTITIES
  0
ARC
  5
289
100
AcDbEntity
  8
1
  6
CONTINUOUS
 62
             7
100
AcDbCircle
 10
1434.3626177702699
 20
4222.6613782651584
 40
0.30000000000018
100
AcDbArc
 50
90.0
 51
180.0
  0
ARC
  5
288
100
AcDbEntity
  8
1
  6
CONTINUOUS
 62
             7
100
AcDbCircle
 10
1434.3626177702699
 20
4212.2613782651588
 40
0.29999999999995
100
AcDbArc
 50
180.0
 51
-90.0
  0
ARC
  5
287
100
AcDbEntity
  8
1
  6
CONTINUOUS
 62
             7
100
AcDbCircle
 10
1393.13761777027
 20
4212.9613782651604
 40
0.5
100
AcDbArc
 50
90.0
 51
180.0
  0
ARC
  5
286
100
AcDbEntity
  8
1
  6
CONTINUOUS
 62
             7
100
AcDbCircle
 10
1393.13761777027
 20
4217.9613782651604
 40
0.5
100
AcDbArc
 50
180.0
 51
-90.0
  0
ARC
  5
285
100
AcDbEntity
  8
1
  6
CONTINUOUS
 62
             7
100
AcDbCircle
 10
1384.63761777027
 20
4221.9613782651604
 40
1.0
100
AcDbArc
 50
90.0
 51
180.0
  0
ARC
  5
284
100
AcDbEntity
  8
1
  6
CONTINUOUS
 62
             7
100
AcDbCircle
 10
1384.63761777027
 20
4212.9613782651604
 40
1.0
100
AcDbArc
 50
180.0
 51
-90.0
  0
ARC
  5
283
100
AcDbEntity
  8
1
  6
CONTINUOUS
 62
             7
100
AcDbCircle
 10
1391.63761777027
 20
4212.9613782651604
 40
1.0
100
AcDbArc
 50
-90.0
 51
0.0
  0
ARC
  5
282
100
AcDbEntity
  8
1
  6
CONTINUOUS
 62
             7
100
AcDbCircle
 10
1391.63761777027
 20
4221.9613782651604
 40
1.0
100
AcDbArc
 50
0.0
 51
90.0
  0
ARC
  5
281
100
AcDbEntity
  8
1
  6
CONTINUOUS
 62
             7
100
AcDbCircle
 10
1404.9626177702701
 20
4287.6613782651611
 40
0.29999999999995
100
AcDbArc
 50
0.0
 51
90.0
  0
ARC
  5
280
100
AcDbEntity
  8
1
  6
CONTINUOUS
 62
             7
100
AcDbCircle
 10
1404.9626177702701
 20
4286.8613782651582
 40
0.29999999999927
100
AcDbArc
 50
-90.0
 51
0.0
  0
ARC
  5
27F
100
AcDbEntity
  8
1
  6
CONTINUOUS
 62
             7
100
AcDbCircle
 10
1402.162617770269
 20
4286.8613782651582
 40
0.29999999999905
100
AcDbArc
 50
180.0
 51
-90.0
  0
ARC
  5
27E
100
AcDbEntity
  8
1
  6
CONTINUOUS
 62
             7
100
AcDbCircle
 10
1402.162617770269
 20
4287.6613782651611
 40
0.29999999999927
100
AcDbArc
 50
90.0
 51
180.0
  0
ARC
  5
27D
100
AcDbEntity
  8
1
  6
CONTINUOUS
 62
             7
100
AcDbCircle
 10
1398.9626177702701
 20
4287.6613782651611
 40
0.29999999999995
100
AcDbArc
 50
0.0
 51
90.0
  0
ARC
  5
27C
100
AcDbEntity
  8
1
  6
CONTINUOUS
 62
             7
100
AcDbCircle
 10
1398.9626177702701
 20
4286.8613782651582
 40
0.29999999999927
100
AcDbArc
 50
-90.0
 51
0.0
  0
ARC
  5
27B
100
AcDbEntity
  8
1
  6
CONTINUOUS
 62
             7
100
AcDbCircle
 10
1396.162617770269
 20
4286.8613782651582
 40
0.29999999999905
100
AcDbArc
 50
180.0
 51
-90.0
  0
ARC
  5
27A
100
AcDbEntity
  8
1
  6
CONTINUOUS
 62
             7
100
AcDbCircle
 10
1396.162617770269
 20
4287.6613782651611
 40
0.29999999999927
100
AcDbArc
 50
90.0
 51
180.0
  0
ARC
  5
279
100
AcDbEntity
  8
1
  6
CONTINUOUS
 62
             7
100
AcDbCircle
 10
1384.162617770269
 20
4287.6613782651611
 40
0.29999999999927
100
AcDbArc
 50
90.0
 51
180.0
  0
ARC
  5
278
100
AcDbEntity
  8
1
  6
CONTINUOUS
 62
             7
100
AcDbCircle
 10
1384.162617770269
 20
4286.8613782651582
 40
0.29999999999905
100
AcDbArc
 50
180.0
 51
-90.0
  0
ARC
  5
277
100
AcDbEntity
  8
1
  6
CONTINUOUS
 62
             7
100
AcDbCircle
 10
1386.9626177702701
 20
4286.8613782651582
 40
0.29999999999927
100
AcDbArc
 50
-90.0
 51
0.0
  0
ARC
  5
276
100
AcDbEntity
  8
1
  6
CONTINUOUS
 62
             7
100
AcDbCircle
 10
1386.9626177702701
 20
4287.6613782651611
 40
0.29999999999995
100
AcDbArc
 50
0.0
 51
90.0
  0
ARC
  5
275
100
AcDbEntity
  8
1
  6
CONTINUOUS
 62
             7
100
AcDbCircle
 10
1405.56261777027
 20
4254.2613782651597
 40
0.5
100
AcDbArc
 50
-90.0
 51
0.0
  0
ARC
  5
274
100
AcDbEntity
  8
1
  6
CONTINUOUS
 62
             7
100
AcDbCircle
 10
1383.56261777027
 20
4254.2613782651597
 40
0.5
100
AcDbArc
 50
180.0
 51
-90.0
  0
ARC
  5
273
100
AcDbEntity
  8
1
  6
CONTINUOUS
 62
             7
100
AcDbCircle
 10
1383.56261777027
 20
4265.7613782651597
 40
0.5
100
AcDbArc
 50
90.0
 51
180.0
  0
ARC
  5
272
100
AcDbEntity
  8
1
  6
CONTINUOUS
 62
             7
100
AcDbCircle
 10
1405.56261777027
 20
4265.7613782651597
 40
0.5
100
AcDbArc
 50
0.0
 51
90.0
  0
ARC
  5
271
100
AcDbEntity
  8
1
  6
CONTINUOUS
 62
             7
100
AcDbCircle
 10
1405.56261777027
 20
4270.2613782651597
 40
0.5
100
AcDbArc
 50
-90.0
 51
0.0
  0
ARC
  5
270
100
AcDbEntity
  8
1
  6
CONTINUOUS
 62
             7
100
AcDbCircle
 10
1405.56261777027
 20
4281.7613782651597
 40
0.5
100
AcDbArc
 50
0.0
 51
90.0
  0
ARC
  5
26F
100
AcDbEntity
  8
1
  6
CONTINUOUS
 62
             7
100
AcDbCircle
 10
1383.56261777027
 20
4270.2613782651597
 40
0.5
100
AcDbArc
 50
180.0
 51
-90.0
  0
ARC
  5
26E
100
AcDbEntity
  8
1
  6
CONTINUOUS
 62
             7
100
AcDbCircle
 10
1383.56261777027
 20
4281.7613782651597
 40
0.5
100
AcDbArc
 50
90.0
 51
180.0
  0
CIRCLE
  5
26D
100
AcDbEntity
  8
1
  6
CONTINUOUS
 62
             7
100
AcDbCircle
 10
1394.1126177702699
 20
4254.8613782651601
 40
0.60000000000014
  0
CIRCLE
  5
26C
100
AcDbEntity
  8
1
  6
CONTINUOUS
 62
             7
100
AcDbCircle
 10
1399.6126177702699
 20
4254.8613782651601
 40
0.60000000000014
  0
CIRCLE
  5
26B
100
AcDbEntity
  8
1
  6
CONTINUOUS
 62
             7
100
AcDbCircle
 10
1388.6126177702699
 20
4254.8613782651601
 40
0.60000000000014
  0
CIRCLE
  5
26A
100
AcDbEntity
  8
1
  6
CONTINUOUS
 62
             7
100
AcDbCircle
 10
1388.6126177702699
 20
4270.8613782651601
 40
0.60000000000014
  0
CIRCLE
  5
269
100
AcDbEntity
  8
1
  6
CONTINUOUS
 62
             7
100
AcDbCircle
 10
1399.6126177702699
 20
4270.8613782651601
 40
0.60000000000014
  0
CIRCLE
  5
268
100
AcDbEntity
  8
1
  6
CONTINUOUS
 62
             7
100
AcDbCircle
 10
1394.1126177702699
 20
4270.8613782651601
 40
0.60000000000014
  0
CIRCLE
  5
267
100
AcDbEntity
  8
1
  6
CONTINUOUS
 62
             7
100
AcDbCircle
 10
1400.56261777027
 20
4217.4613782651604
 40
1.5
  0
ARC
  5
266
100
AcDbEntity
  8
1
  6
CONTINUOUS
 62
             7
100
AcDbCircle
 10
1516.5626177702691
 20
4265.0613782651599
 40
1.0
100
AcDbArc
 50
0.00000000005211
 51
90.0
  0
ARC
  5
265
100
AcDbEntity
  8
0
  6
CONTINUOUS
 62
             7
100
AcDbCircle
 10
1515.5626177702691
 20
4231.7613782651597
 40
2.00000000000011
100
AcDbArc
 50
179.99998133068425
 51
-89.99998201391422
  0
ARC
  5
264
100
AcDbEntity
  8
0
  6
CONTINUOUS
 62
             7
100
AcDbCircle
 10
1526.3626208220689
 20
4222.7613782651597
 40
2.00000000000011
100
AcDbArc
 50
179.99998133073638
 51
-89.99998201390771
  0
ARC
  5
263
100
AcDbEntity
  8
0
  6
CONTINUOUS
 62
             7
100
AcDbCircle
 10
1526.3626208220689
 20
4220.7613782651597
 40
2.00000000000011
100
AcDbArc
 50
179.99998133073638
 51
0.0
  0
ARC
  5
262
100
AcDbEntity
  8
0
  6
CONTINUOUS
 62
             7
100
AcDbCircle
 10
1526.3626208220689
 20
4282.7613782651597
 40
2.0000000000001
100
AcDbArc
 50
89.99998201390771
 51
179.99996402775028
  0
ARC
  5
261
100
AcDbEntity
  8
0
  6
CONTINUOUS
 62
             7
100
AcDbCircle
 10
1515.5626177702691
 20
4273.7613782651597
 40
2.0000000000001
100
AcDbArc
 50
89.99998201391422
 51
179.99996402775028
  0
ARC
  5
260
100
AcDbEntity
  8
0
  6
CONTINUOUS
 62
             7
100
AcDbCircle
 10
1537.9626116667689
 20
4267.2613935239597
 40
1.00000000000108
100
AcDbArc
 50
-53.13008811940851
 51
0.00021173586427
  0
ARC
  5
25F
100
AcDbEntity
  8
0
  6
CONTINUOUS
 62
             7
100
AcDbCircle
 10
1539.898707858169
 20
4236.96139047216
 40
0.19999998810091
100
AcDbArc
 50
89.99998201403039
 51
-170.53765582049053
  0
ARC
  5
25E
100
AcDbEntity
  8
1
  6
CONTINUOUS
 62
             7
100
AcDbCircle
 10
1516.5626177702691
 20
4239.9613782651604
 40
1.0
100
AcDbArc
 50
-90.0
 51
0.0
  0
ARC
  5
25D
100
AcDbEntity
  8
1
  6
CONTINUOUS
 62
             7
100
AcDbCircle
 10
1435.06261777027
 20
4210.7613782651579
 40
0.5
100
AcDbArc
 50
180.0
 51
-90.0
  0
ARC
  5
25C
100
AcDbEntity
  8
1
  6
CONTINUOUS
 62
             7
100
AcDbCircle
 10
1435.06261777027
 20
4294.7613782651597
 40
0.5
100
AcDbArc
 50
90.0
 51
180.0
  0
ARC
  5
25B
100
AcDbEntity
  8
1
  6
CONTINUOUS
 62
             7
100
AcDbCircle
 10
1408.56261777027
 20
4294.2613782651597
 40
1.0
100
AcDbArc
 50
0.0
 51
90.0
  0
ARC
  5
25A
100
AcDbEntity
  8
1
  6
CONTINUOUS
 62
             7
100
AcDbCircle
 10
1380.56261777027
 20
4294.2613782651597
 40
1.0
100
AcDbArc
 50
90.0
 51
180.0
  0
ARC
  5
259
100
AcDbEntity
  8
1
  6
CONTINUOUS
 62
             7
100
AcDbCircle
 10
1408.56261777027
 20
4211.2613782651597
 40
1.0
100
AcDbArc
 50
-90.0
 51
0.0
  0
ARC
  5
258
100
AcDbEntity
  8
1
  6
CONTINUOUS
 62
             7
100
AcDbCircle
 10
1380.56261777027
 20
4211.2613782651597
 40
1.0
100
AcDbArc
 50
180.0
 51
-90.0
  0
ARC
  5
257
100
AcDbEntity
  8
1
  6
CONTINUOUS
 62
             7
100
AcDbCircle
 10
1451.01261777027
 20
4239.2613782651597
 40
0.75
100
AcDbArc
 50
-90.0
 51
90.0
  0
ARC
  5
256
100
AcDbEntity
  8
1
  6
CONTINUOUS
 62
             7
100
AcDbCircle
 10
1451.01261777027
 20
4236.2613782651597
 40
0.75
100
AcDbArc
 50
-90.0
 51
90.0
  0
ARC
  5
255
100
AcDbEntity
  8
1
  6
CONTINUOUS
 62
             7
100
AcDbCircle
 10
1441.76261777027
 20
4238.5113782651597
 40
1.5
100
AcDbArc
 50
90.0
 51
180.0
  0
ARC
  5
254
100
AcDbEntity
  8
1
  6
CONTINUOUS
 62
             7
100
AcDbCircle
 10
1441.76261777027
 20
4237.0113782651597
 40
1.5
100
AcDbArc
 50
180.0
 51
-90.0
  0
ARC
  5
253
100
AcDbEntity
  8
1
  6
CONTINUOUS
 62
             7
100
AcDbCircle
 10
1441.76261777027
 20
4275.5113782651579
 40
1.5
100
AcDbArc
 50
90.0
 51
180.0
  0
ARC
  5
252
100
AcDbEntity
  8
1
  6
CONTINUOUS
 62
             7
100
AcDbCircle
 10
1441.76261777027
 20
4274.0113782651579
 40
1.5
100
AcDbArc
 50
180.0
 51
-90.0
  0
ARC
  5
251
100
AcDbEntity
  8
1
  6
CONTINUOUS
 62
             7
100
AcDbCircle
 10
1451.01261777027
 20
4276.2613782651579
 40
0.75
100
AcDbArc
 50
-90.0
 51
90.0
  0
ARC
  5
250
100
AcDbEntity
  8
1
  6
CONTINUOUS
 62
             7
100
AcDbCircle
 10
1451.01261777027
 20
4273.2613782651579
 40
0.75
100
AcDbArc
 50
-90.0
 51
90.0
  0
ARC
  5
24F
100
AcDbEntity
  8
1
  6
CONTINUOUS
 62
             7
100
AcDbCircle
 10
1510.0626177702691
 20
4211.4613782651604
 40
0.5
100
AcDbArc
 50
90.0
 51
180.0
  0
ARC
  5
24E
100
AcDbEntity
  8
1
  6
CONTINUOUS
 62
             7
100
AcDbCircle
 10
1513.0626177702691
 20
4212.4613782651604
 40
0.5
100
AcDbArc
 50
-90.0
 51
0.0
  0
ARC
  5
24D
100
AcDbEntity
  8
1
  6
CONTINUOUS
 62
             7
100
AcDbCircle
 10
1509.0626177702691
 20
4210.7613782651597
 40
0.5
100
AcDbArc
 50
-90.0
 51
0.0
  0
ARC
  5
24C
100
AcDbEntity
  8
1
  6
CONTINUOUS
 62
             7
100
AcDbCircle
 10
1513.0626177702691
 20
4210.7613782651597
 40
0.5
100
AcDbArc
 50
-90.0
 51
0.0
  0
ARC
  5
24B
100
AcDbEntity
  8
1
  6
CONTINUOUS
 62
             7
100
AcDbCircle
 10
1509.5626177702691
 20
4260.6613797910104
 40
0.5
100
AcDbArc
 50
90.0
 51
180.0
  0
ARC
  5
24A
100
AcDbEntity
  8
1
  6
CONTINUOUS
 62
             7
100
AcDbCircle
 10
1509.5626177702691
 20
4244.8613767392108
 40
0.5
100
AcDbArc
 50
180.0
 51
-90.0
  0
ARC
  5
249
100
AcDbEntity
  8
1
  6
CONTINUOUS
 62
             7
100
AcDbCircle
 10
1513.0626177702691
 20
4261.6613797910104
 40
0.5
100
AcDbArc
 50
-90.0
 51
0.0
  0
ARC
  5
248
100
AcDbEntity
  8
1
  6
CONTINUOUS
 62
             7
100
AcDbCircle
 10
1513.0626177702691
 20
4243.8613767392108
 40
0.5
100
AcDbArc
 50
0.0
 51
90.0
  0
ARC
  5
247
100
AcDbEntity
  8
1
  6
CONTINUOUS
 62
             7
100
AcDbCircle
 10
1513.0626177702691
 20
4294.7613782651597
 40
0.5
100
AcDbArc
 50
0.0
 51
90.0
  0
ARC
  5
246
100
AcDbEntity
  8
1
  6
CONTINUOUS
 62
             7
100
AcDbCircle
 10
1509.0626177702691
 20
4294.7613782651597
 40
0.5
100
AcDbArc
 50
0.0
 51
90.0
  0
ARC
  5
245
100
AcDbEntity
  8
1
  6
CONTINUOUS
 62
             7
100
AcDbCircle
 10
1513.0626177702691
 20
4293.061378265159
 40
0.5
100
AcDbArc
 50
0.0
 51
90.0
  0
ARC
  5
244
100
AcDbEntity
  8
1
  6
CONTINUOUS
 62
             7
100
AcDbCircle
 10
1510.0626177702691
 20
4294.061378265159
 40
0.5
100
AcDbArc
 50
180.0
 51
-90.0
  0
ARC
  5
243
100
AcDbEntity
  8
0
  6
DOTTED
 62
             7
100
AcDbCircle
 10
1539.3626360808689
 20
4266.0613813169612
 40
0.80000001190017
100
AcDbArc
 50
179.9999640279332
 51
-90.00005395829562
  0
ARC
  5
242
100
AcDbEntity
  8
0
  6
DOTTED
 62
             7
100
AcDbCircle
 10
1539.3626360808689
 20
4239.46137521336
 40
0.80000001189914
100
AcDbArc
 50
89.99998201391774
 51
179.99996402780292
  0
ARC
  5
241
100
AcDbEntity
  8
0
  6
DOTTED
 62
             7
100
AcDbCircle
 10
1545.0626177702691
 20
4240.0613813169612
 40
0.80000001190096
100
AcDbArc
 50
-89.99998201393403
 51
0.0
  0
ARC
  5
240
100
AcDbEntity
  8
0
  6
DOTTED
 62
             7
100
AcDbCircle
 10
1544.0626177702691
 20
4241.0613813169612
 40
0.80000001190096
100
AcDbArc
 50
-89.99998201393403
 51
0.0
  0
ARC
  5
23F
100
AcDbEntity
  8
0
  6
DOTTED
 62
             7
100
AcDbCircle
 10
1540.3626360808689
 20
4238.46137521336
 40
0.80000001189914
100
AcDbArc
 50
89.99998201391774
 51
179.99996402780292
  0
ARC
  5
23E
100
AcDbEntity
  8
0
  6
DOTTED
 62
             7
100
AcDbCircle
 10
1545.0626177702691
 20
4265.46137521336
 40
0.80000001190001
100
AcDbArc
 50
0.0
 51
89.99998201393403
  0
ARC
  5
23D
100
AcDbEntity
  8
0
  6
DOTTED
 62
             7
100
AcDbCircle
 10
1540.3626360808689
 20
4267.0613813169612
 40
0.80000001190017
100
AcDbArc
 50
179.9999640279332
 51
-90.00005395829562
  0
ARC
  5
23C
100
AcDbEntity
  8
0
  6
DOTTED
 62
             7
100
AcDbCircle
 10
1544.0626177702691
 20
4264.46137521336
 40
0.80000001190001
100
AcDbArc
 50
0.0
 51
89.99998201393403
  0
ARC
  5
23B
100
AcDbEntity
  8
1
  6
CONTINUOUS
 62
             7
100
AcDbCircle
 10
1395.63761777027
 20
4215.4613782651604
 40
2.0
100
AcDbArc
 50
-90.0
 51
90.0
  0
ARC
  5
23A
100
AcDbEntity
  8
1
  6
CONTINUOUS
 62
             7
100
AcDbCircle
 10
1394.56261777027
 20
4220.7613782651597
 40
1.00000000000015
100
AcDbArc
 50
169.41267868180452
 51
-90.0
  0
ARC
  5
239
100
AcDbEntity
  8
1
  6
CONTINUOUS
 62
             7
100
AcDbCircle
 10
1396.56261777027
 20
4231.4613782651586
 40
1.0
100
AcDbArc
 50
90.0
 51
169.41267868170209
  0
ARC
  5
238
100
AcDbEntity
  8
1
  6
CONTINUOUS
 62
             7
100
AcDbCircle
 10
1387.7492765129659
 20
4264.061378265159
 40
1.20458380505193
100
AcDbArc
 50
-9.99999999998272
 51
85.00000000005269
  0
ARC
  5
237
100
AcDbEntity
  8
1
  6
CONTINUOUS
 62
             7
100
AcDbCircle
 10
1387.084362670168
 20
4256.4613782651604
 40
1.19999999999925
100
AcDbArc
 50
-94.99999999999422
 51
-5.00000000007033
  0
ARC
  5
236
100
AcDbEntity
  8
1
  6
CONTINUOUS
 62
             7
100
AcDbCircle
 10
1385.540872870371
 20
4264.061378265159
 40
1.20458380505309
100
AcDbArc
 50
84.99999999981566
 51
127.73804030595143
  0
ARC
  5
235
100
AcDbEntity
  8
1
  6
CONTINUOUS
 62
             7
100
AcDbCircle
 10
1385.540872870371
 20
4264.061378265159
 40
1.20458380505258
100
AcDbArc
 50
137.2619596939937
 51
169.99999999984502
  0
ARC
  5
234
100
AcDbEntity
  8
1
  6
CONTINUOUS
 62
             7
100
AcDbCircle
 10
1384.875959027572
 20
4256.4613782651604
 40
1.20458380505081
100
AcDbArc
 50
170.0000000000079
 51
-142.26195969399481
  0
ARC
  5
233
100
AcDbEntity
  8
1
  6
CONTINUOUS
 62
             7
100
AcDbCircle
 10
1384.875959027572
 20
4256.4613782651604
 40
1.20458380505168
100
AcDbArc
 50
-132.73804030592808
 51
-95.00000000008738
  0
ARC
  5
232
100
AcDbEntity
  8
1
  6
CONTINUOUS
 62
             7
100
AcDbCircle
 10
1390.3983978106139
 20
4256.4613782651604
 40
1.20458380505307
100
AcDbArc
 50
-132.73804030599959
 51
-95.00000000017356
  0
ARC
  5
231
100
AcDbEntity
  8
1
  6
CONTINUOUS
 62
             7
100
AcDbCircle
 10
1390.3983978106139
 20
4256.4613782651604
 40
1.20458380505171
100
AcDbArc
 50
170.0000000000154
 51
-142.2619596940213
  0
ARC
  5
230
100
AcDbEntity
  8
1
  6
CONTINUOUS
 62
             7
100
AcDbCircle
 10
1391.06331165341
 20
4264.061378265159
 40
1.20458380505175
100
AcDbArc
 50
137.26195969395701
 51
169.99999999984502
  0
ARC
  5
22F
100
AcDbEntity
  8
1
  6
CONTINUOUS
 62
             7
100
AcDbCircle
 10
1391.06331165341
 20
4264.061378265159
 40
1.20458380505317
100
AcDbArc
 50
84.99999999977257
 51
127.73804030587446
  0
ARC
  5
22E
100
AcDbEntity
  8
1
  6
CONTINUOUS
 62
             7
100
AcDbCircle
 10
1392.6068014532091
 20
4256.4613782651604
 40
1.19999999999925
100
AcDbArc
 50
-94.99999999999422
 51
-5.00000000007033
  0
ARC
  5
22D
100
AcDbEntity
  8
1
  6
CONTINUOUS
 62
             7
100
AcDbCircle
 10
1393.2717152960049
 20
4264.061378265159
 40
1.20458380505283
100
AcDbArc
 50
-9.99999999997521
 51
84.99999999991263
  0
ARC
  5
22C
100
AcDbEntity
  8
1
  6
CONTINUOUS
 62
             7
100
AcDbCircle
 10
1404.2492765129659
 20
4264.061378265159
 40
1.20458380505193
100
AcDbArc
 50
-9.99999999998272
 51
85.00000000005269
  0
ARC
  5
22B
100
AcDbEntity
  8
1
  6
CONTINUOUS
 62
             7
100
AcDbCircle
 10
1403.584362670168
 20
4256.4613782651604
 40
1.19999999999925
100
AcDbArc
 50
-94.99999999999422
 51
-5.00000000007033
  0
ARC
  5
22A
100
AcDbEntity
  8
1
  6
CONTINUOUS
 62
             7
100
AcDbCircle
 10
1402.040872870371
 20
4264.061378265159
 40
1.20458380505309
100
AcDbArc
 50
84.99999999981566
 51
127.73804030595143
  0
ARC
  5
229
100
AcDbEntity
  8
1
  6
CONTINUOUS
 62
             7
100
AcDbCircle
 10
1402.040872870371
 20
4264.061378265159
 40
1.20458380505258
100
AcDbArc
 50
137.2619596939937
 51
169.99999999984502
  0
ARC
  5
228
100
AcDbEntity
  8
1
  6
CONTINUOUS
 62
             7
100
AcDbCircle
 10
1401.375959027572
 20
4256.4613782651604
 40
1.20458380505081
100
AcDbArc
 50
170.0000000000079
 51
-142.26195969399481
  0
ARC
  5
227
100
AcDbEntity
  8
1
  6
CONTINUOUS
 62
             7
100
AcDbCircle
 10
1401.375959027572
 20
4256.4613782651604
 40
1.20458380505168
100
AcDbArc
 50
-132.73804030592808
 51
-95.00000000008738
  0
ARC
  5
226
100
AcDbEntity
  8
1
  6
CONTINUOUS
 62
             7
100
AcDbCircle
 10
1395.8983978106139
 20
4256.4613782651604
 40
1.20458380505307
100
AcDbArc
 50
-132.73804030599959
 51
-95.00000000017356
  0
ARC
  5
225
100
AcDbEntity
  8
1
  6
CONTINUOUS
 62
             7
100
AcDbCircle
 10
1395.8983978106139
 20
4256.4613782651604
 40
1.20458380505171
100
AcDbArc
 50
170.0000000000154
 51
-142.2619596940213
  0
ARC
  5
224
100
AcDbEntity
  8
1
  6
CONTINUOUS
 62
             7
100
AcDbCircle
 10
1396.56331165341
 20
4264.061378265159
 40
1.20458380505175
100
AcDbArc
 50
137.26195969395701
 51
169.99999999984502
  0
ARC
  5
223
100
AcDbEntity
  8
1
  6
CONTINUOUS
 62
             7
100
AcDbCircle
 10
1396.56331165341
 20
4264.061378265159
 40
1.20458380505317
100
AcDbArc
 50
84.99999999977257
 51
127.73804030587446
  0
ARC
  5
222
100
AcDbEntity
  8
1
  6
CONTINUOUS
 62
             7
100
AcDbCircle
 10
1398.1068014532091
 20
4256.4613782651604
 40
1.19999999999925
100
AcDbArc
 50
-94.99999999999422
 51
-5.00000000007033
  0
ARC
  5
221
100
AcDbEntity
  8
1
  6
CONTINUOUS
 62
             7
100
AcDbCircle
 10
1398.7717152960049
 20
4264.061378265159
 40
1.20458380505283
100
AcDbArc
 50
-9.99999999997521
 51
84.99999999991263
  0
ARC
  5
220
100
AcDbEntity
  8
1
  6
CONTINUOUS
 62
             7
100
AcDbCircle
 10
1384.875959027572
 20
4272.4613782651604
 40
1.20458380505168
100
AcDbArc
 50
-132.73804030592808
 51
-95.00000000008738
  0
ARC
  5
21F
100
AcDbEntity
  8
1
  6
CONTINUOUS
 62
             7
100
AcDbCircle
 10
1384.875959027572
 20
4272.4613782651604
 40
1.20458380505081
100
AcDbArc
 50
170.0000000000079
 51
-142.26195969399481
  0
ARC
  5
21E
100
AcDbEntity
  8
1
  6
CONTINUOUS
 62
             7
100
AcDbCircle
 10
1385.540872870371
 20
4280.061378265159
 40
1.20458380505258
100
AcDbArc
 50
137.2619596939937
 51
169.99999999984502
  0
ARC
  5
21D
100
AcDbEntity
  8
1
  6
CONTINUOUS
 62
             7
100
AcDbCircle
 10
1385.540872870371
 20
4280.061378265159
 40
1.20458380505309
100
AcDbArc
 50
84.99999999981566
 51
127.73804030595143
  0
ARC
  5
21C
100
AcDbEntity
  8
1
  6
CONTINUOUS
 62
             7
100
AcDbCircle
 10
1387.084362670168
 20
4272.4613782651604
 40
1.19999999999925
100
AcDbArc
 50
-94.99999999999422
 51
-5.00000000007033
  0
ARC
  5
21B
100
AcDbEntity
  8
1
  6
CONTINUOUS
 62
             7
100
AcDbCircle
 10
1387.7492765129659
 20
4280.061378265159
 40
1.20458380505193
100
AcDbArc
 50
-9.99999999998272
 51
85.00000000005269
  0
ARC
  5
21A
100
AcDbEntity
  8
1
  6
CONTINUOUS
 62
             7
100
AcDbCircle
 10
1393.2492765129659
 20
4280.061378265159
 40
1.20458380505193
100
AcDbArc
 50
-9.99999999998272
 51
85.00000000005269
  0
ARC
  5
219
100
AcDbEntity
  8
1
  6
CONTINUOUS
 62
             7
100
AcDbCircle
 10
1392.584362670168
 20
4272.4613782651604
 40
1.19999999999925
100
AcDbArc
 50
-94.99999999999422
 51
-5.00000000007033
  0
ARC
  5
218
100
AcDbEntity
  8
1
  6
CONTINUOUS
 62
             7
100
AcDbCircle
 10
1391.040872870371
 20
4280.061378265159
 40
1.20458380505309
100
AcDbArc
 50
84.99999999981566
 51
127.73804030595143
  0
ARC
  5
217
100
AcDbEntity
  8
1
  6
CONTINUOUS
 62
             7
100
AcDbCircle
 10
1391.040872870371
 20
4280.061378265159
 40
1.20458380505258
100
AcDbArc
 50
137.2619596939937
 51
169.99999999984502
  0
ARC
  5
216
100
AcDbEntity
  8
1
  6
CONTINUOUS
 62
             7
100
AcDbCircle
 10
1390.375959027572
 20
4272.4613782651604
 40
1.20458380505081
100
AcDbArc
 50
170.0000000000079
 51
-142.26195969399481
  0
ARC
  5
215
100
AcDbEntity
  8
1
  6
CONTINUOUS
 62
             7
100
AcDbCircle
 10
1390.375959027572
 20
4272.4613782651604
 40
1.20458380505168
100
AcDbArc
 50
-132.73804030592808
 51
-95.00000000008738
  0
ARC
  5
214
100
AcDbEntity
  8
1
  6
CONTINUOUS
 62
             7
100
AcDbCircle
 10
1401.375959027572
 20
4272.4613782651604
 40
1.20458380505168
100
AcDbArc
 50
-132.73804030592808
 51
-95.00000000008738
  0
ARC
  5
213
100
AcDbEntity
  8
1
  6
CONTINUOUS
 62
             7
100
AcDbCircle
 10
1401.375959027572
 20
4272.4613782651604
 40
1.20458380505081
100
AcDbArc
 50
170.0000000000079
 51
-142.26195969399481
  0
ARC
  5
212
100
AcDbEntity
  8
1
  6
CONTINUOUS
 62
             7
100
AcDbCircle
 10
1402.040872870371
 20
4280.061378265159
 40
1.20458380505258
100
AcDbArc
 50
137.2619596939937
 51
169.99999999984502
  0
ARC
  5
211
100
AcDbEntity
  8
1
  6
CONTINUOUS
 62
             7
100
AcDbCircle
 10
1402.040872870371
 20
4280.061378265159
 40
1.20458380505309
100
AcDbArc
 50
84.99999999981566
 51
127.73804030595143
  0
ARC
  5
210
100
AcDbEntity
  8
1
  6
CONTINUOUS
 62
             7
100
AcDbCircle
 10
1403.584362670168
 20
4272.4613782651604
 40
1.19999999999925
100
AcDbArc
 50
-94.99999999999422
 51
-5.00000000007033
  0
ARC
  5
20F
100
AcDbEntity
  8
1
  6
CONTINUOUS
 62
             7
100
AcDbCircle
 10
1404.2492765129659
 20
4280.061378265159
 40
1.20458380505193
100
AcDbArc
 50
-9.99999999998272
 51
85.00000000005269
  0
ARC
  5
20E
100
AcDbEntity
  8
1
  6
CONTINUOUS
 62
             7
100
AcDbCircle
 10
1398.7492765129659
 20
4280.061378265159
 40
1.20458380505193
100
AcDbArc
 50
-9.99999999998272
 51
85.00000000005269
  0
ARC
  5
20D
100
AcDbEntity
  8
1
  6
CONTINUOUS
 62
             7
100
AcDbCircle
 10
1398.084362670168
 20
4272.4613782651604
 40
1.19999999999925
100
AcDbArc
 50
-94.99999999999422
 51
-5.00000000007033
  0
ARC
  5
20C
100
AcDbEntity
  8
1
  6
CONTINUOUS
 62
             7
100
AcDbCircle
 10
1396.540872870371
 20
4280.061378265159
 40
1.20458380505309
100
AcDbArc
 50
84.99999999981566
 51
127.73804030595143
  0
ARC
  5
20B
100
AcDbEntity
  8
1
  6
CONTINUOUS
 62
             7
100
AcDbCircle
 10
1396.540872870371
 20
4280.061378265159
 40
1.20458380505258
100
AcDbArc
 50
137.2619596939937
 51
169.99999999984502
  0
ARC
  5
20A
100
AcDbEntity
  8
1
  6
CONTINUOUS
 62
             7
100
AcDbCircle
 10
1395.875959027572
 20
4272.4613782651604
 40
1.20458380505081
100
AcDbArc
 50
170.0000000000079
 51
-142.26195969399481
  0
ARC
  5
209
100
AcDbEntity
  8
1
  6
CONTINUOUS
 62
             7
100
AcDbCircle
 10
1395.875959027572
 20
4272.4613782651604
 40
1.20458380505168
100
AcDbArc
 50
-132.73804030592808
 51
-95.00000000008738
  0
ARC
  5
208
100
AcDbEntity
  8
1
  6
CONTINUOUS
 62
             7
100
AcDbCircle
 10
1399.56261777027
 20
4237.7613782651597
 40
2.0
100
AcDbArc
 50
90.0
 51
-90.0
  0
ARC
  5
207
100
AcDbEntity
  8
1
  6
CONTINUOUS
 62
             7
100
AcDbCircle
 10
1401.56261777027
 20
4237.7613782651597
 40
2.0
100
AcDbArc
 50
-90.0
 51
90.0
  0
ARC
  5
206
100
AcDbEntity
  8
1
  6
CONTINUOUS
 62
             7
100
AcDbCircle
 10
1402.06261777027
 20
4237.7613782651597
 40
2.5
100
AcDbArc
 50
-90.0
 51
90.0
  0
ARC
  5
205
100
AcDbEntity
  8
1
  6
CONTINUOUS
 62
             7
100
AcDbCircle
 10
1399.06261777027
 20
4237.7613782651597
 40
2.5
100
AcDbArc
 50
90.0
 51
-90.0
  0
ARC
  5
204
100
AcDbEntity
  8
1
  6
CONTINUOUS
 62
             7
100
AcDbCircle
 10
1395.8658431431111
 20
4244.061378265159
 40
0.99999999999977
100
AcDbArc
 50
-165.00000000005591
 51
-90.0
  0
ARC
  5
203
100
AcDbEntity
  8
1
  6
CONTINUOUS
 62
             7
100
AcDbCircle
 10
1393.2593923974291
 20
4246.061378265159
 40
0.99999999999978
100
AcDbArc
 50
14.99999999999782
 51
90.0
  0
LINE
  5
202
100
AcDbEntity
  8
1
  6
CONTINUOUS
 62
             7
100
AcDbLine
 10
1513.5626177702691
 20
4266.0613782651599
 11
1516.5626177702691
 21
4266.0613782651608
  0
LINE
  5
201
100
AcDbEntity
  8
0
  6
CONTINUOUS
 62
             7
100
AcDbLine
 10
1520.3626177702699
 20
4250.2618818051606
 11
1524.5626177702691
 21
4250.2618818051606
  0
LINE
  5
200
100
AcDbEntity
  8
0
  6
CONTINUOUS
 62
             7
100
AcDbLine
 10
1534.662623873769
 20
4257.561378265159
 11
1534.662623873769
 21
4260.7613782651597
  0
LINE
  5
1FF
100
AcDbEntity
  8
0
  6
CONTINUOUS
 62
             7
100
AcDbLine
 10
1533.5626177702691
 20
4250.7613782651597
 11
1533.5626177702691
 21
4244.7613782651597
  0
LINE
  5
1FE
100
AcDbEntity
  8
0
  6
CONTINUOUS
 62
             7
100
AcDbLine
 10
1538.5626177702691
 20
4247.9613782651604
 11
1538.5626177702691
 21
4235.1113843686589
  0
LINE
  5
1FD
100
AcDbEntity
  8
0
  6
CONTINUOUS
 62
             7
100
AcDbLine
 10
1524.5626177702691
 20
4250.7613782651597
 11
1524.5626177702691
 21
4240.2613782651597
  0
LINE
  5
1FC
100
AcDbEntity
  8
0
  6
CONTINUOUS
 62
             7
100
AcDbLine
 10
1538.5626177702691
 20
4270.4113721616604
 11
1538.5626177702691
 21
4257.561378265159
  0
LINE
  5
1FB
100
AcDbEntity
  8
0
  6
CONTINUOUS
 62
             7
100
AcDbLine
 10
1524.3626208220689
 20
4229.7613782651597
 11
1524.3626208220689
 21
4220.7613782651597
  0
LINE
  5
1FA
100
AcDbEntity
  8
0
  6
CONTINUOUS
 62
             7
100
AcDbLine
 10
1542.5626177702691
 20
4235.1113843686589
 11
1542.5626177702691
 21
4219.1863813169612
  0
LINE
  5
1F9
100
AcDbEntity
  8
0
  6
CONTINUOUS
 62
             7
100
AcDbLine
 10
1538.5626177702691
 20
4219.1863813169612
 11
1542.5626177702691
 21
4219.1863813169612
  0
LINE
  5
1F8
100
AcDbEntity
  8
0
  6
CONTINUOUS
 62
             7
100
AcDbLine
 10
1526.3626208220689
 20
4220.7613782651597
 11
1542.5626177702691
 21
4220.7613782651597
  0
LINE
  5
1F7
100
AcDbEntity
  8
0
  6
CONTINUOUS
 62
             7
100
AcDbLine
 10
1538.5626177702691
 20
4220.7613782651597
 11
1538.5626177702691
 21
4219.1863813169612
  0
LINE
  5
1F6
100
AcDbEntity
  8
0
  6
CONTINUOUS
 62
             7
100
AcDbLine
 10
1540.5626177702691
 20
4220.7613782651597
 11
1540.5626177702691
 21
4219.1863813169612
  0
LINE
  5
1F5
100
AcDbEntity
  8
0
  6
CONTINUOUS
 62
             7
100
AcDbLine
 10
1524.5626177702691
 20
4254.8613843686589
 11
1533.5626177702691
 21
4254.8613843686589
  0
LINE
  5
1F4
100
AcDbEntity
  8
0
  6
CONTINUOUS
 62
             7
100
AcDbLine
 10
1524.5626177702691
 20
4250.6613721616604
 11
1533.5626177702691
 21
4250.6613721616604
  0
LINE
  5
1F3
100
AcDbEntity
  8
0
  6
CONTINUOUS
 62
             7
100
AcDbLine
 10
1524.5626177702691
 20
4265.2613782651597
 11
1524.5626177702691
 21
4254.7613782651597
  0
LINE
  5
1F2
100
AcDbEntity
  8
0
  6
CONTINUOUS
 62
             7
100
AcDbLine
 10
1517.5626177702691
 20
4266.2613782651597
 11
1517.5626177702691
 21
4254.7613782651597
  0
LINE
  5
1F1
100
AcDbEntity
  8
0
  6
CONTINUOUS
 62
             7
100
AcDbLine
 10
1517.5626177702691
 20
4240.2613782651597
 11
1524.5626177702691
 21
4240.2613782651597
  0
LINE
  5
1F0
100
AcDbEntity
  8
0
  6
CONTINUOUS
 62
             7
100
AcDbLine
 10
1515.5626177702691
 20
4229.7613782651597
 11
1524.3626208220689
 21
4229.7613782651597
  0
LINE
  5
1EF
100
AcDbEntity
  8
0
  6
CONTINUOUS
 62
             7
100
AcDbLine
 10
1513.8626208220689
 20
4238.7613782651597
 11
1517.0626177702691
 21
4238.7613782651597
  0
LINE
  5
1EE
100
AcDbEntity
  8
0
  6
CONTINUOUS
 62
             7
100
AcDbLine
 10
1513.5626295752691
 20
4238.4613549959604
 11
1513.8626239004691
 21
4238.7613483601608
  0
LINE
  5
1ED
100
AcDbEntity
  8
0
  6
CONTINUOUS
 62
             7
100
AcDbLine
 10
1517.562611601569
 20
4239.2613605957604
 11
1517.06262186037
 21
4238.7613708545587
  0
LINE
  5
1EC
100
AcDbEntity
  8
0
  6
CONTINUOUS
 62
             7
100
AcDbLine
 10
1517.5626177702691
 20
4265.2613782651597
 11
1524.5626177702691
 21
4265.2613782651597
  0
LINE
  5
1EB
100
AcDbEntity
  8
0
  6
CONTINUOUS
 62
             7
100
AcDbLine
 10
1517.5626177702691
 20
4255.2608747251588
 11
1524.5626177702691
 21
4255.2608747251588
  0
LINE
  5
1EA
100
AcDbEntity
  8
0
  6
CONTINUOUS
 62
             7
100
AcDbLine
 10
1514.0626177702691
 20
4266.2613782651597
 11
1517.5626177702691
 21
4266.2613782651597
  0
LINE
  5
1E9
100
AcDbEntity
  8
0
  6
CONTINUOUS
 62
             7
100
AcDbLine
 10
1514.0625970963699
 20
4266.2613461002611
 11
1513.562596565569
 21
4266.7613466310604
  0
LINE
  5
1E8
100
AcDbEntity
  8
0
  6
CONTINUOUS
 62
             7
100
AcDbLine
 10
1515.5626177702691
 20
4275.7613782651597
 11
1524.3626208220689
 21
4275.7613782651597
  0
LINE
  5
1E7
100
AcDbEntity
  8
0
  6
CONTINUOUS
 62
             7
100
AcDbLine
 10
1524.3626208220689
 20
4282.7613782651597
 11
1524.3626208220689
 21
4275.7613782651597
  0
LINE
  5
1E6
100
AcDbEntity
  8
0
  6
CONTINUOUS
 62
             7
100
AcDbLine
 10
1542.5626177702691
 20
4284.7613782651597
 11
1542.5626177702691
 21
4270.4113721616604
  0
LINE
  5
1E5
100
AcDbEntity
  8
0
  6
CONTINUOUS
 62
             7
100
AcDbLine
 10
1538.5626177702691
 20
4270.4113721616604
 11
1542.5626177702691
 21
4270.4113721616604
  0
LINE
  5
1E4
100
AcDbEntity
  8
0
  6
CONTINUOUS
 62
             7
100
AcDbLine
 10
1538.9625690282689
 20
4267.2613583189604
 11
1538.5625703950691
 21
4268.7613550673614
  0
LINE
  5
1E3
100
AcDbEntity
  8
0
  6
CONTINUOUS
 62
             7
100
AcDbLine
 10
1533.5626177702691
 20
4257.7613782651597
 11
1542.5626177702691
 21
4257.7613782651597
  0
LINE
  5
1E2
100
AcDbEntity
  8
0
  6
CONTINUOUS
 62
             7
100
AcDbLine
 10
1533.5626177702691
 20
4247.7613782651597
 11
1542.5626177702691
 21
4247.7613782651597
  0
LINE
  5
1E1
100
AcDbEntity
  8
0
  6
CONTINUOUS
 62
             7
100
AcDbLine
 10
1533.5626177702691
 20
4260.7613782651597
 11
1542.5626177702691
 21
4260.7613782651597
  0
LINE
  5
1E0
100
AcDbEntity
  8
0
  6
CONTINUOUS
 62
             7
100
AcDbLine
 10
1538.5626177702691
 20
4235.3613843686589
 11
1539.9626116667689
 21
4235.3613843686589
  0
LINE
  5
1DF
100
AcDbEntity
  8
0
  6
CONTINUOUS
 62
             7
100
AcDbLine
 10
1538.5626177702691
 20
4235.1113843686589
 11
1542.5626177702691
 21
4235.1113843686589
  0
LINE
  5
1DE
100
AcDbEntity
  8
0
  6
CONTINUOUS
 62
             7
100
AcDbLine
 10
1533.5626177702691
 20
4244.7613782651597
 11
1542.5626177702691
 21
4244.7613782651597
  0
LINE
  5
1DD
100
AcDbEntity
  8
0
  6
CONTINUOUS
 62
             7
100
AcDbLine
 10
1534.662623873769
 20
4244.7613935239597
 11
1534.662623873769
 21
4247.9613782651604
  0
LINE
  5
1DC
100
AcDbEntity
  8
0
  6
CONTINUOUS
 62
             7
100
AcDbLine
 10
1533.5626177702691
 20
4260.7613782651597
 11
1533.5626177702691
 21
4254.7613782651597
  0
LINE
  5
1DB
100
AcDbEntity
  8
0
  6
CONTINUOUS
 62
             7
100
AcDbLine
 10
1533.5626177702691
 20
4245.7613782651597
 11
1534.662623873769
 21
4245.7613782651597
  0
LINE
  5
1DA
100
AcDbEntity
  8
0
  6
CONTINUOUS
 62
             7
100
AcDbLine
 10
1533.5626177702691
 20
4249.7613782651597
 11
1533.862617770269
 21
4249.7613782651597
  0
LINE
  5
1D9
100
AcDbEntity
  8
0
  6
CONTINUOUS
 62
             7
100
AcDbLine
 10
1533.5626177702691
 20
4255.7613782651597
 11
1533.862617770269
 21
4255.7613782651597
  0
LINE
  5
1D8
100
AcDbEntity
  8
0
  6
CONTINUOUS
 62
             7
100
AcDbLine
 10
1533.5626177702691
 20
4259.7613782651597
 11
1534.662623873769
 21
4259.7613782651597
  0
LINE
  5
1D7
100
AcDbEntity
  8
0
  6
CONTINUOUS
 62
             7
100
AcDbLine
 10
1542.220626363669
 20
4235.1114074362604
 11
1540.662622302769
 21
4237.1614136115613
  0
LINE
  5
1D6
100
AcDbEntity
  8
0
  6
CONTINUOUS
 62
             7
100
AcDbLine
 10
1539.898707858169
 20
4237.1613874204604
 11
1540.662623873769
 21
4237.1613874204604
  0
LINE
  5
1D5
100
AcDbEntity
  8
0
  6
CONTINUOUS
 62
             7
100
AcDbLine
 10
1539.7014223244689
 20
4236.9285149463594
 11
1539.962604702569
 21
4235.3614164164601
  0
LINE
  5
1D4
100
AcDbEntity
  8
0
  6
CONTINUOUS
 62
             7
100
AcDbLine
 10
1542.5626177702691
 20
4244.7613935239597
 11
1542.5626177702691
 21
4247.7613935239597
  0
LINE
  5
1D3
100
AcDbEntity
  8
0
  6
CONTINUOUS
 62
             7
100
AcDbLine
 10
1542.5626177702691
 20
4257.7613935239597
 11
1542.5626177702691
 21
4260.7613935239597
  0
LINE
  5
1D2
100
AcDbEntity
  8
0
  6
CONTINUOUS
 62
             7
100
AcDbLine
 10
1541.062458565669
 20
4268.9116000143604
 11
1542.5624602845689
 21
4270.4116014803594
  0
LINE
  5
1D1
100
AcDbEntity
  8
0
  6
CONTINUOUS
 62
             7
100
AcDbLine
 10
1539.6626312664689
 20
4270.4114064114592
 11
1539.8626319455691
 21
4268.9114059184603
  0
LINE
  5
1D0
100
AcDbEntity
  8
0
  6
CONTINUOUS
 62
             7
100
AcDbLine
 10
1539.8626208220689
 20
4268.9113874204604
 11
1541.0626177702691
 21
4268.9113874204604
  0
LINE
  5
1CF
100
AcDbEntity
  8
0
  6
CONTINUOUS
 62
             7
100
AcDbLine
 10
1526.3626208220689
 20
4284.7613782651597
 11
1542.5626177702691
 21
4284.7613782651597
  0
LINE
  5
1CE
100
AcDbEntity
  8
1
  6
CONTINUOUS
 62
             7
100
AcDbLine
 10
1516.1626177702699
 20
4254.7613782651597
 11
1514.1626177702699
 21
4254.7613782651597
  0
LINE
  5
1CD
100
AcDbEntity
  8
1
  6
CONTINUOUS
 62
             7
100
AcDbLine
 10
1516.1626177702699
 20
4250.7613782651597
 11
1518.362617770269
 21
4250.7613782651597
  0
LINE
  5
1CC
100
AcDbEntity
  8
1
  6
CONTINUOUS
 62
             7
100
AcDbLine
 10
1518.362617770269
 20
4254.7613782651597
 11
1516.1626177702699
 21
4254.7613782651597
  0
LINE
  5
1CB
100
AcDbEntity
  8
1
  6
CONTINUOUS
 62
             7
100
AcDbLine
 10
1518.362617770269
 20
4250.7613782651597
 11
1524.5626177702691
 21
4250.7613782651597
  0
LINE
  5
1CA
100
AcDbEntity
  8
1
  6
CONTINUOUS
 62
             7
100
AcDbLine
 10
1524.5626177702691
 20
4254.7613782651597
 11
1518.362617770269
 21
4254.7613782651597
  0
LINE
  5
1C9
100
AcDbEntity
  8
1
  6
CONTINUOUS
 62
             7
100
AcDbLine
 10
1524.5626177702691
 20
4250.7613782651597
 11
1533.862617770269
 21
4250.7613782651597
  0
LINE
  5
1C8
100
AcDbEntity
  8
1
  6
CONTINUOUS
 62
             7
100
AcDbLine
 10
1540.262617770268
 20
4247.9613782651604
 11
1540.262617770268
 21
4257.561378265159
  0
LINE
  5
1C7
100
AcDbEntity
  8
1
  6
CONTINUOUS
 62
             7
100
AcDbLine
 10
1533.862617770269
 20
4254.7613782651597
 11
1524.5626177702691
 21
4254.7613782651597
  0
LINE
  5
1C6
100
AcDbEntity
  8
1
  6
CONTINUOUS
 62
             7
100
AcDbLine
 10
1514.1626177702699
 20
4250.7613782651597
 11
1516.1626177702699
 21
4250.7613782651597
  0
LINE
  5
1C5
100
AcDbEntity
  8
1
  6
CONTINUOUS
 62
             7
100
AcDbLine
 10
1513.6626177702699
 20
4251.2613782651597
 11
1513.6626177702699
 21
4254.2613782651597
  0
LINE
  5
1C4
100
AcDbEntity
  8
1
  6
CONTINUOUS
 62
             7
100
AcDbLine
 10
1533.862617770269
 20
4250.7613782651597
 11
1533.862617770269
 21
4247.9613782651604
  0
LINE
  5
1C3
100
AcDbEntity
  8
1
  6
CONTINUOUS
 62
             7
100
AcDbLine
 10
1533.862617770269
 20
4257.561378265159
 11
1533.862617770269
 21
4254.7613782651597
  0
LINE
  5
1C2
100
AcDbEntity
  8
1
  6
CONTINUOUS
 62
             7
100
AcDbLine
 10
1540.262617770268
 20
4257.561378265159
 11
1533.862617770269
 21
4257.561378265159
  0
LINE
  5
1C1
100
AcDbEntity
  8
1
  6
CONTINUOUS
 62
             7
100
AcDbLine
 10
1533.862617770269
 20
4247.9613782651604
 11
1540.262617770268
 21
4247.9613782651604
  0
LINE
  5
1C0
100
AcDbEntity
  8
1
  6
CONTINUOUS
 62
             7
100
AcDbLine
 10
1513.6626177702699
 20
4254.2613782651597
 11
1514.1626177702699
 21
4254.7613782651597
  0
LINE
  5
1BF
100
AcDbEntity
  8
1
  6
CONTINUOUS
 62
             7
100
AcDbLine
 10
1513.6626177702699
 20
4251.2613782651597
 11
1514.1626177702699
 21
4250.7613782651597
  0
LINE
  5
1BE
100
AcDbEntity
  8
1
  6
CONTINUOUS
 62
             7
100
AcDbLine
 10
1514.1626177702699
 20
4250.7613782651597
 11
1514.1626177702699
 21
4254.7613782651597
  0
LINE
  5
1BD
100
AcDbEntity
  8
1
  6
CONTINUOUS
 62
             7
100
AcDbLine
 10
1516.5626177702691
 20
4238.9613782651604
 11
1513.5626177702691
 21
4238.9613782651604
  0
LINE
  5
1BC
100
AcDbEntity
  8
0
  6
CONTINUOUS
 62
             7
100
AcDbLine
 10
1517.5626177702691
 20
4246.2613782651597
 11
1517.5626177702691
 21
4239.2613782651597
  0
LINE
  5
1BB
100
AcDbEntity
  8
1
  6
CONTINUOUS
 62
             7
100
AcDbLine
 10
1520.362617770269
 20
4247.2613782651597
 11
1519.362617770269
 21
4246.2613782651597
  0
LINE
  5
1BA
100
AcDbEntity
  8
1
  6
CONTINUOUS
 62
             7
100
AcDbLine
 10
1520.362617770269
 20
4250.7613782651597
 11
1520.362617770269
 21
4247.2613782651597
  0
LINE
  5
1B9
100
AcDbEntity
  8
1
  6
CONTINUOUS
 62
             7
100
AcDbLine
 10
1518.362617770269
 20
4250.7613782651597
 11
1520.362617770269
 21
4250.7613782651597
  0
LINE
  5
1B8
100
AcDbEntity
  8
1
  6
CONTINUOUS
 62
             7
100
AcDbLine
 10
1516.3626177702699
 20
4250.7613782651597
 11
1516.3626177702699
 21
4250.2613782651597
  0
LINE
  5
1B7
100
AcDbEntity
  8
1
  6
CONTINUOUS
 62
             7
100
AcDbLine
 10
1507.56261777027
 20
4295.2613782651597
 11
1435.06261777027
 21
4295.2613782651597
  0
LINE
  5
1B6
100
AcDbEntity
  8
1
  6
CONTINUOUS
 62
             7
100
AcDbLine
 10
1435.06261777027
 20
4210.2613782651579
 11
1507.56261777027
 21
4210.2613782651597
  0
LINE
  5
1B5
100
AcDbEntity
  8
1
  6
CONTINUOUS
 62
             7
100
AcDbLine
 10
1434.56261777027
 20
4294.7613782651597
 11
1434.56261777027
 21
4210.7613782651579
  0
LINE
  5
1B4
100
AcDbEntity
  8
1
  6
CONTINUOUS
 62
             7
100
AcDbLine
 10
1380.56261777027
 20
4295.2613782651597
 11
1408.56261777027
 21
4295.2613782651597
  0
LINE
  5
1B3
100
AcDbEntity
  8
1
  6
CONTINUOUS
 62
             7
100
AcDbLine
 10
1380.56261777027
 20
4210.2613782651597
 11
1408.56261777027
 21
4210.2613782651597
  0
LINE
  5
1B2
100
AcDbEntity
  8
1
  6
CONTINUOUS
 62
             7
100
AcDbLine
 10
1409.56261777027
 20
4211.2613782651597
 11
1409.56261777027
 21
4294.2613782651597
  0
LINE
  5
1B1
100
AcDbEntity
  8
1
  6
CONTINUOUS
 62
             7
100
AcDbLine
 10
1379.56261777027
 20
4294.2613782651597
 11
1379.56261777027
 21
4211.2613782651597
  0
LINE
  5
1B0
100
AcDbEntity
  8
1
  6
CONTINUOUS
 62
             7
100
AcDbLine
 10
1441.76261777027
 20
4238.5113782651597
 11
1441.76261777027
 21
4237.0113782651597
  0
LINE
  5
1AF
100
AcDbEntity
  8
1
  6
CONTINUOUS
 62
             7
100
AcDbLine
 10
1451.01261777027
 20
4238.5113782651597
 11
1441.76261777027
 21
4238.5113782651597
  0
LINE
  5
1AE
100
AcDbEntity
  8
1
  6
CONTINUOUS
 62
             7
100
AcDbLine
 10
1441.76261777027
 20
4237.0113782651597
 11
1451.01261777027
 21
4237.0113782651597
  0
LINE
  5
1AD
100
AcDbEntity
  8
1
  6
CONTINUOUS
 62
             7
100
AcDbLine
 10
1451.01261777027
 20
4240.0113782651597
 11
1441.76261777027
 21
4240.0113782651597
  0
LINE
  5
1AC
100
AcDbEntity
  8
1
  6
CONTINUOUS
 62
             7
100
AcDbLine
 10
1441.76261777027
 20
4235.5113782651597
 11
1451.01261777027
 21
4235.5113782651597
  0
LINE
  5
1AB
100
AcDbEntity
  8
1
  6
CONTINUOUS
 62
             7
100
AcDbLine
 10
1440.26261777027
 20
4238.5113782651597
 11
1440.26261777027
 21
4237.0113782651597
  0
LINE
  5
1AA
100
AcDbEntity
  8
1
  6
CONTINUOUS
 62
             7
100
AcDbLine
 10
1440.26261777027
 20
4275.5113782651579
 11
1440.26261777027
 21
4274.0113782651579
  0
LINE
  5
1A9
100
AcDbEntity
  8
1
  6
CONTINUOUS
 62
             7
100
AcDbLine
 10
1451.01261777027
 20
4277.0113782651579
 11
1441.76261777027
 21
4277.0113782651579
  0
LINE
  5
1A8
100
AcDbEntity
  8
1
  6
CONTINUOUS
 62
             7
100
AcDbLine
 10
1441.76261777027
 20
4272.5113782651579
 11
1451.01261777027
 21
4272.5113782651579
  0
LINE
  5
1A7
100
AcDbEntity
  8
1
  6
CONTINUOUS
 62
             7
100
AcDbLine
 10
1451.01261777027
 20
4275.5113782651579
 11
1441.76261777027
 21
4275.5113782651579
  0
LINE
  5
1A6
100
AcDbEntity
  8
1
  6
CONTINUOUS
 62
             7
100
AcDbLine
 10
1441.76261777027
 20
4274.0113782651579
 11
1451.01261777027
 21
4274.0113782651579
  0
LINE
  5
1A5
100
AcDbEntity
  8
1
  6
CONTINUOUS
 62
             7
100
AcDbLine
 10
1441.76261777027
 20
4275.5113782651579
 11
1441.76261777027
 21
4274.0113782651579
  0
LINE
  5
1A4
100
AcDbEntity
  8
1
  6
CONTINUOUS
 62
             7
100
AcDbLine
 10
1452.56261777027
 20
4282.7613782651597
 11
1492.56261777027
 21
4282.7613782651597
  0
LINE
  5
1A3
100
AcDbEntity
  8
1
  6
CONTINUOUS
 62
             7
100
AcDbLine
 10
1492.56261777027
 20
4282.7613782651597
 11
1492.56261777027
 21
4222.7613782651597
  0
LINE
  5
1A2
100
AcDbEntity
  8
1
  6
CONTINUOUS
 62
             7
100
AcDbLine
 10
1492.56261777027
 20
4222.7613782651597
 11
1454.06261777027
 21
4222.7613782651597
  0
LINE
  5
1A1
100
AcDbEntity
  8
1
  6
CONTINUOUS
 62
             7
100
AcDbLine
 10
1452.56261777027
 20
4224.2613782651597
 11
1452.56261777027
 21
4282.7613782651597
  0
LINE
  5
1A0
100
AcDbEntity
  8
1
  6
CONTINUOUS
 62
             7
100
AcDbLine
 10
1452.56261777027
 20
4224.2613782651597
 11
1454.06261777027
 21
4222.7613782651597
  0
LINE
  5
19F
100
AcDbEntity
  8
1
  6
CONTINUOUS
 62
             7
100
AcDbLine
 10
1507.56261777027
 20
4210.2613782651597
 11
1507.56261777027
 21
4295.2613782651597
  0
LINE
  5
19E
100
AcDbEntity
  8
1
  6
CONTINUOUS
 62
             7
100
AcDbLine
 10
1513.5626177702691
 20
4212.4613782651604
 11
1513.5626177702691
 21
4238.9613782651604
  0
LINE
  5
19D
100
AcDbEntity
  8
1
  6
CONTINUOUS
 62
             7
100
AcDbLine
 10
1513.5626177702691
 20
4266.0613782651599
 11
1513.5626177702691
 21
4293.5613782651608
  0
LINE
  5
19C
100
AcDbEntity
  8
1
  6
CONTINUOUS
 62
             7
100
AcDbLine
 10
1513.0626177702691
 20
4211.9613782651604
 11
1510.0626177702691
 21
4211.9613782651604
  0
LINE
  5
19B
100
AcDbEntity
  8
1
  6
CONTINUOUS
 62
             7
100
AcDbLine
 10
1513.5626177702691
 20
4210.7613782651597
 11
1513.5626177702691
 21
4212.4613782651604
  0
LINE
  5
19A
100
AcDbEntity
  8
1
  6
CONTINUOUS
 62
             7
100
AcDbLine
 10
1509.5626177702691
 20
4211.4613782651604
 11
1509.5626177702691
 21
4210.7613782651597
  0
LINE
  5
199
100
AcDbEntity
  8
1
  6
CONTINUOUS
 62
             7
100
AcDbLine
 10
1507.56261777027
 20
4210.2613782651597
 11
1509.0626177702691
 21
4210.2613782651597
  0
LINE
  5
198
100
AcDbEntity
  8
1
  6
CONTINUOUS
 62
             7
100
AcDbLine
 10
1509.0626177702691
 20
4210.2613782651597
 11
1513.0626177702691
 21
4210.2613782651597
  0
LINE
  5
197
100
AcDbEntity
  8
1
  6
CONTINUOUS
 62
             7
100
AcDbLine
 10
1509.0626177702691
 20
4260.6613797910104
 11
1509.0626177702691
 21
4244.8613767392108
  0
LINE
  5
196
100
AcDbEntity
  8
1
  6
CONTINUOUS
 62
             7
100
AcDbLine
 10
1509.5626177702691
 20
4261.1613797910104
 11
1513.0626177702691
 21
4261.1613797910104
  0
LINE
  5
195
100
AcDbEntity
  8
1
  6
CONTINUOUS
 62
             7
100
AcDbLine
 10
1513.5626177702691
 20
4266.0613782651599
 11
1513.5626177702691
 21
4261.6613797910104
  0
LINE
  5
194
100
AcDbEntity
  8
1
  6
CONTINUOUS
 62
             7
100
AcDbLine
 10
1509.5626177702691
 20
4244.3613767392108
 11
1513.0626177702691
 21
4244.3613767392108
  0
LINE
  5
193
100
AcDbEntity
  8
1
  6
CONTINUOUS
 62
             7
100
AcDbLine
 10
1513.5626177702691
 20
4238.9613782651604
 11
1513.5626177702691
 21
4243.8613767392108
  0
LINE
  5
192
100
AcDbEntity
  8
1
  6
CONTINUOUS
 62
             7
100
AcDbLine
 10
1513.0626177702691
 20
4295.2613782651597
 11
1509.0626177702691
 21
4295.2613782651597
  0
LINE
  5
191
100
AcDbEntity
  8
1
  6
CONTINUOUS
 62
             7
100
AcDbLine
 10
1509.0626177702691
 20
4295.2613782651597
 11
1507.56261777027
 21
4295.2613782651597
  0
LINE
  5
190
100
AcDbEntity
  8
1
  6
CONTINUOUS
 62
             7
100
AcDbLine
 10
1509.5626177702691
 20
4294.7613782651597
 11
1509.5626177702691
 21
4294.061378265159
  0
LINE
  5
18F
100
AcDbEntity
  8
1
  6
CONTINUOUS
 62
             7
100
AcDbLine
 10
1513.5626177702691
 20
4293.061378265159
 11
1513.5626177702691
 21
4294.7613782651597
  0
LINE
  5
18E
100
AcDbEntity
  8
1
  6
CONTINUOUS
 62
             7
100
AcDbLine
 10
1510.0626177702691
 20
4293.561378265159
 11
1513.0626177702691
 21
4293.561378265159
  0
LINE
  5
18D
100
AcDbEntity
  8
0
  6
CONTINUOUS
 62
             7
100
AcDbLine
 10
1513.5626177702691
 20
4238.46137521336
 11
1513.5626177702691
 21
4231.7613782651597
  0
LINE
  5
18C
100
AcDbEntity
  8
0
  6
CONTINUOUS
 62
             7
100
AcDbLine
 10
1513.5626177702691
 20
4273.7613782651597
 11
1513.5626177702691
 21
4266.7613782651597
  0
LINE
  5
18B
100
AcDbEntity
  8
0
  6
DOTTED
 62
             7
100
AcDbLine
 10
1538.5626177702691
 20
4270.2613630063597
 11
1539.5626177702691
 21
4270.2613630063597
  0
LINE
  5
18A
100
AcDbEntity
  8
0
  6
DOTTED
 62
             7
100
AcDbLine
 10
1538.5626177702691
 20
4235.2613782651597
 11
1539.5626177702691
 21
4235.2613782651597
  0
LINE
  5
189
100
AcDbEntity
  8
0
  6
DOTTED
 62
             7
100
AcDbLine
 10
1544.8626208220689
 20
4241.0613813169612
 11
1544.8626208220689
 21
4264.46137521336
  0
LINE
  5
188
100
AcDbEntity
  8
0
  6
DOTTED
 62
             7
100
AcDbLine
 10
1545.8626208220689
 20
4240.0613813169612
 11
1545.8626208220689
 21
4265.46137521336
  0
LINE
  5
187
100
AcDbEntity
  8
0
  6
DOTTED
 62
             7
100
AcDbLine
 10
1539.3626360808689
 20
4240.2613630063597
 11
1544.0626177702691
 21
4240.2613630063597
  0
LINE
  5
186
100
AcDbEntity
  8
0
  6
DOTTED
 62
             7
100
AcDbLine
 10
1540.3626360808689
 20
4239.2613630063597
 11
1545.0626177702691
 21
4239.2613630063597
  0
LINE
  5
185
100
AcDbEntity
  8
0
  6
DOTTED
 62
             7
100
AcDbLine
 10
1539.5626177702691
 20
4235.2613782651597
 11
1539.5626177702691
 21
4238.46137521336
  0
LINE
  5
184
100
AcDbEntity
  8
0
  6
DOTTED
 62
             7
100
AcDbLine
 10
1539.3626360808689
 20
4265.2613630063597
 11
1544.0626177702691
 21
4265.2613630063597
  0
LINE
  5
183
100
AcDbEntity
  8
0
  6
DOTTED
 62
             7
100
AcDbLine
 10
1540.3626360808689
 20
4266.2613630063597
 11
1545.0626177702691
 21
4266.2613630063597
  0
LINE
  5
182
100
AcDbEntity
  8
0
  6
DOTTED
 62
             7
100
AcDbLine
 10
1539.5626177702691
 20
4267.0613813169612
 11
1539.5626177702691
 21
4270.2613782651597
  0
LINE
  5
181
100
AcDbEntity
  8
1
  6
CONTINUOUS
 62
             7
100
AcDbLine
 10
1509.5626177702691
 20
4247.7613782651597
 11
1509.5626177702691
 21
4244.361376739309
  0
LINE
  5
180
100
AcDbEntity
  8
1
  6
CONTINUOUS
 62
             7
100
AcDbLine
 10
1389.56261777027
 20
4208.7613782651597
 11
1389.56261777027
 21
4207.2613782651597
  0
LINE
  5
17F
100
AcDbEntity
  8
1
  6
CONTINUOUS
 62
             7
100
AcDbLine
 10
1399.56261777027
 20
4208.7613782651597
 11
1399.56261777027
 21
4210.2613782651597
  0
LINE
  5
17E
100
AcDbEntity
  8
1
  6
CONTINUOUS
 62
             7
100
AcDbLine
 10
1389.56261777027
 20
4208.7613782651597
 11
1399.56261777027
 21
4208.7613782651597
  0
LINE
  5
17D
100
AcDbEntity
  8
1
  6
CONTINUOUS
 62
             7
100
AcDbLine
 10
1389.56261777027
 20
4210.2613782651597
 11
1389.56261777027
 21
4208.7613782651597
  0
LINE
  5
17C
100
AcDbEntity
  8
1
  6
CONTINUOUS
 62
             7
100
AcDbLine
 10
1399.56261777027
 20
4207.2613782651597
 11
1399.56261777027
 21
4208.7613782651597
  0
LINE
  5
17B
100
AcDbEntity
  8
1
  6
CONTINUOUS
 62
             7
100
AcDbLine
 10
1507.5626177702691
 20
4208.7613782651597
 11
1507.56261777027
 21
4210.2613782651597
  0
LINE
  5
17A
100
AcDbEntity
  8
1
  6
CONTINUOUS
 62
             7
100
AcDbLine
 10
1511.5626177702691
 20
4244.7613782651597
 11
1511.5626177702691
 21
4244.361376739309
  0
LINE
  5
179
100
AcDbEntity
  8
1
  6
CONTINUOUS
 62
             7
100
AcDbLine
 10
1509.5626177702691
 20
4208.7613782651597
 11
1509.5626177702691
 21
4207.7613782651597
  0
LINE
  5
178
100
AcDbEntity
  8
1
  6
CONTINUOUS
 62
             7
100
AcDbLine
 10
1506.5626177702691
 20
4207.2613782651597
 11
1509.0626177702691
 21
4207.2613782651597
  0
LINE
  5
177
100
AcDbEntity
  8
1
  6
CONTINUOUS
 62
             7
100
AcDbLine
 10
1506.5626177702691
 20
4208.7613782651597
 11
1506.5626177702691
 21
4207.2613782651597
  0
LINE
  5
176
100
AcDbEntity
  8
1
  6
CONTINUOUS
 62
             7
100
AcDbLine
 10
1507.5626177702691
 20
4208.7613782651597
 11
1506.5626177702691
 21
4208.7613782651597
  0
LINE
  5
175
100
AcDbEntity
  8
1
  6
CONTINUOUS
 62
             7
100
AcDbLine
 10
1519.362617770269
 20
4246.2613782651597
 11
1513.0626177702691
 21
4246.2613782651597
  0
LINE
  5
174
100
AcDbEntity
  8
1
  6
CONTINUOUS
 62
             7
100
AcDbLine
 10
1516.3626177702699
 20
4250.2613782651597
 11
1510.0626177702691
 21
4250.2613782651597
  0
LINE
  5
173
100
AcDbEntity
  8
1
  6
CONTINUOUS
 62
             7
100
AcDbLine
 10
1509.5626177702691
 20
4208.7613782651597
 11
1509.5626177702691
 21
4210.2613782651597
  0
LINE
  5
172
100
AcDbEntity
  8
1
  6
CONTINUOUS
 62
             7
100
AcDbLine
 10
1509.5626177702691
 20
4247.7613782651597
 11
1509.5626177702691
 21
4249.7613782651597
  0
LINE
  5
171
100
AcDbEntity
  8
1
  6
CONTINUOUS
 62
             7
100
AcDbLine
 10
1509.5626177702691
 20
4247.7613782651597
 11
1509.0626177702691
 21
4247.7613782651597
  0
LINE
  5
170
100
AcDbEntity
  8
1
  6
CONTINUOUS
 62
             7
100
AcDbLine
 10
1509.0626177702691
 20
4207.2613782651597
 11
1509.5626177702691
 21
4207.7613782651597
  0
LINE
  5
16F
100
AcDbEntity
  8
1
  6
CONTINUOUS
 62
             7
100
AcDbLine
 10
1509.5626177702691
 20
4249.7613782651597
 11
1510.0626177702691
 21
4250.2613782651597
  0
LINE
  5
16E
100
AcDbEntity
  8
1
  6
CONTINUOUS
 62
             7
100
AcDbLine
 10
1389.56261777027
 20
4207.2613782651597
 11
1399.56261777027
 21
4207.2613782651597
  0
LINE
  5
16D
100
AcDbEntity
  8
1
  6
CONTINUOUS
 62
             7
100
AcDbLine
 10
1434.56261777027
 20
4211.9613782651586
 11
1434.3626177702699
 21
4211.9613782651586
  0
LINE
  5
16C
100
AcDbEntity
  8
1
  6
CONTINUOUS
 62
             7
100
AcDbLine
 10
1434.06261777027
 20
4212.2613782651588
 11
1434.06261777027
 21
4222.6613782651584
  0
LINE
  5
16B
100
AcDbEntity
  8
1
  6
CONTINUOUS
 62
             7
100
AcDbLine
 10
1434.3626177702699
 20
4222.9613782651586
 11
1434.56261777027
 21
4222.9613782651586
  0
LINE
  5
16A
100
AcDbEntity
  8
1
  6
CONTINUOUS
 62
             7
100
AcDbLine
 10
1513.0626177702691
 20
4246.2613782651597
 11
1511.5626177702691
 21
4244.7613782651597
  0
LINE
  5
169
100
AcDbEntity
  8
1
  6
CONTINUOUS
 62
             7
100
AcDbLine
 10
1393.13761777027
 20
4213.4613782651604
 11
1395.63761777027
 21
4213.4613782651604
  0
LINE
  5
168
100
AcDbEntity
  8
1
  6
CONTINUOUS
 62
             7
100
AcDbLine
 10
1395.63761777027
 20
4217.4613782651604
 11
1393.13761777027
 21
4217.4613782651604
  0
LINE
  5
167
100
AcDbEntity
  8
1
  6
CONTINUOUS
 62
             7
100
AcDbLine
 10
1391.63761777027
 20
4222.9613782651604
 11
1384.63761777027
 21
4222.9613782651604
  0
LINE
  5
166
100
AcDbEntity
  8
1
  6
CONTINUOUS
 62
             7
100
AcDbLine
 10
1383.63761777027
 20
4221.9613782651604
 11
1383.63761777027
 21
4212.9613782651604
  0
LINE
  5
165
100
AcDbEntity
  8
1
  6
CONTINUOUS
 62
             7
100
AcDbLine
 10
1384.63761777027
 20
4211.9613782651604
 11
1391.63761777027
 21
4211.9613782651604
  0
LINE
  5
164
100
AcDbEntity
  8
1
  6
CONTINUOUS
 62
             7
100
AcDbLine
 10
1392.63761777027
 20
4217.9613782651604
 11
1392.63761777027
 21
4221.9613782651604
  0
LINE
  5
163
100
AcDbEntity
  8
1
  6
CONTINUOUS
 62
             7
100
AcDbLine
 10
1394.56261777027
 20
4219.7613782651597
 11
1407.912617770269
 21
4219.7613782651597
  0
LINE
  5
162
100
AcDbEntity
  8
1
  6
CONTINUOUS
 62
             7
100
AcDbLine
 10
1395.5796417395591
 20
4231.6451121026757
 11
1393.5796417395591
 21
4220.945112102675
  0
LINE
  5
161
100
AcDbEntity
  8
1
  6
CONTINUOUS
 62
             7
100
AcDbLine
 10
1407.912617770269
 20
4232.4613782651586
 11
1396.56261777027
 21
4232.4613782651586
  0
LINE
  5
160
100
AcDbEntity
  8
1
  6
CONTINUOUS
 62
             7
100
AcDbLine
 10
1387.4811340865549
 20
4260.9964963066841
 11
1387.854262909196
 21
4265.2613782651597
  0
LINE
  5
15F
100
AcDbEntity
  8
1
  6
CONTINUOUS
 62
             7
100
AcDbLine
 10
1388.9355599833341
 20
4263.852204482565
 11
1388.6867972765031
 21
4261.0088337325224
  0
LINE
  5
15E
100
AcDbEntity
  8
1
  6
CONTINUOUS
 62
             7
100
AcDbLine
 10
1388.6867972765031
 20
4261.0088337325224
 11
1388.0252802070131
 21
4260.402665019602
  0
LINE
  5
15D
100
AcDbEntity
  8
1
  6
CONTINUOUS
 62
             7
100
AcDbLine
 10
1388.0252802070131
 20
4260.402665019602
 11
1387.4811340865549
 21
4260.9964963066841
  0
LINE
  5
15C
100
AcDbEntity
  8
1
  6
CONTINUOUS
 62
             7
100
AcDbLine
 10
1387.3514257116819
 20
4259.513922797797
 11
1388.0129427811751
 21
4260.1200915107174
  0
LINE
  5
15B
100
AcDbEntity
  8
1
  6
CONTINUOUS
 62
             7
100
AcDbLine
 10
1388.0129427811751
 20
4260.1200915107174
 11
1388.5570889016331
 21
4259.5262602236371
  0
LINE
  5
15A
100
AcDbEntity
  8
1
  6
CONTINUOUS
 62
             7
100
AcDbLine
 10
1388.5570889016331
 20
4259.5262602236371
 11
1388.2797963078799
 21
4256.3567913738616
  0
LINE
  5
159
100
AcDbEntity
  8
1
  6
CONTINUOUS
 62
             7
100
AcDbLine
 10
1386.979775778871
 20
4255.2659446274511
 11
1387.3514257116819
 21
4259.513922797797
  0
LINE
  5
158
100
AcDbEntity
  8
1
  6
CONTINUOUS
 62
             7
100
AcDbLine
 10
1385.4089278703809
 20
4260.8613782651601
 11
1387.3336786191919
 21
4260.8613782651601
  0
LINE
  5
157
100
AcDbEntity
  8
1
  6
CONTINUOUS
 62
             7
100
AcDbLine
 10
1387.3336786191919
 20
4260.8613782651601
 11
1387.8778247396519
 21
4260.2675469780797
  0
LINE
  5
156
100
AcDbEntity
  8
1
  6
CONTINUOUS
 62
             7
100
AcDbLine
 10
1387.8778247396519
 20
4260.2675469780797
 11
1387.2163076701599
 21
4259.6613782651593
  0
LINE
  5
155
100
AcDbEntity
  8
1
  6
CONTINUOUS
 62
             7
100
AcDbLine
 10
1387.2163076701599
 20
4259.6613782651593
 11
1385.2915569213469
 21
4259.6613782651593
  0
LINE
  5
154
100
AcDbEntity
  8
1
  6
CONTINUOUS
 62
             7
100
AcDbLine
 10
1385.2915569213469
 20
4259.6613782651593
 11
1384.7474108008889
 21
4260.2552095522396
  0
LINE
  5
153
100
AcDbEntity
  8
1
  6
CONTINUOUS
 62
             7
100
AcDbLine
 10
1384.7474108008889
 20
4260.2552095522396
 11
1385.4089278703809
 21
4260.8613782651601
  0
LINE
  5
152
100
AcDbEntity
  8
1
  6
CONTINUOUS
 62
             7
100
AcDbLine
 10
1385.6458592666061
 20
4265.2613782651597
 11
1387.6534989416889
 21
4265.2613782651597
  0
LINE
  5
151
100
AcDbEntity
  8
1
  6
CONTINUOUS
 62
             7
100
AcDbLine
 10
1387.6534989416889
 20
4265.2613782651597
 11
1387.5485125454579
 21
4264.061378265159
  0
LINE
  5
150
100
AcDbEntity
  8
1
  6
CONTINUOUS
 62
             7
100
AcDbLine
 10
1387.5485125454579
 20
4264.061378265159
 11
1385.6765070408619
 21
4264.061378265159
  0
LINE
  5
14F
100
AcDbEntity
  8
1
  6
CONTINUOUS
 62
             7
100
AcDbLine
 10
1385.6765070408619
 20
4264.061378265159
 11
1384.80360467676
 21
4265.0139840357087
  0
LINE
  5
14E
100
AcDbEntity
  8
1
  6
CONTINUOUS
 62
             7
100
AcDbLine
 10
1384.656149209397
 20
4264.8788659941847
 11
1385.5290515735001
 21
4263.9262602236367
  0
LINE
  5
14D
100
AcDbEntity
  8
1
  6
CONTINUOUS
 62
             7
100
AcDbLine
 10
1385.5290515735001
 20
4263.9262602236367
 11
1385.2738098288571
 21
4261.0088337325224
  0
LINE
  5
14C
100
AcDbEntity
  8
1
  6
CONTINUOUS
 62
             7
100
AcDbLine
 10
1385.2738098288571
 20
4261.0088337325224
 11
1384.612292759366
 21
4260.402665019602
  0
LINE
  5
14B
100
AcDbEntity
  8
1
  6
CONTINUOUS
 62
             7
100
AcDbLine
 10
1384.612292759366
 20
4260.402665019602
 11
1384.0681466389069
 21
4260.9964963066841
  0
LINE
  5
14A
100
AcDbEntity
  8
1
  6
CONTINUOUS
 62
             7
100
AcDbLine
 10
1384.0681466389069
 20
4260.9964963066841
 11
1384.3545894000031
 21
4264.2705520477566
  0
LINE
  5
149
100
AcDbEntity
  8
1
  6
CONTINUOUS
 62
             7
100
AcDbLine
 10
1383.938438264036
 20
4259.513922797797
 11
1384.5999553335259
 21
4260.1200915107174
  0
LINE
  5
148
100
AcDbEntity
  8
1
  6
CONTINUOUS
 62
             7
100
AcDbLine
 10
1384.5999553335259
 20
4260.1200915107174
 11
1385.1441014539851
 21
4259.5262602236371
  0
LINE
  5
147
100
AcDbEntity
  8
1
  6
CONTINUOUS
 62
             7
100
AcDbLine
 10
1385.1441014539851
 20
4259.5262602236371
 11
1384.888859709343
 21
4256.6088337325227
  0
LINE
  5
146
100
AcDbEntity
  8
1
  6
CONTINUOUS
 62
             7
100
AcDbLine
 10
1384.888859709343
 20
4256.6088337325227
 11
1383.9233532570249
 21
4255.7241100715501
  0
LINE
  5
145
100
AcDbEntity
  8
1
  6
CONTINUOUS
 62
             7
100
AcDbLine
 10
1383.689675557205
 20
4256.6705520477544
 11
1383.938438264036
 21
4259.513922797797
  0
LINE
  5
144
100
AcDbEntity
  8
1
  6
CONTINUOUS
 62
             7
100
AcDbLine
 10
1384.0584712985481
 20
4255.5766546041859
 11
1385.023977750865
 21
4256.4613782651604
  0
LINE
  5
143
100
AcDbEntity
  8
1
  6
CONTINUOUS
 62
             7
100
AcDbLine
 10
1385.023977750865
 20
4256.4613782651604
 11
1386.8835987026609
 21
4256.4613782651604
  0
LINE
  5
142
100
AcDbEntity
  8
1
  6
CONTINUOUS
 62
             7
100
AcDbLine
 10
1386.8835987026609
 20
4256.4613782651604
 11
1386.77861230643
 21
4255.2613782651597
  0
LINE
  5
141
100
AcDbEntity
  8
1
  6
CONTINUOUS
 62
             7
100
AcDbLine
 10
1386.77861230643
 20
4255.2613782651597
 11
1384.770972631339
 21
4255.2613782651597
  0
LINE
  5
140
100
AcDbEntity
  8
1
  6
CONTINUOUS
 62
             7
100
AcDbLine
 10
1392.301051089471
 20
4255.2613782651597
 11
1390.2934114143791
 21
4255.2613782651597
  0
LINE
  5
13F
100
AcDbEntity
  8
1
  6
CONTINUOUS
 62
             7
100
AcDbLine
 10
1392.4060374856999
 20
4256.4613782651604
 11
1392.301051089471
 21
4255.2613782651597
  0
LINE
  5
13E
100
AcDbEntity
  8
1
  6
CONTINUOUS
 62
             7
100
AcDbLine
 10
1390.546416533906
 20
4256.4613782651604
 11
1392.4060374856999
 21
4256.4613782651604
  0
LINE
  5
13D
100
AcDbEntity
  8
1
  6
CONTINUOUS
 62
             7
100
AcDbLine
 10
1389.5809100815879
 20
4255.5766546041859
 11
1390.546416533906
 21
4256.4613782651604
  0
LINE
  5
13C
100
AcDbEntity
  8
1
  6
CONTINUOUS
 62
             7
100
AcDbLine
 10
1389.212114340246
 20
4256.6705520477544
 11
1389.460877047075
 21
4259.513922797797
  0
LINE
  5
13B
100
AcDbEntity
  8
1
  6
CONTINUOUS
 62
             7
100
AcDbLine
 10
1390.4112984923829
 20
4256.6088337325227
 11
1389.445792040066
 21
4255.7241100715501
  0
LINE
  5
13A
100
AcDbEntity
  8
1
  6
CONTINUOUS
 62
             7
100
AcDbLine
 10
1390.6665402370261
 20
4259.5262602236371
 11
1390.4112984923829
 21
4256.6088337325227
  0
LINE
  5
139
100
AcDbEntity
  8
1
  6
CONTINUOUS
 62
             7
100
AcDbLine
 10
1390.122394116567
 20
4260.1200915107174
 11
1390.6665402370261
 21
4259.5262602236371
  0
LINE
  5
138
100
AcDbEntity
  8
1
  6
CONTINUOUS
 62
             7
100
AcDbLine
 10
1389.460877047075
 20
4259.513922797797
 11
1390.122394116567
 21
4260.1200915107174
  0
LINE
  5
137
100
AcDbEntity
  8
1
  6
CONTINUOUS
 62
             7
100
AcDbLine
 10
1389.590585421947
 20
4260.9964963066841
 11
1389.8770281830421
 21
4264.2705520477566
  0
LINE
  5
136
100
AcDbEntity
  8
1
  6
CONTINUOUS
 62
             7
100
AcDbLine
 10
1390.1347315424059
 20
4260.402665019602
 11
1389.590585421947
 21
4260.9964963066841
  0
LINE
  5
135
100
AcDbEntity
  8
1
  6
CONTINUOUS
 62
             7
100
AcDbLine
 10
1390.7962486118961
 20
4261.0088337325224
 11
1390.1347315424059
 21
4260.402665019602
  0
LINE
  5
134
100
AcDbEntity
  8
1
  6
CONTINUOUS
 62
             7
100
AcDbLine
 10
1391.0514903565399
 20
4263.9262602236367
 11
1390.7962486118961
 21
4261.0088337325224
  0
LINE
  5
133
100
AcDbEntity
  8
1
  6
CONTINUOUS
 62
             7
100
AcDbLine
 10
1390.1785879924371
 20
4264.8788659941847
 11
1391.0514903565399
 21
4263.9262602236367
  0
LINE
  5
132
100
AcDbEntity
  8
1
  6
CONTINUOUS
 62
             7
100
AcDbLine
 10
1391.198945823902
 20
4264.061378265159
 11
1390.326043459801
 21
4265.0139840357087
  0
LINE
  5
131
100
AcDbEntity
  8
1
  6
CONTINUOUS
 62
             7
100
AcDbLine
 10
1393.070951328498
 20
4264.061378265159
 11
1391.198945823902
 21
4264.061378265159
  0
LINE
  5
130
100
AcDbEntity
  8
1
  6
CONTINUOUS
 62
             7
100
AcDbLine
 10
1393.175937724729
 20
4265.2613782651597
 11
1393.070951328498
 21
4264.061378265159
  0
LINE
  5
12F
100
AcDbEntity
  8
1
  6
CONTINUOUS
 62
             7
100
AcDbLine
 10
1391.168298049646
 20
4265.2613782651597
 11
1393.175937724729
 21
4265.2613782651597
  0
LINE
  5
12E
100
AcDbEntity
  8
1
  6
CONTINUOUS
 62
             7
100
AcDbLine
 10
1390.26984958393
 20
4260.2552095522396
 11
1390.9313666534199
 21
4260.8613782651601
  0
LINE
  5
12D
100
AcDbEntity
  8
1
  6
CONTINUOUS
 62
             7
100
AcDbLine
 10
1390.8139957043859
 20
4259.6613782651593
 11
1390.26984958393
 21
4260.2552095522396
  0
LINE
  5
12C
100
AcDbEntity
  8
1
  6
CONTINUOUS
 62
             7
100
AcDbLine
 10
1392.7387464532001
 20
4259.6613782651593
 11
1390.8139957043859
 21
4259.6613782651593
  0
LINE
  5
12B
100
AcDbEntity
  8
1
  6
CONTINUOUS
 62
             7
100
AcDbLine
 10
1393.400263522693
 20
4260.2675469780797
 11
1392.7387464532001
 21
4259.6613782651593
  0
LINE
  5
12A
100
AcDbEntity
  8
1
  6
CONTINUOUS
 62
             7
100
AcDbLine
 10
1392.8561174022329
 20
4260.8613782651601
 11
1393.400263522693
 21
4260.2675469780797
  0
LINE
  5
129
100
AcDbEntity
  8
1
  6
CONTINUOUS
 62
             7
100
AcDbLine
 10
1390.9313666534199
 20
4260.8613782651601
 11
1392.8561174022329
 21
4260.8613782651601
  0
LINE
  5
128
100
AcDbEntity
  8
1
  6
CONTINUOUS
 62
             7
100
AcDbLine
 10
1392.5022145619121
 20
4255.2659446274511
 11
1392.873864494723
 21
4259.513922797797
  0
LINE
  5
127
100
AcDbEntity
  8
1
  6
CONTINUOUS
 62
             7
100
AcDbLine
 10
1394.0795276846729
 20
4259.5262602236371
 11
1393.8022350909209
 21
4256.3567913738616
  0
LINE
  5
126
100
AcDbEntity
  8
1
  6
CONTINUOUS
 62
             7
100
AcDbLine
 10
1393.535381564215
 20
4260.1200915107174
 11
1394.0795276846729
 21
4259.5262602236371
  0
LINE
  5
125
100
AcDbEntity
  8
1
  6
CONTINUOUS
 62
             7
100
AcDbLine
 10
1392.873864494723
 20
4259.513922797797
 11
1393.535381564215
 21
4260.1200915107174
  0
LINE
  5
124
100
AcDbEntity
  8
1
  6
CONTINUOUS
 62
             7
100
AcDbLine
 10
1393.5477189900539
 20
4260.402665019602
 11
1393.003572869595
 21
4260.9964963066841
  0
LINE
  5
123
100
AcDbEntity
  8
1
  6
CONTINUOUS
 62
             7
100
AcDbLine
 10
1394.2092360595441
 20
4261.0088337325224
 11
1393.5477189900539
 21
4260.402665019602
  0
LINE
  5
122
100
AcDbEntity
  8
1
  6
CONTINUOUS
 62
             7
100
AcDbLine
 10
1394.457998766374
 20
4263.852204482565
 11
1394.2092360595441
 21
4261.0088337325224
  0
LINE
  5
121
100
AcDbEntity
  8
1
  6
CONTINUOUS
 62
             7
100
AcDbLine
 10
1393.003572869595
 20
4260.9964963066841
 11
1393.3767016922379
 21
4265.2613782651597
  0
LINE
  5
120
100
AcDbEntity
  8
1
  6
CONTINUOUS
 62
             7
100
AcDbLine
 10
1403.9811340865549
 20
4260.9964963066841
 11
1404.354262909196
 21
4265.2613782651597
  0
LINE
  5
11F
100
AcDbEntity
  8
1
  6
CONTINUOUS
 62
             7
100
AcDbLine
 10
1405.4355599833341
 20
4263.852204482565
 11
1405.1867972765031
 21
4261.0088337325224
  0
LINE
  5
11E
100
AcDbEntity
  8
1
  6
CONTINUOUS
 62
             7
100
AcDbLine
 10
1405.1867972765031
 20
4261.0088337325224
 11
1404.5252802070131
 21
4260.402665019602
  0
LINE
  5
11D
100
AcDbEntity
  8
1
  6
CONTINUOUS
 62
             7
100
AcDbLine
 10
1404.5252802070131
 20
4260.402665019602
 11
1403.9811340865549
 21
4260.9964963066841
  0
LINE
  5
11C
100
AcDbEntity
  8
1
  6
CONTINUOUS
 62
             7
100
AcDbLine
 10
1403.8514257116819
 20
4259.513922797797
 11
1404.5129427811751
 21
4260.1200915107174
  0
LINE
  5
11B
100
AcDbEntity
  8
1
  6
CONTINUOUS
 62
             7
100
AcDbLine
 10
1404.5129427811751
 20
4260.1200915107174
 11
1405.0570889016331
 21
4259.5262602236371
  0
LINE
  5
11A
100
AcDbEntity
  8
1
  6
CONTINUOUS
 62
             7
100
AcDbLine
 10
1405.0570889016331
 20
4259.5262602236371
 11
1404.7797963078799
 21
4256.3567913738616
  0
LINE
  5
119
100
AcDbEntity
  8
1
  6
CONTINUOUS
 62
             7
100
AcDbLine
 10
1403.479775778871
 20
4255.2659446274511
 11
1403.8514257116819
 21
4259.513922797797
  0
LINE
  5
118
100
AcDbEntity
  8
1
  6
CONTINUOUS
 62
             7
100
AcDbLine
 10
1401.9089278703809
 20
4260.8613782651601
 11
1403.8336786191919
 21
4260.8613782651601
  0
LINE
  5
117
100
AcDbEntity
  8
1
  6
CONTINUOUS
 62
             7
100
AcDbLine
 10
1403.8336786191919
 20
4260.8613782651601
 11
1404.3778247396519
 21
4260.2675469780797
  0
LINE
  5
116
100
AcDbEntity
  8
1
  6
CONTINUOUS
 62
             7
100
AcDbLine
 10
1404.3778247396519
 20
4260.2675469780797
 11
1403.7163076701599
 21
4259.6613782651593
  0
LINE
  5
115
100
AcDbEntity
  8
1
  6
CONTINUOUS
 62
             7
100
AcDbLine
 10
1403.7163076701599
 20
4259.6613782651593
 11
1401.7915569213469
 21
4259.6613782651593
  0
LINE
  5
114
100
AcDbEntity
  8
1
  6
CONTINUOUS
 62
             7
100
AcDbLine
 10
1401.7915569213469
 20
4259.6613782651593
 11
1401.2474108008889
 21
4260.2552095522396
  0
LINE
  5
113
100
AcDbEntity
  8
1
  6
CONTINUOUS
 62
             7
100
AcDbLine
 10
1401.2474108008889
 20
4260.2552095522396
 11
1401.9089278703809
 21
4260.8613782651601
  0
LINE
  5
112
100
AcDbEntity
  8
1
  6
CONTINUOUS
 62
             7
100
AcDbLine
 10
1402.1458592666061
 20
4265.2613782651597
 11
1404.1534989416889
 21
4265.2613782651597
  0
LINE
  5
111
100
AcDbEntity
  8
1
  6
CONTINUOUS
 62
             7
100
AcDbLine
 10
1404.1534989416889
 20
4265.2613782651597
 11
1404.0485125454579
 21
4264.061378265159
  0
LINE
  5
110
100
AcDbEntity
  8
1
  6
CONTINUOUS
 62
             7
100
AcDbLine
 10
1404.0485125454579
 20
4264.061378265159
 11
1402.1765070408619
 21
4264.061378265159
  0
LINE
  5
10F
100
AcDbEntity
  8
1
  6
CONTINUOUS
 62
             7
100
AcDbLine
 10
1402.1765070408619
 20
4264.061378265159
 11
1401.30360467676
 21
4265.0139840357087
  0
LINE
  5
10E
100
AcDbEntity
  8
1
  6
CONTINUOUS
 62
             7
100
AcDbLine
 10
1401.156149209397
 20
4264.8788659941847
 11
1402.0290515735001
 21
4263.9262602236367
  0
LINE
  5
10D
100
AcDbEntity
  8
1
  6
CONTINUOUS
 62
             7
100
AcDbLine
 10
1402.0290515735001
 20
4263.9262602236367
 11
1401.7738098288571
 21
4261.0088337325224
  0
LINE
  5
10C
100
AcDbEntity
  8
1
  6
CONTINUOUS
 62
             7
100
AcDbLine
 10
1401.7738098288571
 20
4261.0088337325224
 11
1401.112292759366
 21
4260.402665019602
  0
LINE
  5
10B
100
AcDbEntity
  8
1
  6
CONTINUOUS
 62
             7
100
AcDbLine
 10
1401.112292759366
 20
4260.402665019602
 11
1400.5681466389069
 21
4260.9964963066841
  0
LINE
  5
10A
100
AcDbEntity
  8
1
  6
CONTINUOUS
 62
             7
100
AcDbLine
 10
1400.5681466389069
 20
4260.9964963066841
 11
1400.8545894000031
 21
4264.2705520477566
  0
LINE
  5
109
100
AcDbEntity
  8
1
  6
CONTINUOUS
 62
             7
100
AcDbLine
 10
1400.438438264036
 20
4259.513922797797
 11
1401.0999553335259
 21
4260.1200915107174
  0
LINE
  5
108
100
AcDbEntity
  8
1
  6
CONTINUOUS
 62
             7
100
AcDbLine
 10
1401.0999553335259
 20
4260.1200915107174
 11
1401.6441014539851
 21
4259.5262602236371
  0
LINE
  5
107
100
AcDbEntity
  8
1
  6
CONTINUOUS
 62
             7
100
AcDbLine
 10
1401.6441014539851
 20
4259.5262602236371
 11
1401.388859709343
 21
4256.6088337325227
  0
LINE
  5
106
100
AcDbEntity
  8
1
  6
CONTINUOUS
 62
             7
100
AcDbLine
 10
1401.388859709343
 20
4256.6088337325227
 11
1400.4233532570249
 21
4255.7241100715501
  0
LINE
  5
105
100
AcDbEntity
  8
1
  6
CONTINUOUS
 62
             7
100
AcDbLine
 10
1400.189675557205
 20
4256.6705520477544
 11
1400.438438264036
 21
4259.513922797797
  0
LINE
  5
104
100
AcDbEntity
  8
1
  6
CONTINUOUS
 62
             7
100
AcDbLine
 10
1400.5584712985481
 20
4255.5766546041859
 11
1401.523977750865
 21
4256.4613782651604
  0
LINE
  5
103
100
AcDbEntity
  8
1
  6
CONTINUOUS
 62
             7
100
AcDbLine
 10
1401.523977750865
 20
4256.4613782651604
 11
1403.3835987026609
 21
4256.4613782651604
  0
LINE
  5
102
100
AcDbEntity
  8
1
  6
CONTINUOUS
 62
             7
100
AcDbLine
 10
1403.3835987026609
 20
4256.4613782651604
 11
1403.27861230643
 21
4255.2613782651597
  0
LINE
  5
101
100
AcDbEntity
  8
1
  6
CONTINUOUS
 62
             7
100
AcDbLine
 10
1403.27861230643
 20
4255.2613782651597
 11
1401.270972631339
 21
4255.2613782651597
  0
LINE
  5
100
100
AcDbEntity
  8
1
  6
CONTINUOUS
 62
             7
100
AcDbLine
 10
1397.801051089471
 20
4255.2613782651597
 11
1395.7934114143791
 21
4255.2613782651597
  0
LINE
  5
FF
100
AcDbEntity
  8
1
  6
CONTINUOUS
 62
             7
100
AcDbLine
 10
1397.9060374856999
 20
4256.4613782651604
 11
1397.801051089471
 21
4255.2613782651597
  0
LINE
  5
FE
100
AcDbEntity
  8
1
  6
CONTINUOUS
 62
             7
100
AcDbLine
 10
1396.046416533906
 20
4256.4613782651604
 11
1397.9060374856999
 21
4256.4613782651604
  0
LINE
  5
FD
100
AcDbEntity
  8
1
  6
CONTINUOUS
 62
             7
100
AcDbLine
 10
1395.0809100815879
 20
4255.5766546041859
 11
1396.046416533906
 21
4256.4613782651604
  0
LINE
  5
FC
100
AcDbEntity
  8
1
  6
CONTINUOUS
 62
             7
100
AcDbLine
 10
1394.712114340246
 20
4256.6705520477544
 11
1394.960877047075
 21
4259.513922797797
  0
LINE
  5
FB
100
AcDbEntity
  8
1
  6
CONTINUOUS
 62
             7
100
AcDbLine
 10
1395.9112984923829
 20
4256.6088337325227
 11
1394.945792040066
 21
4255.7241100715501
  0
LINE
  5
FA
100
AcDbEntity
  8
1
  6
CONTINUOUS
 62
             7
100
AcDbLine
 10
1396.1665402370261
 20
4259.5262602236371
 11
1395.9112984923829
 21
4256.6088337325227
  0
LINE
  5
F9
100
AcDbEntity
  8
1
  6
CONTINUOUS
 62
             7
100
AcDbLine
 10
1395.622394116567
 20
4260.1200915107174
 11
1396.1665402370261
 21
4259.5262602236371
  0
LINE
  5
F8
100
AcDbEntity
  8
1
  6
CONTINUOUS
 62
             7
100
AcDbLine
 10
1394.960877047075
 20
4259.513922797797
 11
1395.622394116567
 21
4260.1200915107174
  0
LINE
  5
F7
100
AcDbEntity
  8
1
  6
CONTINUOUS
 62
             7
100
AcDbLine
 10
1395.090585421947
 20
4260.9964963066841
 11
1395.3770281830421
 21
4264.2705520477566
  0
LINE
  5
F6
100
AcDbEntity
  8
1
  6
CONTINUOUS
 62
             7
100
AcDbLine
 10
1395.6347315424059
 20
4260.402665019602
 11
1395.090585421947
 21
4260.9964963066841
  0
LINE
  5
F5
100
AcDbEntity
  8
1
  6
CONTINUOUS
 62
             7
100
AcDbLine
 10
1396.2962486118961
 20
4261.0088337325224
 11
1395.6347315424059
 21
4260.402665019602
  0
LINE
  5
F4
100
AcDbEntity
  8
1
  6
CONTINUOUS
 62
             7
100
AcDbLine
 10
1396.5514903565399
 20
4263.9262602236367
 11
1396.2962486118961
 21
4261.0088337325224
  0
LINE
  5
F3
100
AcDbEntity
  8
1
  6
CONTINUOUS
 62
             7
100
AcDbLine
 10
1395.6785879924371
 20
4264.8788659941847
 11
1396.5514903565399
 21
4263.9262602236367
  0
LINE
  5
F2
100
AcDbEntity
  8
1
  6
CONTINUOUS
 62
             7
100
AcDbLine
 10
1396.698945823902
 20
4264.061378265159
 11
1395.826043459801
 21
4265.0139840357087
  0
LINE
  5
F1
100
AcDbEntity
  8
1
  6
CONTINUOUS
 62
             7
100
AcDbLine
 10
1398.570951328498
 20
4264.061378265159
 11
1396.698945823902
 21
4264.061378265159
  0
LINE
  5
F0
100
AcDbEntity
  8
1
  6
CONTINUOUS
 62
             7
100
AcDbLine
 10
1398.675937724729
 20
4265.2613782651597
 11
1398.570951328498
 21
4264.061378265159
  0
LINE
  5
EF
100
AcDbEntity
  8
1
  6
CONTINUOUS
 62
             7
100
AcDbLine
 10
1396.668298049646
 20
4265.2613782651597
 11
1398.675937724729
 21
4265.2613782651597
  0
LINE
  5
EE
100
AcDbEntity
  8
1
  6
CONTINUOUS
 62
             7
100
AcDbLine
 10
1395.76984958393
 20
4260.2552095522396
 11
1396.4313666534199
 21
4260.8613782651601
  0
LINE
  5
ED
100
AcDbEntity
  8
1
  6
CONTINUOUS
 62
             7
100
AcDbLine
 10
1396.3139957043859
 20
4259.6613782651593
 11
1395.76984958393
 21
4260.2552095522396
  0
LINE
  5
EC
100
AcDbEntity
  8
1
  6
CONTINUOUS
 62
             7
100
AcDbLine
 10
1398.2387464532001
 20
4259.6613782651593
 11
1396.3139957043859
 21
4259.6613782651593
  0
LINE
  5
EB
100
AcDbEntity
  8
1
  6
CONTINUOUS
 62
             7
100
AcDbLine
 10
1398.900263522693
 20
4260.2675469780797
 11
1398.2387464532001
 21
4259.6613782651593
  0
LINE
  5
EA
100
AcDbEntity
  8
1
  6
CONTINUOUS
 62
             7
100
AcDbLine
 10
1398.3561174022329
 20
4260.8613782651601
 11
1398.900263522693
 21
4260.2675469780797
  0
LINE
  5
E9
100
AcDbEntity
  8
1
  6
CONTINUOUS
 62
             7
100
AcDbLine
 10
1396.4313666534199
 20
4260.8613782651601
 11
1398.3561174022329
 21
4260.8613782651601
  0
LINE
  5
E8
100
AcDbEntity
  8
1
  6
CONTINUOUS
 62
             7
100
AcDbLine
 10
1398.0022145619121
 20
4255.2659446274511
 11
1398.373864494723
 21
4259.513922797797
  0
LINE
  5
E7
100
AcDbEntity
  8
1
  6
CONTINUOUS
 62
             7
100
AcDbLine
 10
1399.5795276846729
 20
4259.5262602236371
 11
1399.3022350909209
 21
4256.3567913738616
  0
LINE
  5
E6
100
AcDbEntity
  8
1
  6
CONTINUOUS
 62
             7
100
AcDbLine
 10
1399.035381564215
 20
4260.1200915107174
 11
1399.5795276846729
 21
4259.5262602236371
  0
LINE
  5
E5
100
AcDbEntity
  8
1
  6
CONTINUOUS
 62
             7
100
AcDbLine
 10
1398.373864494723
 20
4259.513922797797
 11
1399.035381564215
 21
4260.1200915107174
  0
LINE
  5
E4
100
AcDbEntity
  8
1
  6
CONTINUOUS
 62
             7
100
AcDbLine
 10
1399.0477189900539
 20
4260.402665019602
 11
1398.503572869595
 21
4260.9964963066841
  0
LINE
  5
E3
100
AcDbEntity
  8
1
  6
CONTINUOUS
 62
             7
100
AcDbLine
 10
1399.7092360595441
 20
4261.0088337325224
 11
1399.0477189900539
 21
4260.402665019602
  0
LINE
  5
E2
100
AcDbEntity
  8
1
  6
CONTINUOUS
 62
             7
100
AcDbLine
 10
1399.957998766374
 20
4263.852204482565
 11
1399.7092360595441
 21
4261.0088337325224
  0
LINE
  5
E1
100
AcDbEntity
  8
1
  6
CONTINUOUS
 62
             7
100
AcDbLine
 10
1398.503572869595
 20
4260.9964963066841
 11
1398.8767016922379
 21
4265.2613782651597
  0
LINE
  5
E0
100
AcDbEntity
  8
1
  6
CONTINUOUS
 62
             7
100
AcDbLine
 10
1386.77861230643
 20
4271.2613782651597
 11
1384.770972631339
 21
4271.2613782651597
  0
LINE
  5
DF
100
AcDbEntity
  8
1
  6
CONTINUOUS
 62
             7
100
AcDbLine
 10
1386.8835987026609
 20
4272.4613782651604
 11
1386.77861230643
 21
4271.2613782651597
  0
LINE
  5
DE
100
AcDbEntity
  8
1
  6
CONTINUOUS
 62
             7
100
AcDbLine
 10
1385.023977750865
 20
4272.4613782651604
 11
1386.8835987026609
 21
4272.4613782651604
  0
LINE
  5
DD
100
AcDbEntity
  8
1
  6
CONTINUOUS
 62
             7
100
AcDbLine
 10
1384.0584712985481
 20
4271.5766546041859
 11
1385.023977750865
 21
4272.4613782651604
  0
LINE
  5
DC
100
AcDbEntity
  8
1
  6
CONTINUOUS
 62
             7
100
AcDbLine
 10
1383.689675557205
 20
4272.6705520477544
 11
1383.938438264036
 21
4275.513922797797
  0
LINE
  5
DB
100
AcDbEntity
  8
1
  6
CONTINUOUS
 62
             7
100
AcDbLine
 10
1384.888859709343
 20
4272.6088337325227
 11
1383.9233532570249
 21
4271.7241100715501
  0
LINE
  5
DA
100
AcDbEntity
  8
1
  6
CONTINUOUS
 62
             7
100
AcDbLine
 10
1385.1441014539851
 20
4275.5262602236371
 11
1384.888859709343
 21
4272.6088337325227
  0
LINE
  5
D9
100
AcDbEntity
  8
1
  6
CONTINUOUS
 62
             7
100
AcDbLine
 10
1384.5999553335259
 20
4276.1200915107174
 11
1385.1441014539851
 21
4275.5262602236371
  0
LINE
  5
D8
100
AcDbEntity
  8
1
  6
CONTINUOUS
 62
             7
100
AcDbLine
 10
1383.938438264036
 20
4275.513922797797
 11
1384.5999553335259
 21
4276.1200915107174
  0
LINE
  5
D7
100
AcDbEntity
  8
1
  6
CONTINUOUS
 62
             7
100
AcDbLine
 10
1384.0681466389069
 20
4276.9964963066841
 11
1384.3545894000031
 21
4280.2705520477566
  0
LINE
  5
D6
100
AcDbEntity
  8
1
  6
CONTINUOUS
 62
             7
100
AcDbLine
 10
1384.612292759366
 20
4276.402665019602
 11
1384.0681466389069
 21
4276.9964963066841
  0
LINE
  5
D5
100
AcDbEntity
  8
1
  6
CONTINUOUS
 62
             7
100
AcDbLine
 10
1385.2738098288571
 20
4277.0088337325224
 11
1384.612292759366
 21
4276.402665019602
  0
LINE
  5
D4
100
AcDbEntity
  8
1
  6
CONTINUOUS
 62
             7
100
AcDbLine
 10
1385.5290515735001
 20
4279.9262602236367
 11
1385.2738098288571
 21
4277.0088337325224
  0
LINE
  5
D3
100
AcDbEntity
  8
1
  6
CONTINUOUS
 62
             7
100
AcDbLine
 10
1384.656149209397
 20
4280.8788659941847
 11
1385.5290515735001
 21
4279.9262602236367
  0
LINE
  5
D2
100
AcDbEntity
  8
1
  6
CONTINUOUS
 62
             7
100
AcDbLine
 10
1385.6765070408619
 20
4280.061378265159
 11
1384.80360467676
 21
4281.0139840357087
  0
LINE
  5
D1
100
AcDbEntity
  8
1
  6
CONTINUOUS
 62
             7
100
AcDbLine
 10
1387.5485125454579
 20
4280.061378265159
 11
1385.6765070408619
 21
4280.061378265159
  0
LINE
  5
D0
100
AcDbEntity
  8
1
  6
CONTINUOUS
 62
             7
100
AcDbLine
 10
1387.6534989416889
 20
4281.2613782651597
 11
1387.5485125454579
 21
4280.061378265159
  0
LINE
  5
CF
100
AcDbEntity
  8
1
  6
CONTINUOUS
 62
             7
100
AcDbLine
 10
1385.6458592666061
 20
4281.2613782651597
 11
1387.6534989416889
 21
4281.2613782651597
  0
LINE
  5
CE
100
AcDbEntity
  8
1
  6
CONTINUOUS
 62
             7
100
AcDbLine
 10
1384.7474108008889
 20
4276.2552095522396
 11
1385.4089278703809
 21
4276.8613782651601
  0
LINE
  5
CD
100
AcDbEntity
  8
1
  6
CONTINUOUS
 62
             7
100
AcDbLine
 10
1385.2915569213469
 20
4275.6613782651593
 11
1384.7474108008889
 21
4276.2552095522396
  0
LINE
  5
CC
100
AcDbEntity
  8
1
  6
CONTINUOUS
 62
             7
100
AcDbLine
 10
1387.2163076701599
 20
4275.6613782651593
 11
1385.2915569213469
 21
4275.6613782651593
  0
LINE
  5
CB
100
AcDbEntity
  8
1
  6
CONTINUOUS
 62
             7
100
AcDbLine
 10
1387.8778247396519
 20
4276.2675469780797
 11
1387.2163076701599
 21
4275.6613782651593
  0
LINE
  5
CA
100
AcDbEntity
  8
1
  6
CONTINUOUS
 62
             7
100
AcDbLine
 10
1387.3336786191919
 20
4276.8613782651601
 11
1387.8778247396519
 21
4276.2675469780797
  0
LINE
  5
C9
100
AcDbEntity
  8
1
  6
CONTINUOUS
 62
             7
100
AcDbLine
 10
1385.4089278703809
 20
4276.8613782651601
 11
1387.3336786191919
 21
4276.8613782651601
  0
LINE
  5
C8
100
AcDbEntity
  8
1
  6
CONTINUOUS
 62
             7
100
AcDbLine
 10
1386.979775778871
 20
4271.2659446274511
 11
1387.3514257116819
 21
4275.513922797797
  0
LINE
  5
C7
100
AcDbEntity
  8
1
  6
CONTINUOUS
 62
             7
100
AcDbLine
 10
1388.5570889016331
 20
4275.5262602236371
 11
1388.2797963078799
 21
4272.3567913738616
  0
LINE
  5
C6
100
AcDbEntity
  8
1
  6
CONTINUOUS
 62
             7
100
AcDbLine
 10
1388.0129427811751
 20
4276.1200915107174
 11
1388.5570889016331
 21
4275.5262602236371
  0
LINE
  5
C5
100
AcDbEntity
  8
1
  6
CONTINUOUS
 62
             7
100
AcDbLine
 10
1387.3514257116819
 20
4275.513922797797
 11
1388.0129427811751
 21
4276.1200915107174
  0
LINE
  5
C4
100
AcDbEntity
  8
1
  6
CONTINUOUS
 62
             7
100
AcDbLine
 10
1388.0252802070131
 20
4276.402665019602
 11
1387.4811340865549
 21
4276.9964963066841
  0
LINE
  5
C3
100
AcDbEntity
  8
1
  6
CONTINUOUS
 62
             7
100
AcDbLine
 10
1388.6867972765031
 20
4277.0088337325224
 11
1388.0252802070131
 21
4276.402665019602
  0
LINE
  5
C2
100
AcDbEntity
  8
1
  6
CONTINUOUS
 62
             7
100
AcDbLine
 10
1388.9355599833341
 20
4279.852204482565
 11
1388.6867972765031
 21
4277.0088337325224
  0
LINE
  5
C1
100
AcDbEntity
  8
1
  6
CONTINUOUS
 62
             7
100
AcDbLine
 10
1387.4811340865549
 20
4276.9964963066841
 11
1387.854262909196
 21
4281.2613782651597
  0
LINE
  5
C0
100
AcDbEntity
  8
1
  6
CONTINUOUS
 62
             7
100
AcDbLine
 10
1392.9811340865549
 20
4276.9964963066841
 11
1393.354262909196
 21
4281.2613782651597
  0
LINE
  5
BF
100
AcDbEntity
  8
1
  6
CONTINUOUS
 62
             7
100
AcDbLine
 10
1394.4355599833341
 20
4279.852204482565
 11
1394.1867972765031
 21
4277.0088337325224
  0
LINE
  5
BE
100
AcDbEntity
  8
1
  6
CONTINUOUS
 62
             7
100
AcDbLine
 10
1394.1867972765031
 20
4277.0088337325224
 11
1393.5252802070131
 21
4276.402665019602
  0
LINE
  5
BD
100
AcDbEntity
  8
1
  6
CONTINUOUS
 62
             7
100
AcDbLine
 10
1393.5252802070131
 20
4276.402665019602
 11
1392.9811340865549
 21
4276.9964963066841
  0
LINE
  5
BC
100
AcDbEntity
  8
1
  6
CONTINUOUS
 62
             7
100
AcDbLine
 10
1392.8514257116819
 20
4275.513922797797
 11
1393.5129427811751
 21
4276.1200915107174
  0
LINE
  5
BB
100
AcDbEntity
  8
1
  6
CONTINUOUS
 62
             7
100
AcDbLine
 10
1393.5129427811751
 20
4276.1200915107174
 11
1394.0570889016331
 21
4275.5262602236371
  0
LINE
  5
BA
100
AcDbEntity
  8
1
  6
CONTINUOUS
 62
             7
100
AcDbLine
 10
1394.0570889016331
 20
4275.5262602236371
 11
1393.7797963078799
 21
4272.3567913738616
  0
LINE
  5
B9
100
AcDbEntity
  8
1
  6
CONTINUOUS
 62
             7
100
AcDbLine
 10
1392.479775778871
 20
4271.2659446274511
 11
1392.8514257116819
 21
4275.513922797797
  0
LINE
  5
B8
100
AcDbEntity
  8
1
  6
CONTINUOUS
 62
             7
100
AcDbLine
 10
1390.9089278703809
 20
4276.8613782651601
 11
1392.8336786191919
 21
4276.8613782651601
  0
LINE
  5
B7
100
AcDbEntity
  8
1
  6
CONTINUOUS
 62
             7
100
AcDbLine
 10
1392.8336786191919
 20
4276.8613782651601
 11
1393.3778247396519
 21
4276.2675469780797
  0
LINE
  5
B6
100
AcDbEntity
  8
1
  6
CONTINUOUS
 62
             7
100
AcDbLine
 10
1393.3778247396519
 20
4276.2675469780797
 11
1392.7163076701599
 21
4275.6613782651593
  0
LINE
  5
B5
100
AcDbEntity
  8
1
  6
CONTINUOUS
 62
             7
100
AcDbLine
 10
1392.7163076701599
 20
4275.6613782651593
 11
1390.7915569213469
 21
4275.6613782651593
  0
LINE
  5
B4
100
AcDbEntity
  8
1
  6
CONTINUOUS
 62
             7
100
AcDbLine
 10
1390.7915569213469
 20
4275.6613782651593
 11
1390.2474108008889
 21
4276.2552095522396
  0
LINE
  5
B3
100
AcDbEntity
  8
1
  6
CONTINUOUS
 62
             7
100
AcDbLine
 10
1390.2474108008889
 20
4276.2552095522396
 11
1390.9089278703809
 21
4276.8613782651601
  0
LINE
  5
B2
100
AcDbEntity
  8
1
  6
CONTINUOUS
 62
             7
100
AcDbLine
 10
1391.1458592666061
 20
4281.2613782651597
 11
1393.1534989416889
 21
4281.2613782651597
  0
LINE
  5
B1
100
AcDbEntity
  8
1
  6
CONTINUOUS
 62
             7
100
AcDbLine
 10
1393.1534989416889
 20
4281.2613782651597
 11
1393.0485125454579
 21
4280.061378265159
  0
LINE
  5
B0
100
AcDbEntity
  8
1
  6
CONTINUOUS
 62
             7
100
AcDbLine
 10
1393.0485125454579
 20
4280.061378265159
 11
1391.1765070408619
 21
4280.061378265159
  0
LINE
  5
AF
100
AcDbEntity
  8
1
  6
CONTINUOUS
 62
             7
100
AcDbLine
 10
1391.1765070408619
 20
4280.061378265159
 11
1390.30360467676
 21
4281.0139840357087
  0
LINE
  5
AE
100
AcDbEntity
  8
1
  6
CONTINUOUS
 62
             7
100
AcDbLine
 10
1390.156149209397
 20
4280.8788659941847
 11
1391.0290515735001
 21
4279.9262602236367
  0
LINE
  5
AD
100
AcDbEntity
  8
1
  6
CONTINUOUS
 62
             7
100
AcDbLine
 10
1391.0290515735001
 20
4279.9262602236367
 11
1390.7738098288571
 21
4277.0088337325224
  0
LINE
  5
AC
100
AcDbEntity
  8
1
  6
CONTINUOUS
 62
             7
100
AcDbLine
 10
1390.7738098288571
 20
4277.0088337325224
 11
1390.112292759366
 21
4276.402665019602
  0
LINE
  5
AB
100
AcDbEntity
  8
1
  6
CONTINUOUS
 62
             7
100
AcDbLine
 10
1390.112292759366
 20
4276.402665019602
 11
1389.5681466389069
 21
4276.9964963066841
  0
LINE
  5
AA
100
AcDbEntity
  8
1
  6
CONTINUOUS
 62
             7
100
AcDbLine
 10
1389.5681466389069
 20
4276.9964963066841
 11
1389.8545894000031
 21
4280.2705520477566
  0
LINE
  5
A9
100
AcDbEntity
  8
1
  6
CONTINUOUS
 62
             7
100
AcDbLine
 10
1389.438438264036
 20
4275.513922797797
 11
1390.0999553335259
 21
4276.1200915107174
  0
LINE
  5
A8
100
AcDbEntity
  8
1
  6
CONTINUOUS
 62
             7
100
AcDbLine
 10
1390.0999553335259
 20
4276.1200915107174
 11
1390.6441014539851
 21
4275.5262602236371
  0
LINE
  5
A7
100
AcDbEntity
  8
1
  6
CONTINUOUS
 62
             7
100
AcDbLine
 10
1390.6441014539851
 20
4275.5262602236371
 11
1390.388859709343
 21
4272.6088337325227
  0
LINE
  5
A6
100
AcDbEntity
  8
1
  6
CONTINUOUS
 62
             7
100
AcDbLine
 10
1390.388859709343
 20
4272.6088337325227
 11
1389.4233532570249
 21
4271.7241100715501
  0
LINE
  5
A5
100
AcDbEntity
  8
1
  6
CONTINUOUS
 62
             7
100
AcDbLine
 10
1389.189675557205
 20
4272.6705520477544
 11
1389.438438264036
 21
4275.513922797797
  0
LINE
  5
A4
100
AcDbEntity
  8
1
  6
CONTINUOUS
 62
             7
100
AcDbLine
 10
1389.5584712985481
 20
4271.5766546041859
 11
1390.523977750865
 21
4272.4613782651604
  0
LINE
  5
A3
100
AcDbEntity
  8
1
  6
CONTINUOUS
 62
             7
100
AcDbLine
 10
1390.523977750865
 20
4272.4613782651604
 11
1392.3835987026609
 21
4272.4613782651604
  0
LINE
  5
A2
100
AcDbEntity
  8
1
  6
CONTINUOUS
 62
             7
100
AcDbLine
 10
1392.3835987026609
 20
4272.4613782651604
 11
1392.27861230643
 21
4271.2613782651597
  0
LINE
  5
A1
100
AcDbEntity
  8
1
  6
CONTINUOUS
 62
             7
100
AcDbLine
 10
1392.27861230643
 20
4271.2613782651597
 11
1390.270972631339
 21
4271.2613782651597
  0
LINE
  5
A0
100
AcDbEntity
  8
1
  6
CONTINUOUS
 62
             7
100
AcDbLine
 10
1403.27861230643
 20
4271.2613782651597
 11
1401.270972631339
 21
4271.2613782651597
  0
LINE
  5
9F
100
AcDbEntity
  8
1
  6
CONTINUOUS
 62
             7
100
AcDbLine
 10
1403.3835987026609
 20
4272.4613782651604
 11
1403.27861230643
 21
4271.2613782651597
  0
LINE
  5
9E
100
AcDbEntity
  8
1
  6
CONTINUOUS
 62
             7
100
AcDbLine
 10
1401.523977750865
 20
4272.4613782651604
 11
1403.3835987026609
 21
4272.4613782651604
  0
LINE
  5
9D
100
AcDbEntity
  8
1
  6
CONTINUOUS
 62
             7
100
AcDbLine
 10
1400.5584712985481
 20
4271.5766546041859
 11
1401.523977750865
 21
4272.4613782651604
  0
LINE
  5
9C
100
AcDbEntity
  8
1
  6
CONTINUOUS
 62
             7
100
AcDbLine
 10
1400.189675557205
 20
4272.6705520477544
 11
1400.438438264036
 21
4275.513922797797
  0
LINE
  5
9B
100
AcDbEntity
  8
1
  6
CONTINUOUS
 62
             7
100
AcDbLine
 10
1401.388859709343
 20
4272.6088337325227
 11
1400.4233532570249
 21
4271.7241100715501
  0
LINE
  5
9A
100
AcDbEntity
  8
1
  6
CONTINUOUS
 62
             7
100
AcDbLine
 10
1401.6441014539851
 20
4275.5262602236371
 11
1401.388859709343
 21
4272.6088337325227
  0
LINE
  5
99
100
AcDbEntity
  8
1
  6
CONTINUOUS
 62
             7
100
AcDbLine
 10
1401.0999553335259
 20
4276.1200915107174
 11
1401.6441014539851
 21
4275.5262602236371
  0
LINE
  5
98
100
AcDbEntity
  8
1
  6
CONTINUOUS
 62
             7
100
AcDbLine
 10
1400.438438264036
 20
4275.513922797797
 11
1401.0999553335259
 21
4276.1200915107174
  0
LINE
  5
97
100
AcDbEntity
  8
1
  6
CONTINUOUS
 62
             7
100
AcDbLine
 10
1400.5681466389069
 20
4276.9964963066841
 11
1400.8545894000031
 21
4280.2705520477566
  0
LINE
  5
96
100
AcDbEntity
  8
1
  6
CONTINUOUS
 62
             7
100
AcDbLine
 10
1401.112292759366
 20
4276.402665019602
 11
1400.5681466389069
 21
4276.9964963066841
  0
LINE
  5
95
100
AcDbEntity
  8
1
  6
CONTINUOUS
 62
             7
100
AcDbLine
 10
1401.7738098288571
 20
4277.0088337325224
 11
1401.112292759366
 21
4276.402665019602
  0
LINE
  5
94
100
AcDbEntity
  8
1
  6
CONTINUOUS
 62
             7
100
AcDbLine
 10
1402.0290515735001
 20
4279.9262602236367
 11
1401.7738098288571
 21
4277.0088337325224
  0
LINE
  5
93
100
AcDbEntity
  8
1
  6
CONTINUOUS
 62
             7
100
AcDbLine
 10
1401.156149209397
 20
4280.8788659941847
 11
1402.0290515735001
 21
4279.9262602236367
  0
LINE
  5
92
100
AcDbEntity
  8
1
  6
CONTINUOUS
 62
             7
100
AcDbLine
 10
1402.1765070408619
 20
4280.061378265159
 11
1401.30360467676
 21
4281.0139840357087
  0
LINE
  5
91
100
AcDbEntity
  8
1
  6
CONTINUOUS
 62
             7
100
AcDbLine
 10
1404.0485125454579
 20
4280.061378265159
 11
1402.1765070408619
 21
4280.061378265159
  0
LINE
  5
90
100
AcDbEntity
  8
1
  6
CONTINUOUS
 62
             7
100
AcDbLine
 10
1404.1534989416889
 20
4281.2613782651597
 11
1404.0485125454579
 21
4280.061378265159
  0
LINE
  5
8F
100
AcDbEntity
  8
1
  6
CONTINUOUS
 62
             7
100
AcDbLine
 10
1402.1458592666061
 20
4281.2613782651597
 11
1404.1534989416889
 21
4281.2613782651597
  0
LINE
  5
8E
100
AcDbEntity
  8
1
  6
CONTINUOUS
 62
             7
100
AcDbLine
 10
1401.2474108008889
 20
4276.2552095522396
 11
1401.9089278703809
 21
4276.8613782651601
  0
LINE
  5
8D
100
AcDbEntity
  8
1
  6
CONTINUOUS
 62
             7
100
AcDbLine
 10
1401.7915569213469
 20
4275.6613782651593
 11
1401.2474108008889
 21
4276.2552095522396
  0
LINE
  5
8C
100
AcDbEntity
  8
1
  6
CONTINUOUS
 62
             7
100
AcDbLine
 10
1403.7163076701599
 20
4275.6613782651593
 11
1401.7915569213469
 21
4275.6613782651593
  0
LINE
  5
8B
100
AcDbEntity
  8
1
  6
CONTINUOUS
 62
             7
100
AcDbLine
 10
1404.3778247396519
 20
4276.2675469780797
 11
1403.7163076701599
 21
4275.6613782651593
  0
LINE
  5
8A
100
AcDbEntity
  8
1
  6
CONTINUOUS
 62
             7
100
AcDbLine
 10
1403.8336786191919
 20
4276.8613782651601
 11
1404.3778247396519
 21
4276.2675469780797
  0
LINE
  5
89
100
AcDbEntity
  8
1
  6
CONTINUOUS
 62
             7
100
AcDbLine
 10
1401.9089278703809
 20
4276.8613782651601
 11
1403.8336786191919
 21
4276.8613782651601
  0
LINE
  5
88
100
AcDbEntity
  8
1
  6
CONTINUOUS
 62
             7
100
AcDbLine
 10
1403.479775778871
 20
4271.2659446274511
 11
1403.8514257116819
 21
4275.513922797797
  0
LINE
  5
87
100
AcDbEntity
  8
1
  6
CONTINUOUS
 62
             7
100
AcDbLine
 10
1405.0570889016331
 20
4275.5262602236371
 11
1404.7797963078799
 21
4272.3567913738616
  0
LINE
  5
86
100
AcDbEntity
  8
1
  6
CONTINUOUS
 62
             7
100
AcDbLine
 10
1404.5129427811751
 20
4276.1200915107174
 11
1405.0570889016331
 21
4275.5262602236371
  0
LINE
  5
85
100
AcDbEntity
  8
1
  6
CONTINUOUS
 62
             7
100
AcDbLine
 10
1403.8514257116819
 20
4275.513922797797
 11
1404.5129427811751
 21
4276.1200915107174
  0
LINE
  5
84
100
AcDbEntity
  8
1
  6
CONTINUOUS
 62
             7
100
AcDbLine
 10
1404.5252802070131
 20
4276.402665019602
 11
1403.9811340865549
 21
4276.9964963066841
  0
LINE
  5
83
100
AcDbEntity
  8
1
  6
CONTINUOUS
 62
             7
100
AcDbLine
 10
1405.1867972765031
 20
4277.0088337325224
 11
1404.5252802070131
 21
4276.402665019602
  0
LINE
  5
82
100
AcDbEntity
  8
1
  6
CONTINUOUS
 62
             7
100
AcDbLine
 10
1405.4355599833341
 20
4279.852204482565
 11
1405.1867972765031
 21
4277.0088337325224
  0
LINE
  5
81
100
AcDbEntity
  8
1
  6
CONTINUOUS
 62
             7
100
AcDbLine
 10
1403.9811340865549
 20
4276.9964963066841
 11
1404.354262909196
 21
4281.2613782651597
  0
LINE
  5
80
100
AcDbEntity
  8
1
  6
CONTINUOUS
 62
             7
100
AcDbLine
 10
1398.4811340865549
 20
4276.9964963066841
 11
1398.854262909196
 21
4281.2613782651597
  0
LINE
  5
7F
100
AcDbEntity
  8
1
  6
CONTINUOUS
 62
             7
100
AcDbLine
 10
1399.9355599833341
 20
4279.852204482565
 11
1399.6867972765031
 21
4277.0088337325224
  0
LINE
  5
7E
100
AcDbEntity
  8
1
  6
CONTINUOUS
 62
             7
100
AcDbLine
 10
1399.6867972765031
 20
4277.0088337325224
 11
1399.0252802070131
 21
4276.402665019602
  0
LINE
  5
7D
100
AcDbEntity
  8
1
  6
CONTINUOUS
 62
             7
100
AcDbLine
 10
1399.0252802070131
 20
4276.402665019602
 11
1398.4811340865549
 21
4276.9964963066841
  0
LINE
  5
7C
100
AcDbEntity
  8
1
  6
CONTINUOUS
 62
             7
100
AcDbLine
 10
1398.3514257116819
 20
4275.513922797797
 11
1399.0129427811751
 21
4276.1200915107174
  0
LINE
  5
7B
100
AcDbEntity
  8
1
  6
CONTINUOUS
 62
             7
100
AcDbLine
 10
1399.0129427811751
 20
4276.1200915107174
 11
1399.5570889016331
 21
4275.5262602236371
  0
LINE
  5
7A
100
AcDbEntity
  8
1
  6
CONTINUOUS
 62
             7
100
AcDbLine
 10
1399.5570889016331
 20
4275.5262602236371
 11
1399.2797963078799
 21
4272.3567913738616
  0
LINE
  5
79
100
AcDbEntity
  8
1
  6
CONTINUOUS
 62
             7
100
AcDbLine
 10
1397.979775778871
 20
4271.2659446274511
 11
1398.3514257116819
 21
4275.513922797797
  0
LINE
  5
78
100
AcDbEntity
  8
1
  6
CONTINUOUS
 62
             7
100
AcDbLine
 10
1396.4089278703809
 20
4276.8613782651601
 11
1398.3336786191919
 21
4276.8613782651601
  0
LINE
  5
77
100
AcDbEntity
  8
1
  6
CONTINUOUS
 62
             7
100
AcDbLine
 10
1398.3336786191919
 20
4276.8613782651601
 11
1398.8778247396519
 21
4276.2675469780797
  0
LINE
  5
76
100
AcDbEntity
  8
1
  6
CONTINUOUS
 62
             7
100
AcDbLine
 10
1398.8778247396519
 20
4276.2675469780797
 11
1398.2163076701599
 21
4275.6613782651593
  0
LINE
  5
75
100
AcDbEntity
  8
1
  6
CONTINUOUS
 62
             7
100
AcDbLine
 10
1398.2163076701599
 20
4275.6613782651593
 11
1396.2915569213469
 21
4275.6613782651593
  0
LINE
  5
74
100
AcDbEntity
  8
1
  6
CONTINUOUS
 62
             7
100
AcDbLine
 10
1396.2915569213469
 20
4275.6613782651593
 11
1395.7474108008889
 21
4276.2552095522396
  0
LINE
  5
73
100
AcDbEntity
  8
1
  6
CONTINUOUS
 62
             7
100
AcDbLine
 10
1395.7474108008889
 20
4276.2552095522396
 11
1396.4089278703809
 21
4276.8613782651601
  0
LINE
  5
72
100
AcDbEntity
  8
1
  6
CONTINUOUS
 62
             7
100
AcDbLine
 10
1396.6458592666061
 20
4281.2613782651597
 11
1398.6534989416889
 21
4281.2613782651597
  0
LINE
  5
71
100
AcDbEntity
  8
1
  6
CONTINUOUS
 62
             7
100
AcDbLine
 10
1398.6534989416889
 20
4281.2613782651597
 11
1398.5485125454579
 21
4280.061378265159
  0
LINE
  5
70
100
AcDbEntity
  8
1
  6
CONTINUOUS
 62
             7
100
AcDbLine
 10
1398.5485125454579
 20
4280.061378265159
 11
1396.6765070408619
 21
4280.061378265159
  0
LINE
  5
6F
100
AcDbEntity
  8
1
  6
CONTINUOUS
 62
             7
100
AcDbLine
 10
1396.6765070408619
 20
4280.061378265159
 11
1395.80360467676
 21
4281.0139840357087
  0
LINE
  5
6E
100
AcDbEntity
  8
1
  6
CONTINUOUS
 62
             7
100
AcDbLine
 10
1395.656149209397
 20
4280.8788659941847
 11
1396.5290515735001
 21
4279.9262602236367
  0
LINE
  5
6D
100
AcDbEntity
  8
1
  6
CONTINUOUS
 62
             7
100
AcDbLine
 10
1396.5290515735001
 20
4279.9262602236367
 11
1396.2738098288571
 21
4277.0088337325224
  0
LINE
  5
6C
100
AcDbEntity
  8
1
  6
CONTINUOUS
 62
             7
100
AcDbLine
 10
1396.2738098288571
 20
4277.0088337325224
 11
1395.612292759366
 21
4276.402665019602
  0
LINE
  5
6B
100
AcDbEntity
  8
1
  6
CONTINUOUS
 62
             7
100
AcDbLine
 10
1395.612292759366
 20
4276.402665019602
 11
1395.0681466389069
 21
4276.9964963066841
  0
LINE
  5
6A
100
AcDbEntity
  8
1
  6
CONTINUOUS
 62
             7
100
AcDbLine
 10
1395.0681466389069
 20
4276.9964963066841
 11
1395.3545894000031
 21
4280.2705520477566
  0
LINE
  5
69
100
AcDbEntity
  8
1
  6
CONTINUOUS
 62
             7
100
AcDbLine
 10
1394.938438264036
 20
4275.513922797797
 11
1395.5999553335259
 21
4276.1200915107174
  0
LINE
  5
68
100
AcDbEntity
  8
1
  6
CONTINUOUS
 62
             7
100
AcDbLine
 10
1395.5999553335259
 20
4276.1200915107174
 11
1396.1441014539851
 21
4275.5262602236371
  0
LINE
  5
67
100
AcDbEntity
  8
1
  6
CONTINUOUS
 62
             7
100
AcDbLine
 10
1396.1441014539851
 20
4275.5262602236371
 11
1395.888859709343
 21
4272.6088337325227
  0
LINE
  5
66
100
AcDbEntity
  8
1
  6
CONTINUOUS
 62
             7
100
AcDbLine
 10
1395.888859709343
 20
4272.6088337325227
 11
1394.9233532570249
 21
4271.7241100715501
  0
LINE
  5
65
100
AcDbEntity
  8
1
  6
CONTINUOUS
 62
             7
100
AcDbLine
 10
1394.689675557205
 20
4272.6705520477544
 11
1394.938438264036
 21
4275.513922797797
  0
LINE
  5
64
100
AcDbEntity
  8
1
  6
CONTINUOUS
 62
             7
100
AcDbLine
 10
1395.0584712985481
 20
4271.5766546041859
 11
1396.023977750865
 21
4272.4613782651604
  0
LINE
  5
63
100
AcDbEntity
  8
1
  6
CONTINUOUS
 62
             7
100
AcDbLine
 10
1396.023977750865
 20
4272.4613782651604
 11
1397.8835987026609
 21
4272.4613782651604
  0
LINE
  5
62
100
AcDbEntity
  8
1
  6
CONTINUOUS
 62
             7
100
AcDbLine
 10
1397.8835987026609
 20
4272.4613782651604
 11
1397.77861230643
 21
4271.2613782651597
  0
LINE
  5
61
100
AcDbEntity
  8
1
  6
CONTINUOUS
 62
             7
100
AcDbLine
 10
1397.77861230643
 20
4271.2613782651597
 11
1395.770972631339
 21
4271.2613782651597
  0
LINE
  5
60
100
AcDbEntity
  8
1
  6
CONTINUOUS
 62
             7
100
AcDbLine
 10
1391.56261777027
 20
4230.4613782651586
 11
1388.56261777027
 21
4224.4613782651586
  0
LINE
  5
5F
100
AcDbEntity
  8
1
  6
CONTINUOUS
 62
             7
100
AcDbLine
 10
1388.56261777027
 20
4224.4613782651586
 11
1385.56261777027
 21
4230.4613782651586
  0
LINE
  5
5E
100
AcDbEntity
  8
1
  6
CONTINUOUS
 62
             7
100
AcDbLine
 10
1391.56261777027
 20
4230.4613782651586
 11
1390.444583781519
 21
4230.4613782651586
  0
LINE
  5
5D
100
AcDbEntity
  8
1
  6
CONTINUOUS
 62
             7
100
AcDbLine
 10
1390.444583781519
 20
4230.4613782651586
 11
1388.56261777027
 21
4226.6974462426579
  0
LINE
  5
5C
100
AcDbEntity
  8
1
  6
CONTINUOUS
 62
             7
100
AcDbLine
 10
1388.56261777027
 20
4226.6974462426579
 11
1386.6806517590201
 21
4230.4613782651586
  0
LINE
  5
5B
100
AcDbEntity
  8
1
  6
CONTINUOUS
 62
             7
100
AcDbLine
 10
1386.6806517590201
 20
4230.4613782651586
 11
1385.56261777027
 21
4230.4613782651586
  0
LINE
  5
5A
100
AcDbEntity
  8
1
  6
CONTINUOUS
 62
             7
100
AcDbLine
 10
1390.444583781519
 20
4234.7613782651597
 11
1391.56261777027
 21
4234.7613782651597
  0
LINE
  5
59
100
AcDbEntity
  8
1
  6
CONTINUOUS
 62
             7
100
AcDbLine
 10
1388.56261777027
 20
4238.5253102876604
 11
1390.444583781519
 21
4234.7613782651597
  0
LINE
  5
58
100
AcDbEntity
  8
1
  6
CONTINUOUS
 62
             7
100
AcDbLine
 10
1386.6806517590201
 20
4234.7613782651597
 11
1388.56261777027
 21
4238.5253102876604
  0
LINE
  5
57
100
AcDbEntity
  8
1
  6
CONTINUOUS
 62
             7
100
AcDbLine
 10
1385.56261777027
 20
4234.7613782651597
 11
1386.6806517590201
 21
4234.7613782651597
  0
LINE
  5
56
100
AcDbEntity
  8
1
  6
CONTINUOUS
 62
             7
100
AcDbLine
 10
1388.56261777027
 20
4240.7613782651597
 11
1391.56261777027
 21
4234.7613782651597
  0
LINE
  5
55
100
AcDbEntity
  8
1
  6
CONTINUOUS
 62
             7
100
AcDbLine
 10
1385.56261777027
 20
4234.7613782651597
 11
1388.56261777027
 21
4240.7613782651597
  0
LINE
  5
54
100
AcDbEntity
  8
1
  6
CONTINUOUS
 62
             7
100
AcDbLine
 10
1402.162617770269
 20
4286.561378265159
 11
1404.9626177702701
 21
4286.561378265159
  0
LINE
  5
53
100
AcDbEntity
  8
1
  6
CONTINUOUS
 62
             7
100
AcDbLine
 10
1405.26261777027
 20
4286.8613782651582
 11
1405.26261777027
 21
4287.6613782651611
  0
LINE
  5
52
100
AcDbEntity
  8
1
  6
CONTINUOUS
 62
             7
100
AcDbLine
 10
1404.9626177702701
 20
4287.9613782651604
 11
1402.162617770269
 21
4287.9613782651604
  0
LINE
  5
51
100
AcDbEntity
  8
1
  6
CONTINUOUS
 62
             7
100
AcDbLine
 10
1401.8626177702699
 20
4287.6613782651611
 11
1401.8626177702699
 21
4286.8613782651582
  0
LINE
  5
50
100
AcDbEntity
  8
1
  6
CONTINUOUS
 62
             7
100
AcDbLine
 10
1396.162617770269
 20
4286.561378265159
 11
1398.9626177702701
 21
4286.561378265159
  0
LINE
  5
4F
100
AcDbEntity
  8
1
  6
CONTINUOUS
 62
             7
100
AcDbLine
 10
1399.26261777027
 20
4286.8613782651582
 11
1399.26261777027
 21
4287.6613782651611
  0
LINE
  5
4E
100
AcDbEntity
  8
1
  6
CONTINUOUS
 62
             7
100
AcDbLine
 10
1398.9626177702701
 20
4287.9613782651604
 11
1396.162617770269
 21
4287.9613782651604
  0
LINE
  5
4D
100
AcDbEntity
  8
1
  6
CONTINUOUS
 62
             7
100
AcDbLine
 10
1395.8626177702699
 20
4287.6613782651611
 11
1395.8626177702699
 21
4286.8613782651582
  0
LINE
  5
4C
100
AcDbEntity
  8
1
  6
CONTINUOUS
 62
             7
100
AcDbLine
 10
1383.8626177702699
 20
4287.6613782651611
 11
1383.8626177702699
 21
4286.8613782651582
  0
LINE
  5
4B
100
AcDbEntity
  8
1
  6
CONTINUOUS
 62
             7
100
AcDbLine
 10
1386.9626177702701
 20
4287.9613782651604
 11
1384.162617770269
 21
4287.9613782651604
  0
LINE
  5
4A
100
AcDbEntity
  8
1
  6
CONTINUOUS
 62
             7
100
AcDbLine
 10
1387.26261777027
 20
4286.8613782651582
 11
1387.26261777027
 21
4287.6613782651611
  0
LINE
  5
49
100
AcDbEntity
  8
1
  6
CONTINUOUS
 62
             7
100
AcDbLine
 10
1384.162617770269
 20
4286.561378265159
 11
1386.9626177702701
 21
4286.561378265159
  0
LINE
  5
48
100
AcDbEntity
  8
1
  6
CONTINUOUS
 62
             7
100
AcDbLine
 10
1383.06261777027
 20
4281.7613782651597
 11
1383.06261777027
 21
4270.2613782651597
  0
LINE
  5
47
100
AcDbEntity
  8
1
  6
CONTINUOUS
 62
             7
100
AcDbLine
 10
1405.56261777027
 20
4282.2613782651597
 11
1383.56261777027
 21
4282.2613782651597
  0
LINE
  5
46
100
AcDbEntity
  8
1
  6
CONTINUOUS
 62
             7
100
AcDbLine
 10
1406.06261777027
 20
4270.2613782651597
 11
1406.06261777027
 21
4281.7613782651597
  0
LINE
  5
45
100
AcDbEntity
  8
1
  6
CONTINUOUS
 62
             7
100
AcDbLine
 10
1383.56261777027
 20
4269.7613782651597
 11
1405.56261777027
 21
4269.7613782651597
  0
LINE
  5
44
100
AcDbEntity
  8
1
  6
CONTINUOUS
 62
             7
100
AcDbLine
 10
1383.06261777027
 20
4265.7613782651597
 11
1383.06261777027
 21
4254.2613782651597
  0
LINE
  5
43
100
AcDbEntity
  8
1
  6
CONTINUOUS
 62
             7
100
AcDbLine
 10
1405.56261777027
 20
4266.2613782651597
 11
1383.56261777027
 21
4266.2613782651597
  0
LINE
  5
42
100
AcDbEntity
  8
1
  6
CONTINUOUS
 62
             7
100
AcDbLine
 10
1406.06261777027
 20
4254.2613782651597
 11
1406.06261777027
 21
4265.7613782651597
  0
LINE
  5
41
100
AcDbEntity
  8
1
  6
CONTINUOUS
 62
             7
100
AcDbLine
 10
1383.56261777027
 20
4253.7613782651597
 11
1405.56261777027
 21
4253.7613782651597
  0
LINE
  5
40
100
AcDbEntity
  8
1
  6
CONTINUOUS
 62
             7
100
AcDbLine
 10
1399.56261777027
 20
4235.2613782651597
 11
1400.06261777027
 21
4235.7613782651597
  0
LINE
  5
3F
100
AcDbEntity
  8
1
  6
CONTINUOUS
 62
             7
100
AcDbLine
 10
1400.06261777027
 20
4235.7613782651597
 11
1399.56261777027
 21
4235.7613782651597
  0
LINE
  5
3E
100
AcDbEntity
  8
1
  6
CONTINUOUS
 62
             7
100
AcDbLine
 10
1399.56261777027
 20
4239.7613782651597
 11
1401.56261777027
 21
4239.7613782651597
  0
LINE
  5
3D
100
AcDbEntity
  8
1
  6
CONTINUOUS
 62
             7
100
AcDbLine
 10
1401.56261777027
 20
4235.7613782651597
 11
1401.56261777027
 21
4236.2613782651597
  0
LINE
  5
3C
100
AcDbEntity
  8
1
  6
CONTINUOUS
 62
             7
100
AcDbLine
 10
1401.56261777027
 20
4236.2613782651597
 11
1400.56261777027
 21
4235.2613782651597
  0
LINE
  5
3B
100
AcDbEntity
  8
1
  6
CONTINUOUS
 62
             7
100
AcDbLine
 10
1400.56261777027
 20
4235.2613782651597
 11
1402.06261777027
 21
4235.2613782651597
  0
LINE
  5
3A
100
AcDbEntity
  8
1
  6
CONTINUOUS
 62
             7
100
AcDbLine
 10
1402.06261777027
 20
4240.2613782651597
 11
1399.06261777027
 21
4240.2613782651597
  0
LINE
  5
39
100
AcDbEntity
  8
1
  6
CONTINUOUS
 62
             7
100
AcDbLine
 10
1399.06261777027
 20
4235.2613782651597
 11
1399.56261777027
 21
4235.2613782651597
  0
LINE
  5
38
100
AcDbEntity
  8
1
  6
CONTINUOUS
 62
             7
100
AcDbLine
 10
1407.912617770269
 20
4243.061378265159
 11
1395.8658431431111
 21
4243.061378265159
  0
LINE
  5
37
100
AcDbEntity
  8
1
  6
CONTINUOUS
 62
             7
100
AcDbLine
 10
1394.899917316822
 20
4243.8025592200574
 11
1394.225318223718
 21
4246.3201973102614
  0
LINE
  5
36
100
AcDbEntity
  8
1
  6
CONTINUOUS
 62
             7
100
AcDbLine
 10
1393.2593923974291
 20
4247.061378265159
 11
1381.2126177702701
 21
4247.061378265159
  0
LINE
  5
35
100
AcDbEntity
  8
1
  6
CONTINUOUS
 62
             7
100
AcDbLine
 10
1381.2126177702701
 20
4249.061378265159
 11
1407.912617770269
 21
4249.061378265159
  0
LINE
  5
34
100
AcDbEntity
  8
1
  6
CONTINUOUS
 62
             7
100
AcDbLine
 10
1407.912617770269
 20
4241.7613782651597
 11
1407.912617770269
 21
4293.561378265159
  0
LINE
  5
33
100
AcDbEntity
  8
1
  6
CONTINUOUS
 62
             7
100
AcDbLine
 10
1407.912617770269
 20
4211.9613782651604
 11
1407.912617770269
 21
4241.7613782651597
  0
LINE
  5
32
100
AcDbEntity
  8
1
  6
CONTINUOUS
 62
             7
100
AcDbLine
 10
1381.2126177702701
 20
4211.9613782651604
 11
1407.912617770269
 21
4211.9613782651604
  0
LINE
  5
31
100
AcDbEntity
  8
1
  6
CONTINUOUS
 62
             7
100
AcDbLine
 10
1381.2126177702701
 20
4241.7613782651597
 11
1381.2126177702701
 21
4233.7613782651597
  0
LINE
  5
30
100
AcDbEntity
  8
1
  6
CONTINUOUS
 62
             7
100
AcDbLine
 10
1381.2126177702701
 20
4293.561378265159
 11
1381.2126177702701
 21
4241.7613782651597
  0
LINE
  5
2F
100
AcDbEntity
  8
1
  6
CONTINUOUS
 62
             7
100
AcDbLine
 10
1381.2126177702701
 20
4233.7613782651597
 11
1381.2126177702701
 21
4231.4613782651586
  0
LINE
  5
2E
100
AcDbEntity
  8
1
  6
CONTINUOUS
 62
             7
100
AcDbLine
 10
1381.2126177702701
 20
4231.4613782651586
 11
1381.2126177702701
 21
4223.4613782651586
  0
LINE
  5
2D
100
AcDbEntity
  8
1
  6
CONTINUOUS
 62
             7
100
AcDbLine
 10
1381.2126177702701
 20
4223.4613782651586
 11
1381.2126177702701
 21
4211.9613782651604
  0
LINE
  5
2C
100
AcDbEntity
  8
1
  6
CONTINUOUS
 62
             7
100
AcDbLine
 10
1407.912617770269
 20
4293.561378265159
 11
1381.2126177702701
 21
4293.561378265159
  0
LINE
  5
2B
100
AcDbEntity
  8
1
  6
CONTINUOUS
 62
             7
100
AcDbLine
 10
1408.06261777027
 20
4293.7613782651597
 11
1408.06261777027
 21
4211.7613782651597
  0
LINE
  5
2A
100
AcDbEntity
  8
1
  6
CONTINUOUS
 62
             7
100
AcDbLine
 10
1381.06261777027
 20
4211.7613782651597
 11
1381.06261777027
 21
4293.7613782651597
  0
LINE
  5
29
100
AcDbEntity
  8
1
  6
CONTINUOUS
 62
             7
100
AcDbLine
 10
1408.06261777027
 20
4211.7613782651597
 11
1381.06261777027
 21
4211.7613782651597
  0
LINE
  5
28
100
AcDbEntity
  8
1
  6
CONTINUOUS
 62
             7
100
AcDbLine
 10
1381.06261777027
 20
4293.7613782651597
 11
1408.06261777027
 21
4293.7613782651597
  0
ENDSEC
  0
SECTION
  2
OBJECTS
  0
DICTIONARY
  5
19
100
AcDbDictionary
  3
ACAD_GROUP
350
1A
  3
ACAD_MLINESTYLE
350
1B
  0
DICTIONARY
  5
1A
102
{ACAD_REACTORS
330
19
102
}
100
AcDbDictionary
  0
DICTIONARY
  5
1B
102
{ACAD_REACTORS
330
19
102
}
100
AcDbDictionary
  3
STANDARD
350
1C
  0
MLINESTYLE
  5
1C
102
{ACAD_REACTORS
330
1B
102
}
100
AcDbMlineStyle
  2
STANDARD
 70
             0
  3

 62
             0
 51
90.0
 52
90.0
 71
             2
 49
0.5
 62
           256
  6
BYLAYER
 49
-0.5
 62
           256
  6
BYLAYER
  0
ENDSEC
  0
EOF
