  0
SECTION
  2
HEADER
  9
$ACADVER
  1
AC1014
  9
$ACADMAINTVER
 70
             0
  9
$DWGCODEPAGE
  3
ANSI_1252
  9
$INSBASE
 10
0.0
 20
0.0
 30
0.0
  9
$EXTMIN
 10
1.00000000000000E+20
 20
1.00000000000000E+20
 30
1.00000000000000E+20
  9
$EXTMAX
 10
-1.00000000000000E+20
 20
-1.00000000000000E+20
 30
-1.00000000000000E+20
  9
$LIMMIN
 10
0.0
 20
0.0
  9
$LIMMAX
 10
0.0
 20
0.0
  9
$ORTHOMODE
 70
             0
  9
$REGENMODE
 70
             1
  9
$FILLMODE
 70
             1
  9
$QTEXTMODE
 70
             0
  9
$MIRRTEXT
 70
             1
  9
$DRAGMODE
 70
             2
  9
$LTSCALE
 40
1.0
  9
$OSMODE
 70
             0
  9
$ATTMODE
 70
             1
  9
$TEXTSIZE
 40
0.2
  9
$TRACEWID
 40
0.05
  9
$TEXTSTYLE
  7
STANDARD
  9
$CLAYER
  8
0
  9
$CELTYPE
  6
CONTINUOUS
  9
$CECOLOR
 62
           256
  9
$CELTSCALE
 40
1.0
  9
$DELOBJ
 70
             1
  9
$DISPSILH
 70
             0
  9
$DIMSCALE
 40
1.0
  9
$DIMASZ
 40
0.18
  9
$DIMEXO
 40
0.0625
  9
$DIMDLI
 40
0.38
  9
$DIMRND
 40
0.0
  9
$DIMDLE
 40
0.0
  9
$DIMEXE
 40
0.18
  9
$DIMTP
 40
0.0
  9
$DIMTM
 40
0.0
  9
$DIMTXT
 40
0.18
  9
$DIMCEN
 40
0.09
  9
$DIMTSZ
 40
0.0
  9
$DIMTOL
 70
             0
  9
$DIMLIM
 70
             0
  9
$DIMTIH
 70
             1
  9
$DIMTOH
 70
             1
  9
$DIMSE1
 70
             0
  9
$DIMSE2
 70
             0
  9
$DIMTAD
 70
             0
  9
$DIMZIN
 70
             0
  9
$DIMBLK
  1

  9
$DIMASO
 70
             1
  9
$DIMSHO
 70
             1
  9
$DIMPOST
  1

  9
$DIMAPOST
  1

  9
$DIMALT
 70
             0
  9
$DIMALTD
 70
             2
  9
$DIMALTF
 40
25.4
  9
$DIMLFAC
 40
1.0
  9
$DIMTOFL
 70
             0
  9
$DIMTVP
 40
0.0
  9
$DIMTIX
 70
             0
  9
$DIMSOXD
 70
             0
  9
$DIMSAH
 70
             0
  9
$DIMBLK1
  1

  9
$DIMBLK2
  1

  9
$DIMSTYLE
  2
STANDARD
  9
$DIMCLRD
 70
             0
  9
$DIMCLRE
 70
             0
  9
$DIMCLRT
 70
             0
  9
$DIMTFAC
 40
1.0
  9
$DIMGAP
 40
0.09
  9
$DIMJUST
 70
             0
  9
$DIMSD1
 70
             0
  9
$DIMSD2
 70
             0
  9
$DIMTOLJ
 70
             1
  9
$DIMTZIN
 70
             0
  9
$DIMALTZ
 70
             0
  9
$DIMALTTZ
 70
             0
  9
$DIMFIT
 70
             3
  9
$DIMUPT
 70
             0
  9
$DIMUNIT
 70
             2
  9
$DIMDEC
 70
             4
  9
$DIMTDEC
 70
             4
  9
$DIMALTU
 70
             2
  9
$DIMALTTD
 70
             2
  9
$DIMTXSTY
  7
STANDARD
  9
$DIMAUNIT
 70
             0
  9
$LUNITS
 70
             2
  9
$LUPREC
 70
             4
  9
$SKETCHINC
 40
0.1
  9
$FILLETRAD
 40
0.0
  9
$AUNITS
 70
             0
  9
$AUPREC
 70
             0
  9
$MENU
  1
acad
  9
$ELEVATION
 40
0.0
  9
$PELEVATION
 40
0.0
  9
$THICKNESS
 40
0.0
  9
$LIMCHECK
 70
             0
  9
$BLIPMODE
 70
             1
  9
$CHAMFERA
 40
0.0
  9
$CHAMFERB
 40
0.0
  9
$CHAMFERC
 40
0.0
  9
$CHAMFERD
 40
0.0
  9
$SKPOLY
 70
             0
  9
$TDCREATE
 40
0.000000000
  9
$TDUPDATE
 40
0.000000000
  9
$TDINDWG
 40
0.0000000000
  9
$TDUSRTIMER
 40
0.0000000000
  9
$USRTIMER
 70
             1
  9
$ANGBASE
 50
0.0
  9
$ANGDIR
 70
             0
  9
$PDMODE
 70
             0
  9
$PDSIZE
 40
0.0
  9
$PLINEWID
 40
0.0
  9
$COORDS
 70
             0
  9
$SPLFRAME
 70
             0
  9
$SPLINETYPE
 70
             6
  9
$SPLINESEGS
 70
             8
  9
$ATTDIA
 70
             0
  9
$ATTREQ
 70
             1
  9
$HANDLING
 70
             1
  9
$HANDSEED
  5
37E
  9
$SURFTAB1
 70
             6
  9
$SURFTAB2
 70
             6
  9
$SURFTYPE
 70
             6
  9
$SURFU
 70
             6
  9
$SURFV
 70
             6
  9
$UCSNAME
  2

  9
$UCSORG
 10
0.0
 20
0.0
 30
0.0
  9
$UCSXDIR
 10
1.0
 20
0.0
 30
0.0
  9
$UCSYDIR
 10
0.0
 20
1.0
 30
0.0
  9
$PUCSNAME
  2

  9
$PUCSORG
 10
0.0
 20
0.0
 30
0.0
  9
$PUCSXDIR
 10
1.0
 20
0.0
 30
0.0
  9
$PUCSYDIR
 10
0.0
 20
1.0
 30
0.0
  9
$USERI1
 70
             0
  9
$USERI2
 70
             0
  9
$USERI3
 70
             0
  9
$USERI4
 70
             0
  9
$USERI5
 70
             0
  9
$USERR1
 40
11.6
  9
$USERR2
 40
0.0
  9
$USERR3
 40
0.0
  9
$USERR4
 40
0.0
  9
$USERR5
 40
0.0
  9
$WORLDVIEW
 70
             1
  9
$SHADEDGE
 70
             3
  9
$SHADEDIF
 70
            70
  9
$TILEMODE
 70
             1
  9
$MAXACTVP
 70
            16
  9
$PINSBASE
 10
0.0
 20
0.0
 30
0.0
  9
$PLIMCHECK
 70
             0
  9
$PEXTMIN
 10
1.00000000000000E+20
 20
1.00000000000000E+20
 30
1.00000000000000E+20
  9
$PEXTMAX
 10
-1.00000000000000E+20
 20
-1.00000000000000E+20
 30
-1.00000000000000E+20
  9
$PLIMMIN
 10
0.0
 20
0.0
  9
$PLIMMAX
 10
12.0
 20
9.0
  9
$UNITMODE
 70
             0
  9
$VISRETAIN
 70
             0
  9
$PLINEGEN
 70
             1
  9
$PSLTSCALE
 70
             0
  9
$TREEDEPTH
 70
          3020
  9
$PICKSTYLE
 70
             1
  9
$CMLSTYLE
  2
STANDARD
  9
$CMLJUST
 70
             0
  9
$CMLSCALE
 40
1.0
  9
$PROXYGRAPHICS
 70
             0
  9
$MEASUREMENT
 70
             1
  0
ENDSEC
  0
SECTION
  2
CLASSES
  0
CLASS
  1
LWPOLYLINE
  2
AcDbPolyline
  3
"AutoCAD"
 90
        0
280
             0
281
             1
  0
CLASS
  1
IMAGE
  2
AcDbRasterImage
  3
ISM
 90
      127
280
             0
281
             1
  0
CLASS
  1
OLE2FRAME
  2
AcDbOle2Frame
  3
""
 90
        0
280
             0
281
             1
  0
CLASS
  1
HATCH
  2
AcDbHatch
  3
"ACAD_SEDONA"
 90
        0
280
             0
281
             1
  0
CLASS
  1
DICTIONARYVAR
  2
AcDbDictionaryVar
  3
"AutoCAD"
 90
        0
280
             0
281
             0
  0
CLASS
  1
RASTERVARIABLES
  2
AcDbRasterVariables
  3
ISM
 90
        0
280
             0
281
             0
  0
CLASS
  1
IMAGEDEF
  2
AcDbRasterImageDef
  3
ISM
 90
        0
280
             0
281
             0
  0
CLASS
  1
IMAGEDEF_REACTOR
  2
AcDbRasterImageDefReactor
  3
ISM
 90
        1
280
             0
281
             0
  0
CLASS
  1
IDBUFFER
  2
AcDbIdBuffer
  3
"Acad"
 90
        0
280
             0
281
             0
  0
CLASS
  1
SPATIAL_FILTER
  2
AcDbSpatialFilter
  3
"Acad"
 90
        0
280
             0
281
             0
  0
CLASS
  1
XRECORD
  2
AcDbXrecord
  3
"<Built In>"
 90
        0
280
             0
281
             0
  0
CLASS
  1
SORTENTSTABLE
  2
AcDbSortentsTable
  3
"AutoCAD"
 90
        0
280
             0
281
             0
  0
CLASS
  1
LAYER_INDEX
  2
AcDbLayerIndex
  3
"Acad"
 90
        0
280
             0
281
             0
  0
CLASS
  1
SPATIAL_INDEX
  2
AcDbSpatialIndex
  3
"Acad"
 90
        0
280
             0
281
             0
  0
CLASS
  1
OBJECT_PTR
  2
CAseDLPNTableRecord
  3
"ASE-LPNTableRecord"
 90
        1
280
             0
281
             0
  0
CLASS
  1
LAYOUT
  2
AcDbLayout
  3
"AutoCAD 2000"
 90
        1
280
             0
281
             0
  0
CLASS
  1
PLOTSETTINGS
  2
AcDbPlotSettings
  3
"AutoCAD 2000"
 90
        1
280
             0
281
             0
  0
CLASS
  1
ACDBDICTIONARYWDFLT
  2
AcDbDictionaryWithDefault
  3
"AutoCAD 2000"
 90
        1
280
             0
281
             0
  0
CLASS
  1
ACDBPLACEHOLDER
  2
AcDbPlaceHolder
  3
"AutoCAD 2000"
 90
        1
280
             0
281
             0
  0
ENDSEC
  0
SECTION
  2
TABLES
  0
TABLE
  2
VPORT
  5
7
100
AcDbSymbolTable
 70
             1
  0
VPORT
  5
15
100
AcDbSymbolTableRecord
100
AcDbViewportTableRecord
  2
*ACTIVE
 70
             0
 10
0.0
 20
0.0
 11
1.0
 21
1.0
 12
-264.33739980659107
 22
51.12970204775399
 13
0.0
 23
0.0
 14
1.0
 24
1.0
 15
0.0
 25
0.0
 16
0.0
 26
0.0
 36
1.0
 17
0.0
 27
0.0
 37
0.0
 40
119.61097083171542
 41
1.60267857142857
 42
50.0
 43
0.0
 44
0.0
 50
0.0
 51
0.0
 71
             0
 72
           100
 73
             1
 74
             1
 75
             0
 76
             0
 77
             0
 78
             0
  0
ENDTAB
  0
TABLE
  2
LTYPE
  5
4
100
AcDbSymbolTable
 70
            10
  0
LTYPE
  5
11
100
AcDbSymbolTableRecord
100
AcDbLinetypeTableRecord
  2
BYBLOCK
 70
            64
  3

 72
            65
 73
             0
 40
0.0
  0
LTYPE
  5
12
100
AcDbSymbolTableRecord
100
AcDbLinetypeTableRecord
  2
BYLAYER
 70
            64
  3

 72
            65
 73
             0
 40
0.0
  0
LTYPE
  5
13
100
AcDbSymbolTableRecord
100
AcDbLinetypeTableRecord
  2
CONTINUOUS
 70
            64
  3
Solid line
 72
            65
 73
             0
 40
0.0
  0
LTYPE
  5
1D
100
AcDbSymbolTableRecord
100
AcDbLinetypeTableRecord
  2
DASHED
 70
            64
  3
Dashed
 72
            65
 73
             2
 40
15.0
 49
12.0
 74
             0
 49
-3.0
 74
             0
  0
LTYPE
  5
1E
100
AcDbSymbolTableRecord
100
AcDbLinetypeTableRecord
  2
DOTTED
 70
            64
  3
Dotted
 72
            65
 73
             2
 40
3.5
 49
0.5
 74
             0
 49
-3.0
 74
             0
  0
LTYPE
  5
1F
100
AcDbSymbolTableRecord
100
AcDbLinetypeTableRecord
  2
DOT_CENTER
 70
            64
  3
Dot_Center
 72
            65
 73
             4
 40
2.0
 49
1.25
 74
             0
 49
-0.25
 74
             0
 49
0.25
 74
             0
 49
-0.25
 74
             0
  0
LTYPE
  5
20
100
AcDbSymbolTableRecord
100
AcDbLinetypeTableRecord
  2
LONG_DASHED
 70
            64
  3
Long_Dashed
 72
            65
 73
             2
 40
2.0
 49
1.5
 74
             0
 49
-0.5
 74
             0
  0
LTYPE
  5
21
100
AcDbSymbolTableRecord
100
AcDbLinetypeTableRecord
  2
DASH_CENTER
 70
            64
  3
Dash_Center
 72
            65
 73
             4
 40
36.0
 49
24.0
 74
             0
 49
-3.0
 74
             0
 49
6.0
 74
             0
 49
-3.0
 74
             0
  0
LTYPE
  5
22
100
AcDbSymbolTableRecord
100
AcDbLinetypeTableRecord
  2
PHANTOM
 70
            64
  3
Phantom
 72
            65
 73
             6
 40
2.5
 49
1.25
 74
             0
 49
-0.25
 74
             0
 49
0.25
 74
             0
 49
-0.25
 74
             0
 49
0.25
 74
             0
 49
-0.25
 74
             0
  0
LTYPE
  5
23
100
AcDbSymbolTableRecord
100
AcDbLinetypeTableRecord
  2
CENTER_DASH_DASH
 70
            64
  3
Center_Dash_Dash
 72
            65
 73
             6
 40
22.0
 49
12.0
 74
             0
 49
-3.0
 74
             0
 49
0.5
 74
             0
 49
-3.0
 74
             0
 49
0.5
 74
             0
 49
-3.0
 74
             0
  0
ENDTAB
  0
TABLE
  2
LAYER
  5
2
100
AcDbSymbolTable
 70
             2
  0
LAYER
  5
14
100
AcDbSymbolTableRecord
100
AcDbLayerTableRecord
  2
0
 70
             0
 62
             7
  6
CONTINUOUS
  0
LAYER
  5
24
100
AcDbSymbolTableRecord
100
AcDbLayerTableRecord
  2
1
 70
             0
 62
             7
  6
CONTINUOUS
  0
ENDTAB
  0
TABLE
  2
STYLE
  5
3
100
AcDbSymbolTable
 70
             1
  0
STYLE
  5
17
100
AcDbSymbolTableRecord
100
AcDbTextStyleTableRecord
  2
STANDARD
 70
             0
 40
0.0
 41
1.0
 50
0.0
 71
             0
 42
0.0
  3
txt
  4

  0
ENDTAB
  0
TABLE
  2
VIEW
  5
5
100
AcDbSymbolTable
 70
             0
  0
ENDTAB
  0
TABLE
  2
UCS
  5
6
100
AcDbSymbolTable
 70
             0
  0
ENDTAB
  0
TABLE
  2
APPID
  5
8
100
AcDbSymbolTable
 70
             1
  0
APPID
  5
16
100
AcDbSymbolTableRecord
100
AcDbRegAppTableRecord
  2
ACAD
 70
             0
  0
ENDTAB
  0
TABLE
  2
DIMSTYLE
  5
9
100
AcDbSymbolTable
 70
             1
  0
DIMSTYLE
105
18
100
AcDbSymbolTableRecord
100
AcDbDimStyleTableRecord
  2
STANDARD
 70
             0
  3

  4

  5

  6

  7

 40
1.0
 41
0.18
 42
0.0625
 43
0.38
 44
0.18
 45
0.0
 46
0.0
 47
0.0
 48
0.0
 71
             0
 72
             0
 73
             1
 74
             1
 75
             0
 76
             0
 77
             0
 78
             0
140
0.18
141
0.09
142
0.0
143
25.4
144
1.0
145
0.0
146
1.0
147
0.09
170
             0
171
             2
172
             0
173
             0
174
             0
175
             0
176
             0
177
             0
178
             0
270
             2
271
             4
272
             4
273
             2
274
             2
275
             0
280
             0
281
             0
282
             0
283
             1
284
             0
285
             0
286
             0
287
             0
288
             0
340
17
  0
ENDTAB
  0
TABLE
  2
BLOCK_RECORD
  5
1
100
AcDbSymbolTable
 70
             0
  0
BLOCK_RECORD
  5
A
100
AcDbSymbolTableRecord
100
AcDbBlockTableRecord
  2
*MODEL_SPACE
  0
BLOCK_RECORD
  5
B
100
AcDbSymbolTableRecord
100
AcDbBlockTableRecord
  2
*PAPER_SPACE
  0
ENDTAB
  0
ENDSEC
  0
SECTION
  2
BLOCKS
  0
BLOCK
  5
D
100
AcDbEntity
  8
0
100
AcDbBlockBegin
  2
*MODEL_SPACE
 70
             0
 10
0.0
 20
0.0
 30
0.0
  3
*MODEL_SPACE
  1

  0
ENDBLK
  5
E
100
AcDbEntity
  8
0
100
AcDbBlockEnd
  0
BLOCK
  5
F
100
AcDbEntity
 67
             1
  8
0
100
AcDbBlockBegin
  2
*PAPER_SPACE
 70
             0
 10
0.0
 20
0.0
 30
0.0
  3
*PAPER_SPACE
  1

  0
ENDBLK
  5
10
100
AcDbEntity
 67
             1
  8
0
100
AcDbBlockEnd
  0
ENDSEC
  0
SECTION
  2
ENTITIES
  0
ARC
  5
37C
100
AcDbEntity
  8
1
  6
CONTINUOUS
 62
             7
100
AcDbCircle
 10
-339.97282701557202
 20
46.62970204775402
 40
0.5
100
AcDbArc
 50
0.0
 51
90.0
  0
ARC
  5
37B
100
AcDbEntity
  8
1
  6
CONTINUOUS
 62
             7
100
AcDbCircle
 10
-339.97282701557202
 20
45.62970204775402
 40
0.5
100
AcDbArc
 50
-90.0
 51
0.00000000000163
  0
ARC
  5
37A
100
AcDbEntity
  8
1
  6
CONTINUOUS
 62
             7
100
AcDbCircle
 10
-343.97282701557202
 20
45.62970204775402
 40
0.5
100
AcDbArc
 50
180.0
 51
-90.0
  0
ARC
  5
379
100
AcDbEntity
  8
1
  6
CONTINUOUS
 62
             7
100
AcDbCircle
 10
-343.97282701557202
 20
46.62970204775402
 40
0.5
100
AcDbArc
 50
90.0
 51
180.0
  0
ARC
  5
378
100
AcDbEntity
  8
1
  6
CONTINUOUS
 62
             7
100
AcDbCircle
 10
-332.47282701557202
 20
46.62970204775402
 40
0.5
100
AcDbArc
 50
0.0
 51
90.0
  0
ARC
  5
377
100
AcDbEntity
  8
1
  6
CONTINUOUS
 62
             7
100
AcDbCircle
 10
-332.47282701557202
 20
45.62970204775402
 40
0.5
100
AcDbArc
 50
-90.0
 51
0.0
  0
ARC
  5
376
100
AcDbEntity
  8
1
  6
CONTINUOUS
 62
             7
100
AcDbCircle
 10
-336.47282701557202
 20
45.62970204775402
 40
0.5
100
AcDbArc
 50
180.0
 51
-90.0
  0
ARC
  5
375
100
AcDbEntity
  8
1
  6
CONTINUOUS
 62
             7
100
AcDbCircle
 10
-336.47282701557202
 20
46.62970204775402
 40
0.5
100
AcDbArc
 50
90.0
 51
180.0
  0
ARC
  5
374
100
AcDbEntity
  8
1
  6
CONTINUOUS
 62
             7
100
AcDbCircle
 10
-310.47282701557202
 20
66.62970204775402
 40
0.5
100
AcDbArc
 50
0.0
 51
90.0
  0
ARC
  5
373
100
AcDbEntity
  8
1
  6
CONTINUOUS
 62
             7
100
AcDbCircle
 10
-310.47282701557202
 20
65.62970204775402
 40
0.5
100
AcDbArc
 50
-90.0
 51
0.0
  0
ARC
  5
372
100
AcDbEntity
  8
1
  6
CONTINUOUS
 62
             7
100
AcDbCircle
 10
-314.47282701557202
 20
65.62970204775402
 40
0.5
100
AcDbArc
 50
180.0
 51
-90.0
  0
ARC
  5
371
100
AcDbEntity
  8
1
  6
CONTINUOUS
 62
             7
100
AcDbCircle
 10
-314.47282701557202
 20
66.62970204775402
 40
0.5
100
AcDbArc
 50
90.0
 51
180.0
  0
ARC
  5
370
100
AcDbEntity
  8
1
  6
CONTINUOUS
 62
             7
100
AcDbCircle
 10
-310.47282701557202
 20
60.62970204775402
 40
0.5
100
AcDbArc
 50
0.0
 51
90.0
  0
ARC
  5
36F
100
AcDbEntity
  8
1
  6
CONTINUOUS
 62
             7
100
AcDbCircle
 10
-310.47282701557202
 20
59.62970204775402
 40
0.5
100
AcDbArc
 50
-90.0
 51
0.0
  0
ARC
  5
36E
100
AcDbEntity
  8
1
  6
CONTINUOUS
 62
             7
100
AcDbCircle
 10
-314.47282701557202
 20
59.62970204775402
 40
0.5
100
AcDbArc
 50
180.0
 51
-90.0
  0
ARC
  5
36D
100
AcDbEntity
  8
1
  6
CONTINUOUS
 62
             7
100
AcDbCircle
 10
-314.47282701557202
 20
60.62970204775402
 40
0.5
100
AcDbArc
 50
90.0
 51
180.0
  0
ARC
  5
36C
100
AcDbEntity
  8
1
  6
CONTINUOUS
 62
             7
100
AcDbCircle
 10
-310.47282701557202
 20
54.62970204775402
 40
0.5
100
AcDbArc
 50
0.0
 51
90.0
  0
ARC
  5
36B
100
AcDbEntity
  8
1
  6
CONTINUOUS
 62
             7
100
AcDbCircle
 10
-310.47282701557202
 20
53.62970204775402
 40
0.5
100
AcDbArc
 50
-90.0
 51
0.0
  0
ARC
  5
36A
100
AcDbEntity
  8
1
  6
CONTINUOUS
 62
             7
100
AcDbCircle
 10
-314.47282701557202
 20
53.62970204775402
 40
0.5
100
AcDbArc
 50
180.0
 51
-90.0
  0
ARC
  5
369
100
AcDbEntity
  8
1
  6
CONTINUOUS
 62
             7
100
AcDbCircle
 10
-314.47282701557202
 20
54.62970204775402
 40
0.5
100
AcDbArc
 50
90.0
 51
180.0
  0
ARC
  5
368
100
AcDbEntity
  8
1
  6
CONTINUOUS
 62
             7
100
AcDbCircle
 10
-310.47282701557202
 20
48.62970204775402
 40
0.5
100
AcDbArc
 50
0.0
 51
90.0
  0
ARC
  5
367
100
AcDbEntity
  8
1
  6
CONTINUOUS
 62
             7
100
AcDbCircle
 10
-310.47282701557202
 20
47.62970204775402
 40
0.5
100
AcDbArc
 50
-90.0
 51
0.0
  0
ARC
  5
366
100
AcDbEntity
  8
1
  6
CONTINUOUS
 62
             7
100
AcDbCircle
 10
-314.47282701557202
 20
47.62970204775402
 40
0.5
100
AcDbArc
 50
180.0
 51
-90.0
  0
ARC
  5
365
100
AcDbEntity
  8
1
  6
CONTINUOUS
 62
             7
100
AcDbCircle
 10
-314.47282701557202
 20
48.62970204775402
 40
0.5
100
AcDbArc
 50
90.0
 51
180.0
  0
ARC
  5
364
100
AcDbEntity
  8
1
  6
CONTINUOUS
 62
             7
100
AcDbCircle
 10
-317.47282701557202
 20
46.62970204775402
 40
0.5
100
AcDbArc
 50
0.0
 51
90.0
  0
ARC
  5
363
100
AcDbEntity
  8
1
  6
CONTINUOUS
 62
             7
100
AcDbCircle
 10
-317.47282701557202
 20
45.62970204775404
 40
0.50000000000001
100
AcDbArc
 50
-90.0
 51
-0.00000000000163
  0
ARC
  5
362
100
AcDbEntity
  8
1
  6
CONTINUOUS
 62
             7
100
AcDbCircle
 10
-321.47282701557202
 20
45.62970204775402
 40
0.5
100
AcDbArc
 50
180.0
 51
-90.0
  0
ARC
  5
361
100
AcDbEntity
  8
1
  6
CONTINUOUS
 62
             7
100
AcDbCircle
 10
-321.47282701557202
 20
46.62970204775402
 40
0.5
100
AcDbArc
 50
90.0
 51
180.0
  0
ARC
  5
360
100
AcDbEntity
  8
1
  6
CONTINUOUS
 62
             7
100
AcDbCircle
 10
-308.97282701557202
 20
45.62970204775404
 40
1.5
100
AcDbArc
 50
-90.0
 51
0.0
  0
ARC
  5
35F
100
AcDbEntity
  8
1
  6
CONTINUOUS
 62
             7
100
AcDbCircle
 10
-308.97282701557202
 20
41.62970204775404
 40
1.5
100
AcDbArc
 50
0.0
 51
90.0
  0
ARC
  5
35E
100
AcDbEntity
  8
1
  6
CONTINUOUS
 62
             7
100
AcDbCircle
 10
-308.97282701557202
 20
35.62970204775404
 40
1.5
100
AcDbArc
 50
-90.0
 51
0.0
  0
ARC
  5
35D
100
AcDbEntity
  8
1
  6
CONTINUOUS
 62
             7
100
AcDbCircle
 10
-345.97282701557202
 20
35.62970204775404
 40
1.5
100
AcDbArc
 50
180.0
 51
-90.0
  0
ARC
  5
35C
100
AcDbEntity
  8
1
  6
CONTINUOUS
 62
             7
100
AcDbCircle
 10
-345.97282701557202
 20
41.62970204775404
 40
1.5
100
AcDbArc
 50
90.0
 51
180.0
  0
ARC
  5
35B
100
AcDbEntity
  8
1
  6
CONTINUOUS
 62
             7
100
AcDbCircle
 10
-345.97282701557202
 20
45.62970204775402
 40
1.5
100
AcDbArc
 50
179.99999999999946
 51
-90.0
  0
ARC
  5
35A
100
AcDbEntity
  8
1
  6
CONTINUOUS
 62
             7
100
AcDbCircle
 10
-308.97282701557202
 20
69.12970204775402
 40
1.5
100
AcDbArc
 50
0.0
 51
90.0
  0
ARC
  5
359
100
AcDbEntity
  8
1
  6
CONTINUOUS
 62
             7
100
AcDbCircle
 10
-345.97282701557202
 20
69.12970204775402
 40
1.5
100
AcDbArc
 50
90.0
 51
180.0
  0
ARC
  5
358
100
AcDbEntity
  8
1
  6
CONTINUOUS
 62
             7
100
AcDbCircle
 10
-344.97282701557202
 20
41.12970204775404
 40
1.0
100
AcDbArc
 50
90.0
 51
180.0
  0
ARC
  5
357
100
AcDbEntity
  8
1
  6
CONTINUOUS
 62
             7
100
AcDbCircle
 10
-344.97282701557202
 20
36.12970204775404
 40
1.0
100
AcDbArc
 50
180.0
 51
-90.0
  0
ARC
  5
356
100
AcDbEntity
  8
1
  6
CONTINUOUS
 62
             7
100
AcDbCircle
 10
-309.97282701557202
 20
36.12970204775404
 40
1.0
100
AcDbArc
 50
-90.0
 51
0.0
  0
ARC
  5
355
100
AcDbEntity
  8
1
  6
CONTINUOUS
 62
             7
100
AcDbCircle
 10
-309.97282701557202
 20
41.12970204775404
 40
1.0
100
AcDbArc
 50
0.0
 51
90.0
  0
ARC
  5
354
100
AcDbEntity
  8
1
  6
CONTINUOUS
 62
             7
100
AcDbCircle
 10
-328.97282701557202
 20
46.62970204775402
 40
0.5
100
AcDbArc
 50
90.0
 51
180.0
  0
ARC
  5
353
100
AcDbEntity
  8
1
  6
CONTINUOUS
 62
             7
100
AcDbCircle
 10
-328.97282701557202
 20
45.62970204775402
 40
0.5
100
AcDbArc
 50
179.99999999999838
 51
-90.0
  0
ARC
  5
352
100
AcDbEntity
  8
1
  6
CONTINUOUS
 62
             7
100
AcDbCircle
 10
-324.97282701557202
 20
45.62970204775402
 40
0.5
100
AcDbArc
 50
-90.0
 51
0.0
  0
ARC
  5
351
100
AcDbEntity
  8
1
  6
CONTINUOUS
 62
             7
100
AcDbCircle
 10
-324.97282701557202
 20
46.62970204775402
 40
0.5
100
AcDbArc
 50
0.0
 51
90.0
  0
ARC
  5
350
100
AcDbEntity
  8
0
  6
CONTINUOUS
 62
             7
100
AcDbCircle
 10
-182.64983026277079
 20
35.61830214138712
 40
0.2
100
AcDbArc
 50
-69.44395478041201
 51
0.0
  0
ARC
  5
34F
100
AcDbEntity
  8
0
  6
CONTINUOUS
 62
             7
100
AcDbCircle
 10
-182.64983026277079
 20
33.84110195412126
 40
0.19999999999999
100
AcDbArc
 50
0.0
 51
69.44395478041274
  0
ARC
  5
34E
100
AcDbEntity
  8
0
  6
CONTINUOUS
 62
             7
100
AcDbCircle
 10
-181.64983026277079
 20
35.61830214138712
 40
0.2
100
AcDbArc
 50
-69.44395478041201
 51
0.0
  0
ARC
  5
34D
100
AcDbEntity
  8
0
  6
CONTINUOUS
 62
             7
100
AcDbCircle
 10
-181.64983026277079
 20
33.84110195412126
 40
0.19999999999999
100
AcDbArc
 50
0.0
 51
69.44395478041274
  0
ARC
  5
34C
100
AcDbEntity
  8
0
  6
CONTINUOUS
 62
             7
100
AcDbCircle
 10
-181.64983026277079
 20
42.04110195412123
 40
0.19999999999999
100
AcDbArc
 50
0.0
 51
69.44395478041201
  0
ARC
  5
34B
100
AcDbEntity
  8
0
  6
CONTINUOUS
 62
             7
100
AcDbCircle
 10
-181.64983026277079
 20
43.81830214138709
 40
0.20000000000001
100
AcDbArc
 50
-69.44395478041274
 51
0.0
  0
ARC
  5
34A
100
AcDbEntity
  8
0
  6
CONTINUOUS
 62
             7
100
AcDbCircle
 10
-182.64983026277079
 20
42.04110195412123
 40
0.19999999999999
100
AcDbArc
 50
0.0
 51
69.44395478041201
  0
ARC
  5
349
100
AcDbEntity
  8
0
  6
CONTINUOUS
 62
             7
100
AcDbCircle
 10
-182.64983026277079
 20
43.81830214138709
 40
0.20000000000001
100
AcDbArc
 50
-69.44395478041274
 51
0.0
  0
ARC
  5
348
100
AcDbEntity
  8
0
  6
CONTINUOUS
 62
             7
100
AcDbCircle
 10
-181.64983026277079
 20
50.24110195412091
 40
0.19999999999999
100
AcDbArc
 50
0.0
 51
69.44395478041345
  0
ARC
  5
347
100
AcDbEntity
  8
0
  6
CONTINUOUS
 62
             7
100
AcDbCircle
 10
-181.64983026277079
 20
52.01830214138678
 40
0.20000000000002
100
AcDbArc
 50
-69.44395478041345
 51
0.0
  0
ARC
  5
346
100
AcDbEntity
  8
0
  6
CONTINUOUS
 62
             7
100
AcDbCircle
 10
-182.64983026277079
 20
50.24110195412091
 40
0.19999999999999
100
AcDbArc
 50
0.0
 51
69.44395478041345
  0
ARC
  5
345
100
AcDbEntity
  8
0
  6
CONTINUOUS
 62
             7
100
AcDbCircle
 10
-182.64983026277079
 20
52.01830214138678
 40
0.20000000000002
100
AcDbArc
 50
-69.44395478041345
 51
0.0
  0
ARC
  5
344
100
AcDbEntity
  8
0
  6
CONTINUOUS
 62
             7
100
AcDbCircle
 10
-181.64983026277079
 20
58.44110195412101
 40
0.19999999999999
100
AcDbArc
 50
0.0
 51
69.44395478041274
  0
ARC
  5
343
100
AcDbEntity
  8
0
  6
CONTINUOUS
 62
             7
100
AcDbCircle
 10
-181.64983026277079
 20
60.21830214138687
 40
0.20000000000001
100
AcDbArc
 50
-69.44395478041274
 51
0.0
  0
ARC
  5
342
100
AcDbEntity
  8
0
  6
CONTINUOUS
 62
             7
100
AcDbCircle
 10
-182.64983026277079
 20
58.44110195412101
 40
0.19999999999999
100
AcDbArc
 50
0.0
 51
69.44395478041274
  0
ARC
  5
341
100
AcDbEntity
  8
0
  6
CONTINUOUS
 62
             7
100
AcDbCircle
 10
-182.64983026277079
 20
60.21830214138687
 40
0.20000000000001
100
AcDbArc
 50
-69.44395478041274
 51
0.0
  0
ARC
  5
340
100
AcDbEntity
  8
0
  6
CONTINUOUS
 62
             7
100
AcDbCircle
 10
-182.64983026277079
 20
68.41830214138678
 40
0.20000000000001
100
AcDbArc
 50
-69.44395478041274
 51
0.0
  0
ARC
  5
33F
100
AcDbEntity
  8
0
  6
CONTINUOUS
 62
             7
100
AcDbCircle
 10
-182.64983026277079
 20
66.64110195412091
 40
0.19999999999999
100
AcDbArc
 50
0.0
 51
69.44395478041274
  0
ARC
  5
33E
100
AcDbEntity
  8
0
  6
CONTINUOUS
 62
             7
100
AcDbCircle
 10
-181.64983026277079
 20
68.41830214138678
 40
0.20000000000001
100
AcDbArc
 50
-69.44395478041274
 51
0.0
  0
ARC
  5
33D
100
AcDbEntity
  8
0
  6
CONTINUOUS
 62
             7
100
AcDbCircle
 10
-181.64983026277079
 20
66.64110195412091
 40
0.19999999999999
100
AcDbArc
 50
0.0
 51
69.44395478041274
  0
ARC
  5
33C
100
AcDbEntity
  8
1
  6
CONTINUOUS
 62
             7
100
AcDbCircle
 10
-188.10197259761009
 20
79.77970204775399
 40
1.19999999999999
100
AcDbArc
 50
0.0
 51
90.0
  0
ARC
  5
33B
100
AcDbEntity
  8
1
  6
CONTINUOUS
 62
             7
100
AcDbCircle
 10
-211.70197259761011
 20
79.77970204775399
 40
1.2
100
AcDbArc
 50
90.0
 51
180.0
  0
ARC
  5
33A
100
AcDbEntity
  8
1
  6
CONTINUOUS
 62
             7
100
AcDbCircle
 10
-188.10197259761009
 20
22.47970204775399
 40
1.2
100
AcDbArc
 50
-90.0
 51
0.0
  0
ARC
  5
339
100
AcDbEntity
  8
1
  6
CONTINUOUS
 62
             7
100
AcDbCircle
 10
-211.70197259761011
 20
22.47970204775399
 40
1.1999999999999
100
AcDbArc
 50
180.0
 51
-90.0
  0
CIRCLE
  5
338
100
AcDbEntity
  8
1
  6
CONTINUOUS
 62
             7
100
AcDbCircle
 10
-189.20197259761019
 20
62.16470204775396
 40
0.24500000000009
  0
CIRCLE
  5
337
100
AcDbEntity
  8
1
  6
CONTINUOUS
 62
             7
100
AcDbCircle
 10
-323.97282701557202
 20
58.82970204775402
 40
0.40000000000003
  0
CIRCLE
  5
336
100
AcDbEntity
  8
1
  6
CONTINUOUS
 62
             7
100
AcDbCircle
 10
-331.47282701557202
 20
58.82970204775402
 40
0.39999999999992
  0
CIRCLE
  5
335
100
AcDbEntity
  8
1
  6
CONTINUOUS
 62
             7
100
AcDbCircle
 10
-338.97282701557202
 20
58.82970204775402
 40
0.39999999999992
  0
CIRCLE
  5
334
100
AcDbEntity
  8
1
  6
CONTINUOUS
 62
             7
100
AcDbCircle
 10
-323.8744147740631
 20
48.52970204775402
 40
0.39999999999998
  0
CIRCLE
  5
333
100
AcDbEntity
  8
1
  6
CONTINUOUS
 62
             7
100
AcDbCircle
 10
-331.3744147740631
 20
48.52970204775402
 40
0.39999999999998
  0
CIRCLE
  5
332
100
AcDbEntity
  8
1
  6
CONTINUOUS
 62
             7
100
AcDbCircle
 10
-338.87441477406321
 20
48.52970204775402
 40
0.40000000000009
  0
CIRCLE
  5
331
100
AcDbEntity
  8
1
  6
CONTINUOUS
 62
             7
100
AcDbCircle
 10
-316.3744147740631
 20
48.52970204775402
 40
0.39999999999998
  0
CIRCLE
  5
330
100
AcDbEntity
  8
1
  6
CONTINUOUS
 62
             7
100
AcDbCircle
 10
-316.47282701557202
 20
58.82970204775402
 40
0.40000000000003
  0
ARC
  5
32F
100
AcDbEntity
  8
1
  6
CONTINUOUS
 62
             7
100
AcDbCircle
 10
-189.20197259761019
 20
62.82970204775381
 40
0.14000000000067
100
AcDbArc
 50
-173.24367296949777
 51
-6.75632703056517
  0
ARC
  5
32E
100
AcDbEntity
  8
1
  6
CONTINUOUS
 62
             7
100
AcDbCircle
 10
-189.20197259761019
 20
64.01970204775375
 40
0.27999999999964
100
AcDbArc
 50
-6.75632703056706
 51
-173.24367296945485
  0
ARC
  5
32D
100
AcDbEntity
  8
1
  6
CONTINUOUS
 62
             7
100
AcDbCircle
 10
-187.11570326720059
 20
61.63970204775376
 40
0.20999999999992
100
AcDbArc
 50
-90.0
 51
29.99999999999572
  0
ARC
  5
32C
100
AcDbEntity
  8
1
  6
CONTINUOUS
 62
             7
100
AcDbCircle
 10
-191.28824192802111
 20
61.63970204775376
 40
0.21000000000029
100
AcDbArc
 50
150.00000000000429
 51
-90.0
  0
ARC
  5
32B
100
AcDbEntity
  8
1
  6
CONTINUOUS
 62
             7
100
AcDbCircle
 10
-189.20197259761019
 20
65.25322652629757
 40
0.20999999999945
100
AcDbArc
 50
30.00000000009293
 51
150.00000000000401
  0
ARC
  5
32A
100
AcDbEntity
  8
1
  6
CONTINUOUS
 62
             7
100
AcDbCircle
 10
-304.47282701557202
 20
74.129702047754
 40
1.0
100
AcDbArc
 50
0.0
 51
90.0
  0
ARC
  5
329
100
AcDbEntity
  8
1
  6
CONTINUOUS
 62
             7
100
AcDbCircle
 10
-350.47282701557202
 20
74.129702047754
 40
1.0
100
AcDbArc
 50
90.0
 51
180.0
  0
ARC
  5
328
100
AcDbEntity
  8
1
  6
CONTINUOUS
 62
             7
100
AcDbCircle
 10
-350.47282701557202
 20
28.129702047754
 40
1.0
100
AcDbArc
 50
180.0
 51
-90.0
  0
ARC
  5
327
100
AcDbEntity
  8
1
  6
CONTINUOUS
 62
             7
100
AcDbCircle
 10
-304.47282701557202
 20
28.129702047754
 40
1.0
100
AcDbArc
 50
-90.0
 51
0.0
  0
ARC
  5
326
100
AcDbEntity
  8
1
  6
CONTINUOUS
 62
             7
100
AcDbCircle
 10
-284.20197259761011
 20
74.32779580735632
 40
0.5
100
AcDbArc
 50
94.00000000000301
 51
180.0
  0
ARC
  5
325
100
AcDbEntity
  8
1
  6
CONTINUOUS
 62
             7
100
AcDbCircle
 10
-284.20197259761011
 20
27.9316082881517
 40
0.5
100
AcDbArc
 50
-179.99999999999633
 51
-94.0000000000031
  0
ARC
  5
324
100
AcDbEntity
  8
1
  6
CONTINUOUS
 62
             7
100
AcDbCircle
 10
-336.27282701557198
 20
38.62970204775404
 40
0.3
100
AcDbArc
 50
-90.0
 51
90.0
  0
ARC
  5
323
100
AcDbEntity
  8
1
  6
CONTINUOUS
 62
             7
100
AcDbCircle
 10
-337.67282701557201
 20
38.62970204775404
 40
0.29999999999999
100
AcDbArc
 50
90.0
 51
-90.0
  0
ARC
  5
322
100
AcDbEntity
  8
1
  6
CONTINUOUS
 62
             7
100
AcDbCircle
 10
-337.67282701557201
 20
39.82970204775403
 40
0.3
100
AcDbArc
 50
90.0
 51
-90.0
  0
ARC
  5
321
100
AcDbEntity
  8
1
  6
CONTINUOUS
 62
             7
100
AcDbCircle
 10
-336.27282701557198
 20
39.82970204775403
 40
0.30000000000001
100
AcDbArc
 50
-90.0
 51
90.0
  0
ARC
  5
320
100
AcDbEntity
  8
1
  6
CONTINUOUS
 62
             7
100
AcDbCircle
 10
-337.67282701557201
 20
37.42970204775403
 40
0.29999999999998
100
AcDbArc
 50
90.0
 51
-90.0
  0
ARC
  5
31F
100
AcDbEntity
  8
1
  6
CONTINUOUS
 62
             7
100
AcDbCircle
 10
-336.27282701557198
 20
37.42970204775403
 40
0.29999999999999
100
AcDbArc
 50
-90.0
 51
90.0
  0
ARC
  5
31E
100
AcDbEntity
  8
1
  6
CONTINUOUS
 62
             7
100
AcDbCircle
 10
-321.27534474979109
 20
59.52970204775401
 40
1.19999999999999
100
AcDbArc
 50
-121.00436298023958
 51
-90.0
  0
ARC
  5
31D
100
AcDbEntity
  8
1
  6
CONTINUOUS
 62
             7
100
AcDbCircle
 10
-318.93986354245402
 20
59.52970204775401
 40
1.20000000000001
100
AcDbArc
 50
-90.0
 51
-66.81472537385734
  0
ARC
  5
31C
100
AcDbEntity
  8
1
  6
CONTINUOUS
 62
             7
100
AcDbCircle
 10
-321.27534474979109
 20
59.52970204775401
 40
1.19999999999995
100
AcDbArc
 50
169.99999999999969
 51
-149.96043607034304
  0
ARC
  5
31B
100
AcDbEntity
  8
1
  6
CONTINUOUS
 62
             7
100
AcDbCircle
 10
-318.93986354245402
 20
59.52970204775401
 40
1.20000000000013
100
AcDbArc
 50
-37.82732821404446
 51
-9.99999999999938
  0
ARC
  5
31A
100
AcDbEntity
  8
1
  6
CONTINUOUS
 62
             7
100
AcDbCircle
 10
-320.00579048869008
 20
66.72970204775405
 40
1.20000000000003
100
AcDbArc
 50
142.17267178595276
 51
170.00000000000196
  0
ARC
  5
319
100
AcDbEntity
  8
1
  6
CONTINUOUS
 62
             7
100
AcDbCircle
 10
-320.00579048869008
 20
66.72970204775405
 40
1.19999999999999
100
AcDbArc
 50
90.0
 51
113.18527462614293
  0
ARC
  5
318
100
AcDbEntity
  8
1
  6
CONTINUOUS
 62
             7
100
AcDbCircle
 10
-317.67030928135301
 20
66.72970204775405
 40
1.20000000000006
100
AcDbArc
 50
58.99563701974972
 51
90.0
  0
ARC
  5
317
100
AcDbEntity
  8
1
  6
CONTINUOUS
 62
             7
100
AcDbCircle
 10
-317.67030928135301
 20
66.72970204775405
 40
1.19999999999996
100
AcDbArc
 50
-10.00000000000166
 51
30.03956392965133
  0
ARC
  5
316
100
AcDbEntity
  8
1
  6
CONTINUOUS
 62
             7
100
AcDbCircle
 10
-325.17030928135301
 20
66.72970204775405
 40
1.19999999999996
100
AcDbArc
 50
-10.00000000000166
 51
30.03956392965133
  0
ARC
  5
315
100
AcDbEntity
  8
1
  6
CONTINUOUS
 62
             7
100
AcDbCircle
 10
-325.17030928135301
 20
66.72970204775405
 40
1.20000000000006
100
AcDbArc
 50
58.99563701974972
 51
90.0
  0
ARC
  5
314
100
AcDbEntity
  8
1
  6
CONTINUOUS
 62
             7
100
AcDbCircle
 10
-327.50579048869008
 20
66.72970204775405
 40
1.19999999999999
100
AcDbArc
 50
90.0
 51
113.18527462613794
  0
ARC
  5
313
100
AcDbEntity
  8
1
  6
CONTINUOUS
 62
             7
100
AcDbCircle
 10
-327.50579048869008
 20
66.72970204775405
 40
1.20000000000003
100
AcDbArc
 50
142.17267178595276
 51
170.00000000000196
  0
ARC
  5
312
100
AcDbEntity
  8
1
  6
CONTINUOUS
 62
             7
100
AcDbCircle
 10
-326.43986354245402
 20
59.52970204775401
 40
1.20000000000013
100
AcDbArc
 50
-37.82732821404446
 51
-9.99999999999938
  0
ARC
  5
311
100
AcDbEntity
  8
1
  6
CONTINUOUS
 62
             7
100
AcDbCircle
 10
-328.7753447497912
 20
59.52970204775401
 40
1.19999999999995
100
AcDbArc
 50
169.99999999999969
 51
-149.96043607034031
  0
ARC
  5
310
100
AcDbEntity
  8
1
  6
CONTINUOUS
 62
             7
100
AcDbCircle
 10
-326.43986354245402
 20
59.52970204775401
 40
1.20000000000001
100
AcDbArc
 50
-90.0
 51
-66.81472537385734
  0
ARC
  5
30F
100
AcDbEntity
  8
1
  6
CONTINUOUS
 62
             7
100
AcDbCircle
 10
-328.7753447497912
 20
59.52970204775401
 40
1.19999999999999
100
AcDbArc
 50
-121.00436298023958
 51
-90.0
  0
ARC
  5
30E
100
AcDbEntity
  8
1
  6
CONTINUOUS
 62
             7
100
AcDbCircle
 10
-332.67030928135301
 20
66.72970204775405
 40
1.19999999999996
100
AcDbArc
 50
-10.00000000000166
 51
30.03956392965133
  0
ARC
  5
30D
100
AcDbEntity
  8
1
  6
CONTINUOUS
 62
             7
100
AcDbCircle
 10
-332.67030928135301
 20
66.72970204775405
 40
1.20000000000006
100
AcDbArc
 50
58.99563701974972
 51
90.0
  0
ARC
  5
30C
100
AcDbEntity
  8
1
  6
CONTINUOUS
 62
             7
100
AcDbCircle
 10
-335.00579048869008
 20
66.72970204775405
 40
1.19999999999999
100
AcDbArc
 50
90.0
 51
113.18527462613794
  0
ARC
  5
30B
100
AcDbEntity
  8
1
  6
CONTINUOUS
 62
             7
100
AcDbCircle
 10
-335.00579048869008
 20
66.72970204775405
 40
1.20000000000003
100
AcDbArc
 50
142.17267178595276
 51
170.0000000000029
  0
ARC
  5
30A
100
AcDbEntity
  8
1
  6
CONTINUOUS
 62
             7
100
AcDbCircle
 10
-333.93986354245391
 20
59.52970204775401
 40
1.20000000000004
100
AcDbArc
 50
-37.82732821404779
 51
-10.00000000000032
  0
ARC
  5
309
100
AcDbEntity
  8
1
  6
CONTINUOUS
 62
             7
100
AcDbCircle
 10
-336.2753447497912
 20
59.52970204775401
 40
1.19999999999995
100
AcDbArc
 50
169.99999999999969
 51
-149.96043607034031
  0
ARC
  5
308
100
AcDbEntity
  8
1
  6
CONTINUOUS
 62
             7
100
AcDbCircle
 10
-333.93986354245391
 20
59.52970204775401
 40
1.20000000000001
100
AcDbArc
 50
-90.0
 51
-66.81472537386235
  0
ARC
  5
307
100
AcDbEntity
  8
1
  6
CONTINUOUS
 62
             7
100
AcDbCircle
 10
-336.2753447497912
 20
59.52970204775401
 40
1.19999999999999
100
AcDbArc
 50
-121.00436298023958
 51
-90.0
  0
ARC
  5
306
100
AcDbEntity
  8
1
  6
CONTINUOUS
 62
             7
100
AcDbCircle
 10
-340.1703092813529
 20
66.72970204775405
 40
1.19999999999996
100
AcDbArc
 50
-10.00000000000166
 51
30.03956392965404
  0
ARC
  5
305
100
AcDbEntity
  8
1
  6
CONTINUOUS
 62
             7
100
AcDbCircle
 10
-340.1703092813529
 20
66.72970204775405
 40
1.2
100
AcDbArc
 50
58.99563701975438
 51
90.0
  0
ARC
  5
304
100
AcDbEntity
  8
1
  6
CONTINUOUS
 62
             7
100
AcDbCircle
 10
-342.50579048869008
 20
66.72970204775405
 40
1.19999999999999
100
AcDbArc
 50
90.0
 51
113.18527462613794
  0
ARC
  5
303
100
AcDbEntity
  8
1
  6
CONTINUOUS
 62
             7
100
AcDbCircle
 10
-342.50579048869008
 20
66.72970204775405
 40
1.20000000000003
100
AcDbArc
 50
142.17267178595276
 51
170.0000000000029
  0
ARC
  5
302
100
AcDbEntity
  8
1
  6
CONTINUOUS
 62
             7
100
AcDbCircle
 10
-341.43986354245391
 20
59.52970204775401
 40
1.20000000000004
100
AcDbArc
 50
-37.82732821404779
 51
-9.99999999999938
  0
ARC
  5
301
100
AcDbEntity
  8
1
  6
CONTINUOUS
 62
             7
100
AcDbCircle
 10
-343.7753447497912
 20
59.52970204775401
 40
1.19999999999995
100
AcDbArc
 50
169.99999999999969
 51
-149.96043607034031
  0
ARC
  5
300
100
AcDbEntity
  8
1
  6
CONTINUOUS
 62
             7
100
AcDbCircle
 10
-341.43986354245391
 20
59.52970204775401
 40
1.20000000000001
100
AcDbArc
 50
-90.0
 51
-66.81472537386235
  0
ARC
  5
2FF
100
AcDbEntity
  8
1
  6
CONTINUOUS
 62
             7
100
AcDbCircle
 10
-343.7753447497912
 20
59.52970204775401
 40
1.19999999999999
100
AcDbArc
 50
-121.00436298023958
 51
-90.0
  0
ARC
  5
2FE
100
AcDbEntity
  8
1
  6
CONTINUOUS
 62
             7
100
AcDbCircle
 10
-321.22244665557861
 20
49.22970204775401
 40
1.20000000000001
100
AcDbArc
 50
-134.28677690373991
 51
-90.0
  0
ARC
  5
2FD
100
AcDbEntity
  8
1
  6
CONTINUOUS
 62
             7
100
AcDbCircle
 10
-318.88696544824131
 20
49.22970204775401
 40
1.19999999999999
100
AcDbArc
 50
-90.0
 51
-54.51325254188886
  0
ARC
  5
2FC
100
AcDbEntity
  8
1
  6
CONTINUOUS
 62
             7
100
AcDbCircle
 10
-321.22244665557861
 20
49.22970204775401
 40
1.20000000000007
100
AcDbArc
 50
169.99999999999929
 51
-163.60635114579054
  0
ARC
  5
2FB
100
AcDbEntity
  8
1
  6
CONTINUOUS
 62
             7
100
AcDbCircle
 10
-320.05870938154669
 20
55.82958409278228
 40
1.20000000000012
100
AcDbArc
 50
154.91734107015264
 51
169.99999999999969
  0
ARC
  5
2FA
100
AcDbEntity
  8
1
  6
CONTINUOUS
 62
             7
100
AcDbCircle
 10
-318.88696544824131
 20
49.22970204775401
 40
1.2
100
AcDbArc
 50
-25.0826589298478
 51
-9.99999999999932
  0
ARC
  5
2F9
100
AcDbEntity
  8
1
  6
CONTINUOUS
 62
             7
100
AcDbCircle
 10
-317.72322817420962
 20
55.82958409278228
 40
1.20000000000006
100
AcDbArc
 50
-9.99999999999938
 51
16.39364885420563
  0
ARC
  5
2F8
100
AcDbEntity
  8
1
  6
CONTINUOUS
 62
             7
100
AcDbCircle
 10
-320.05870938154669
 20
55.82958409278228
 40
1.2
100
AcDbArc
 50
90.0
 51
125.48674745811518
  0
ARC
  5
2F7
100
AcDbEntity
  8
1
  6
CONTINUOUS
 62
             7
100
AcDbCircle
 10
-317.72322817420962
 20
55.82958409278228
 40
1.20000000000003
100
AcDbArc
 50
45.71322309626106
 51
90.0
  0
ARC
  5
2F6
100
AcDbEntity
  8
1
  6
CONTINUOUS
 62
             7
100
AcDbCircle
 10
-325.22322817420962
 20
55.82958409278228
 40
1.20000000000003
100
AcDbArc
 50
45.71322309626106
 51
90.0
  0
ARC
  5
2F5
100
AcDbEntity
  8
1
  6
CONTINUOUS
 62
             7
100
AcDbCircle
 10
-327.55870938154669
 20
55.82958409278228
 40
1.2
100
AcDbArc
 50
90.0
 51
125.48674745811518
  0
ARC
  5
2F4
100
AcDbEntity
  8
1
  6
CONTINUOUS
 62
             7
100
AcDbCircle
 10
-325.22322817420962
 20
55.82958409278228
 40
1.20000000000006
100
AcDbArc
 50
-9.99999999999938
 51
16.39364885420563
  0
ARC
  5
2F3
100
AcDbEntity
  8
1
  6
CONTINUOUS
 62
             7
100
AcDbCircle
 10
-326.38696544824131
 20
49.22970204775401
 40
1.2
100
AcDbArc
 50
-25.0826589298478
 51
-9.99999999999932
  0
ARC
  5
2F2
100
AcDbEntity
  8
1
  6
CONTINUOUS
 62
             7
100
AcDbCircle
 10
-327.55870938154669
 20
55.82958409278228
 40
1.20000000000012
100
AcDbArc
 50
154.91734107015264
 51
169.99999999999969
  0
ARC
  5
2F1
100
AcDbEntity
  8
1
  6
CONTINUOUS
 62
             7
100
AcDbCircle
 10
-328.72244665557861
 20
49.22970204775401
 40
1.19999999999996
100
AcDbArc
 50
169.99999999999835
 51
-163.60635114579054
  0
ARC
  5
2F0
100
AcDbEntity
  8
1
  6
CONTINUOUS
 62
             7
100
AcDbCircle
 10
-326.38696544824131
 20
49.22970204775401
 40
1.19999999999999
100
AcDbArc
 50
-90.0
 51
-54.51325254188886
  0
ARC
  5
2EF
100
AcDbEntity
  8
1
  6
CONTINUOUS
 62
             7
100
AcDbCircle
 10
-328.72244665557861
 20
49.22970204775401
 40
1.20000000000001
100
AcDbArc
 50
-134.28677690373991
 51
-90.0
  0
ARC
  5
2EE
100
AcDbEntity
  8
1
  6
CONTINUOUS
 62
             7
100
AcDbCircle
 10
-332.72322817420951
 20
55.82958409278228
 40
1.19999999999995
100
AcDbArc
 50
45.71322309626495
 51
90.0
  0
ARC
  5
2ED
100
AcDbEntity
  8
1
  6
CONTINUOUS
 62
             7
100
AcDbCircle
 10
-335.05870938154681
 20
55.82958409278228
 40
1.2
100
AcDbArc
 50
90.0
 51
125.48674745811076
  0
ARC
  5
2EC
100
AcDbEntity
  8
1
  6
CONTINUOUS
 62
             7
100
AcDbCircle
 10
-332.72322817420951
 20
55.82958409278228
 40
1.19999999999995
100
AcDbArc
 50
-10.00000000000032
 51
16.39364885420716
  0
ARC
  5
2EB
100
AcDbEntity
  8
1
  6
CONTINUOUS
 62
             7
100
AcDbCircle
 10
-333.88696544824131
 20
49.22970204775401
 40
1.2
100
AcDbArc
 50
-25.0826589298478
 51
-9.99999999999932
  0
ARC
  5
2EA
100
AcDbEntity
  8
1
  6
CONTINUOUS
 62
             7
100
AcDbCircle
 10
-335.05870938154681
 20
55.82958409278228
 40
1.20000000000001
100
AcDbArc
 50
154.91734107015037
 51
169.99999999999969
  0
ARC
  5
2E9
100
AcDbEntity
  8
1
  6
CONTINUOUS
 62
             7
100
AcDbCircle
 10
-336.22244665557849
 20
49.22970204775401
 40
1.20000000000007
100
AcDbArc
 50
169.99999999999929
 51
-163.60635114579208
  0
ARC
  5
2E8
100
AcDbEntity
  8
1
  6
CONTINUOUS
 62
             7
100
AcDbCircle
 10
-333.88696544824131
 20
49.22970204775401
 40
1.19999999999999
100
AcDbArc
 50
-90.0
 51
-54.51325254188886
  0
ARC
  5
2E7
100
AcDbEntity
  8
1
  6
CONTINUOUS
 62
             7
100
AcDbCircle
 10
-336.22244665557849
 20
49.22970204775401
 40
1.20000000000001
100
AcDbArc
 50
-134.28677690373991
 51
-90.0
  0
ARC
  5
2E6
100
AcDbEntity
  8
1
  6
CONTINUOUS
 62
             7
100
AcDbCircle
 10
-340.22322817420951
 20
55.82958409278228
 40
1.20000000000003
100
AcDbArc
 50
45.71322309626106
 51
90.0
  0
ARC
  5
2E5
100
AcDbEntity
  8
1
  6
CONTINUOUS
 62
             7
100
AcDbCircle
 10
-342.55870938154681
 20
55.82958409278228
 40
1.2
100
AcDbArc
 50
90.0
 51
125.48674745811076
  0
ARC
  5
2E4
100
AcDbEntity
  8
1
  6
CONTINUOUS
 62
             7
100
AcDbCircle
 10
-340.22322817420951
 20
55.82958409278228
 40
1.20000000000006
100
AcDbArc
 50
-9.99999999999938
 51
16.39364885420793
  0
ARC
  5
2E3
100
AcDbEntity
  8
1
  6
CONTINUOUS
 62
             7
100
AcDbCircle
 10
-341.38696544824131
 20
49.22970204775401
 40
1.2
100
AcDbArc
 50
-25.0826589298478
 51
-9.99999999999932
  0
ARC
  5
2E2
100
AcDbEntity
  8
1
  6
CONTINUOUS
 62
             7
100
AcDbCircle
 10
-342.55870938154681
 20
55.82958409278228
 40
1.20000000000001
100
AcDbArc
 50
154.91734107015037
 51
169.99999999999969
  0
ARC
  5
2E1
100
AcDbEntity
  8
1
  6
CONTINUOUS
 62
             7
100
AcDbCircle
 10
-343.72244665557849
 20
49.22970204775401
 40
1.20000000000007
100
AcDbArc
 50
169.99999999999929
 51
-163.60635114579208
  0
ARC
  5
2E0
100
AcDbEntity
  8
1
  6
CONTINUOUS
 62
             7
100
AcDbCircle
 10
-341.38696544824131
 20
49.22970204775401
 40
1.19999999999999
100
AcDbArc
 50
-90.0
 51
-54.51325254188886
  0
ARC
  5
2DF
100
AcDbEntity
  8
1
  6
CONTINUOUS
 62
             7
100
AcDbCircle
 10
-343.72244665557849
 20
49.22970204775401
 40
1.20000000000001
100
AcDbArc
 50
-134.28677690373991
 51
-90.0
  0
ARC
  5
2DE
100
AcDbEntity
  8
1
  6
CONTINUOUS
 62
             7
100
AcDbCircle
 10
-326.77282701557198
 20
37.42970204775403
 40
0.29999999999999
100
AcDbArc
 50
-90.0
 51
90.0
  0
ARC
  5
2DD
100
AcDbEntity
  8
1
  6
CONTINUOUS
 62
             7
100
AcDbCircle
 10
-328.17282701557201
 20
37.42970204775403
 40
0.29999999999998
100
AcDbArc
 50
90.0
 51
-90.0
  0
ARC
  5
2DC
100
AcDbEntity
  8
1
  6
CONTINUOUS
 62
             7
100
AcDbCircle
 10
-326.77282701557198
 20
39.82970204775403
 40
0.30000000000001
100
AcDbArc
 50
-90.0
 51
90.0
  0
ARC
  5
2DB
100
AcDbEntity
  8
1
  6
CONTINUOUS
 62
             7
100
AcDbCircle
 10
-328.17282701557201
 20
39.82970204775403
 40
0.3
100
AcDbArc
 50
90.0
 51
-90.0
  0
ARC
  5
2DA
100
AcDbEntity
  8
1
  6
CONTINUOUS
 62
             7
100
AcDbCircle
 10
-328.17282701557201
 20
38.62970204775404
 40
0.29999999999999
100
AcDbArc
 50
90.0
 51
-90.0
  0
ARC
  5
2D9
100
AcDbEntity
  8
1
  6
CONTINUOUS
 62
             7
100
AcDbCircle
 10
-326.77282701557198
 20
38.62970204775404
 40
0.3
100
AcDbArc
 50
-90.0
 51
90.0
  0
ARC
  5
2D8
100
AcDbEntity
  8
1
  6
CONTINUOUS
 62
             7
100
AcDbCircle
 10
-317.27282701557198
 20
38.62970204775404
 40
0.3
100
AcDbArc
 50
-90.0
 51
90.0
  0
ARC
  5
2D7
100
AcDbEntity
  8
1
  6
CONTINUOUS
 62
             7
100
AcDbCircle
 10
-318.67282701557201
 20
38.62970204775404
 40
0.29999999999999
100
AcDbArc
 50
90.0
 51
-90.0
  0
ARC
  5
2D6
100
AcDbEntity
  8
1
  6
CONTINUOUS
 62
             7
100
AcDbCircle
 10
-318.67282701557201
 20
39.82970204775403
 40
0.3
100
AcDbArc
 50
90.0
 51
-90.0
  0
ARC
  5
2D5
100
AcDbEntity
  8
1
  6
CONTINUOUS
 62
             7
100
AcDbCircle
 10
-317.27282701557198
 20
39.82970204775403
 40
0.30000000000001
100
AcDbArc
 50
-90.0
 51
90.0
  0
ARC
  5
2D4
100
AcDbEntity
  8
1
  6
CONTINUOUS
 62
             7
100
AcDbCircle
 10
-318.67282701557201
 20
37.42970204775403
 40
0.29999999999998
100
AcDbArc
 50
90.0
 51
-90.0
  0
ARC
  5
2D3
100
AcDbEntity
  8
1
  6
CONTINUOUS
 62
             7
100
AcDbCircle
 10
-317.27282701557198
 20
37.42970204775403
 40
0.29999999999999
100
AcDbArc
 50
-90.0
 51
90.0
  0
ARC
  5
2D2
100
AcDbEntity
  8
1
  6
CONTINUOUS
 62
             7
100
AcDbCircle
 10
-321.87282701557211
 20
38.62970204775402
 40
1.25
100
AcDbArc
 50
-90.0
 51
90.0
  0
ARC
  5
2D1
100
AcDbEntity
  8
1
  6
CONTINUOUS
 62
             7
100
AcDbCircle
 10
-323.97282701557202
 20
38.62970204775402
 40
1.75
100
AcDbArc
 50
90.0
 51
-90.0
  0
ARC
  5
2D0
100
AcDbEntity
  8
1
  6
CONTINUOUS
 62
             7
100
AcDbCircle
 10
-323.57282701557199
 20
38.62970204775402
 40
1.25
100
AcDbArc
 50
90.0
 51
-90.0
  0
ARC
  5
2CF
100
AcDbEntity
  8
1
  6
CONTINUOUS
 62
             7
100
AcDbCircle
 10
-321.47282701557202
 20
38.62970204775402
 40
1.75
100
AcDbArc
 50
-90.0
 51
90.0
  0
ARC
  5
2CE
100
AcDbEntity
  8
0
  6
CONTINUOUS
 62
             7
100
AcDbCircle
 10
-180.71071012114629
 20
36.47970204775419
 40
1.00000000000001
100
AcDbArc
 50
16.95776330000374
 51
90.0
  0
ARC
  5
2CD
100
AcDbEntity
  8
0
  6
CONTINUOUS
 62
             7
100
AcDbCircle
 10
-186.4498302627708
 20
34.72970204775419
 40
7.00000000000003
100
AcDbArc
 50
-16.95776330000406
 51
16.95776330000406
  0
ARC
  5
2CC
100
AcDbEntity
  8
0
  6
CONTINUOUS
 62
             7
100
AcDbCircle
 10
-180.71071012114629
 20
32.97970204775419
 40
1.0
100
AcDbArc
 50
-90.0
 51
-16.95776330000374
  0
ARC
  5
2CB
100
AcDbEntity
  8
0
  6
CONTINUOUS
 62
             7
100
AcDbCircle
 10
-180.71071012114629
 20
41.17970204775416
 40
1.0
100
AcDbArc
 50
-90.0
 51
-16.95776330000297
  0
ARC
  5
2CA
100
AcDbEntity
  8
0
  6
CONTINUOUS
 62
             7
100
AcDbCircle
 10
-186.4498302627708
 20
42.92970204775416
 40
7.00000000000002
100
AcDbArc
 50
-16.95776330000394
 51
16.957763300004
  0
ARC
  5
2C9
100
AcDbEntity
  8
0
  6
CONTINUOUS
 62
             7
100
AcDbCircle
 10
-180.71071012114629
 20
44.67970204775416
 40
1.00000000000001
100
AcDbArc
 50
16.95776330000335
 51
90.0
  0
ARC
  5
2C8
100
AcDbEntity
  8
0
  6
CONTINUOUS
 62
             7
100
AcDbCircle
 10
-180.71071012114629
 20
49.37970204775383
 40
1.0
100
AcDbArc
 50
-90.0
 51
-16.95776330000297
  0
ARC
  5
2C7
100
AcDbEntity
  8
0
  6
CONTINUOUS
 62
             7
100
AcDbCircle
 10
-186.4498302627708
 20
51.12970204775383
 40
7.00000000000002
100
AcDbArc
 50
-16.95776330000394
 51
16.95776330000411
  0
ARC
  5
2C6
100
AcDbEntity
  8
0
  6
CONTINUOUS
 62
             7
100
AcDbCircle
 10
-180.71071012114629
 20
52.87970204775383
 40
1.00000000000002
100
AcDbArc
 50
16.95776330000413
 51
90.0
  0
ARC
  5
2C5
100
AcDbEntity
  8
0
  6
CONTINUOUS
 62
             7
100
AcDbCircle
 10
-180.71071012114629
 20
57.57970204775394
 40
1.0
100
AcDbArc
 50
-90.0
 51
-16.95776330000335
  0
ARC
  5
2C4
100
AcDbEntity
  8
0
  6
CONTINUOUS
 62
             7
100
AcDbCircle
 10
-186.4498302627708
 20
59.32970204775394
 40
7.00000000000003
100
AcDbArc
 50
-16.957763300004
 51
16.95776330000411
  0
ARC
  5
2C3
100
AcDbEntity
  8
0
  6
CONTINUOUS
 62
             7
100
AcDbCircle
 10
-180.71071012114629
 20
61.07970204775394
 40
1.00000000000002
100
AcDbArc
 50
16.95776330000413
 51
90.0
  0
ARC
  5
2C2
100
AcDbEntity
  8
0
  6
CONTINUOUS
 62
             7
100
AcDbCircle
 10
-180.71071012114629
 20
69.27970204775384
 40
1.00000000000001
100
AcDbArc
 50
16.95776330000335
 51
90.0
  0
ARC
  5
2C1
100
AcDbEntity
  8
0
  6
CONTINUOUS
 62
             7
100
AcDbCircle
 10
-186.4498302627708
 20
67.52970204775384
 40
7.00000000000003
100
AcDbArc
 50
-16.957763300004
 51
16.957763300004
  0
ARC
  5
2C0
100
AcDbEntity
  8
0
  6
CONTINUOUS
 62
             7
100
AcDbCircle
 10
-180.71071012114629
 20
65.77970204775384
 40
1.0
100
AcDbArc
 50
-90.0
 51
-16.95776330000335
  0
ARC
  5
2BF
100
AcDbEntity
  8
1
  6
CONTINUOUS
 62
             7
100
AcDbCircle
 10
-180.8019725976101
 20
73.97970204775399
 40
0.59999999999999
100
AcDbArc
 50
-90.0
 51
0.0
  0
ARC
  5
2BE
100
AcDbEntity
  8
1
  6
CONTINUOUS
 62
             7
100
AcDbCircle
 10
-178.4628524559856
 20
75.129702047754
 40
1.0
100
AcDbArc
 50
-90.0
 51
-16.95776330000335
  0
ARC
  5
2BD
100
AcDbEntity
  8
1
  6
CONTINUOUS
 62
             7
100
AcDbCircle
 10
-184.20197259761011
 20
76.879702047754
 40
7.00000000000003
100
AcDbArc
 50
-16.957763300004
 51
16.957763300004
  0
ARC
  5
2BC
100
AcDbEntity
  8
1
  6
CONTINUOUS
 62
             7
100
AcDbCircle
 10
-178.4628524559856
 20
78.629702047754
 40
1.00000000000001
100
AcDbArc
 50
16.95776330000335
 51
90.0
  0
ARC
  5
2BB
100
AcDbEntity
  8
1
  6
CONTINUOUS
 62
             7
100
AcDbCircle
 10
-178.4628524559856
 20
27.12970204775398
 40
1.00000000000002
100
AcDbArc
 50
16.95776330000413
 51
90.0
  0
ARC
  5
2BA
100
AcDbEntity
  8
1
  6
CONTINUOUS
 62
             7
100
AcDbCircle
 10
-184.20197259761011
 20
25.37970204775398
 40
7.00000000000003
100
AcDbArc
 50
-16.95776330000403
 51
16.95776330000411
  0
ARC
  5
2B9
100
AcDbEntity
  8
1
  6
CONTINUOUS
 62
             7
100
AcDbCircle
 10
-178.4628524559856
 20
23.62970204775398
 40
1.0
100
AcDbArc
 50
-90.0
 51
-16.95776330000355
  0
ARC
  5
2B8
100
AcDbEntity
  8
1
  6
CONTINUOUS
 62
             7
100
AcDbCircle
 10
-180.8019725976101
 20
28.27970204775399
 40
0.59999999999999
100
AcDbArc
 50
0.0
 51
90.0
  0
LINE
  5
2B7
100
AcDbEntity
  8
1
  6
CONTINUOUS
 62
             7
100
AcDbLine
 10
-273.20197259761011
 20
27.129702047754
 11
-273.20197259761011
 21
75.129702047754
  0
LINE
  5
2B6
100
AcDbEntity
  8
1
  6
CONTINUOUS
 62
             7
100
AcDbLine
 10
-274.70197259761011
 20
75.129702047754
 11
-273.20197259761011
 21
75.129702047754
  0
LINE
  5
2B5
100
AcDbEntity
  8
1
  6
CONTINUOUS
 62
             7
100
AcDbLine
 10
-274.70197259761011
 20
27.129702047754
 11
-273.20197259761011
 21
27.129702047754
  0
LINE
  5
2B4
100
AcDbEntity
  8
1
  6
CONTINUOUS
 62
             7
100
AcDbLine
 10
-186.20197259761011
 20
60.42970204775384
 11
-186.20197259761011
 21
66.42970204775384
  0
LINE
  5
2B3
100
AcDbEntity
  8
1
  6
CONTINUOUS
 62
             7
100
AcDbLine
 10
-192.20197259761011
 20
60.42970204775384
 11
-186.20197259761011
 21
60.42970204775384
  0
LINE
  5
2B2
100
AcDbEntity
  8
1
  6
CONTINUOUS
 62
             7
100
AcDbLine
 10
-192.20197259761011
 20
66.42970204775384
 11
-192.20197259761011
 21
60.42970204775384
  0
LINE
  5
2B1
100
AcDbEntity
  8
1
  6
CONTINUOUS
 62
             7
100
AcDbLine
 10
-186.20197259761011
 20
66.42970204775384
 11
-192.20197259761011
 21
66.42970204775384
  0
LINE
  5
2B0
100
AcDbEntity
  8
1
  6
CONTINUOUS
 62
             7
100
AcDbLine
 10
-189.34100036362611
 20
62.81323145951865
 11
-189.4800281296412
 21
63.98676087128331
  0
LINE
  5
2AF
100
AcDbEntity
  8
1
  6
CONTINUOUS
 62
             7
100
AcDbLine
 10
-188.9239170655801
 20
63.98676087128331
 11
-189.06294483159559
 21
62.81323145951865
  0
LINE
  5
2AE
100
AcDbEntity
  8
1
  6
CONTINUOUS
 62
             7
100
AcDbLine
 10
-187.17632504546509
 20
61.67470204775384
 11
-189.20197259761019
 21
65.18322652629763
  0
LINE
  5
2AD
100
AcDbEntity
  8
1
  6
CONTINUOUS
 62
             7
100
AcDbLine
 10
-191.22762014975621
 20
61.67470204775384
 11
-187.17632504546509
 21
61.67470204775384
  0
LINE
  5
2AC
100
AcDbEntity
  8
1
  6
CONTINUOUS
 62
             7
100
AcDbLine
 10
-189.20197259761019
 20
65.18322652629763
 11
-191.22762014975621
 21
61.67470204775384
  0
LINE
  5
2AB
100
AcDbEntity
  8
1
  6
CONTINUOUS
 62
             7
100
AcDbLine
 10
-186.93383793240559
 20
61.74470204775389
 11
-189.02010726281611
 21
65.35822652629759
  0
LINE
  5
2AA
100
AcDbEntity
  8
1
  6
CONTINUOUS
 62
             7
100
AcDbLine
 10
-191.28824192802111
 20
61.42970204775384
 11
-187.11570326720059
 21
61.42970204775384
  0
LINE
  5
2A9
100
AcDbEntity
  8
1
  6
CONTINUOUS
 62
             7
100
AcDbLine
 10
-189.38383793240499
 20
65.35822652629759
 11
-191.4701072628161
 21
61.74470204775389
  0
LINE
  5
2A8
100
AcDbEntity
  8
1
  6
CONTINUOUS
 62
             7
100
AcDbLine
 10
-241.4019725976103
 20
43.92970204775395
 11
-244.40197259761041
 21
43.92970204775395
  0
LINE
  5
2A7
100
AcDbEntity
  8
1
  6
CONTINUOUS
 62
             7
100
AcDbLine
 10
-256.40197259761038
 20
58.32970204775404
 11
-244.70197259761031
 21
58.32970204775404
  0
LINE
  5
2A6
100
AcDbEntity
  8
1
  6
CONTINUOUS
 62
             7
100
AcDbLine
 10
-241.40197259761041
 20
58.32970204775404
 11
-244.70197259761031
 21
58.32970204775404
  0
LINE
  5
2A5
100
AcDbEntity
  8
1
  6
CONTINUOUS
 62
             7
100
AcDbLine
 10
-241.40197259761041
 20
58.32970204775404
 11
-241.4019725976103
 21
43.92970204775395
  0
LINE
  5
2A4
100
AcDbEntity
  8
1
  6
CONTINUOUS
 62
             7
100
AcDbLine
 10
-241.70197259761031
 20
43.92970204775395
 11
-241.70197259761031
 21
58.32970204775404
  0
LINE
  5
2A3
100
AcDbEntity
  8
1
  6
CONTINUOUS
 62
             7
100
AcDbLine
 10
-242.70197259761019
 20
43.92970204775395
 11
-242.70197259761031
 21
58.32970204775404
  0
LINE
  5
2A2
100
AcDbEntity
  8
1
  6
CONTINUOUS
 62
             7
100
AcDbLine
 10
-242.90197259761041
 20
58.32970204775404
 11
-242.90197259761041
 21
43.92970204775395
  0
LINE
  5
2A1
100
AcDbEntity
  8
1
  6
CONTINUOUS
 62
             7
100
AcDbLine
 10
-243.20197259761031
 20
43.92970204775395
 11
-243.20197259761031
 21
58.32970204775404
  0
LINE
  5
2A0
100
AcDbEntity
  8
1
  6
CONTINUOUS
 62
             7
100
AcDbLine
 10
-244.20197259761031
 20
43.92970204775395
 11
-244.20197259761031
 21
58.32970204775404
  0
LINE
  5
29F
100
AcDbEntity
  8
1
  6
CONTINUOUS
 62
             7
100
AcDbLine
 10
-251.90197259761041
 20
43.92970204775395
 11
-256.40197259761038
 21
43.92970204775395
  0
LINE
  5
29E
100
AcDbEntity
  8
1
  6
CONTINUOUS
 62
             7
100
AcDbLine
 10
-244.4019725976103
 20
58.32970204775404
 11
-244.40197259761041
 21
43.92970204775395
  0
LINE
  5
29D
100
AcDbEntity
  8
1
  6
CONTINUOUS
 62
             7
100
AcDbLine
 10
-257.70197259761022
 20
43.92970204775395
 11
-257.70197259761022
 21
58.32970204775404
  0
LINE
  5
29C
100
AcDbEntity
  8
1
  6
CONTINUOUS
 62
             7
100
AcDbLine
 10
-257.70197259761022
 20
58.32970204775404
 11
-256.70197259761028
 21
58.32970204775404
  0
LINE
  5
29B
100
AcDbEntity
  8
1
  6
CONTINUOUS
 62
             7
100
AcDbLine
 10
-256.70197259761028
 20
43.92970204775395
 11
-256.70197259761028
 21
58.32970204775404
  0
LINE
  5
29A
100
AcDbEntity
  8
1
  6
CONTINUOUS
 62
             7
100
AcDbLine
 10
-256.70197259761028
 20
43.92970204775395
 11
-257.70197259761022
 21
43.92970204775395
  0
LINE
  5
299
100
AcDbEntity
  8
1
  6
CONTINUOUS
 62
             7
100
AcDbLine
 10
-256.70197259761028
 20
58.32970204775404
 11
-256.40197259761038
 21
58.32970204775404
  0
LINE
  5
298
100
AcDbEntity
  8
1
  6
CONTINUOUS
 62
             7
100
AcDbLine
 10
-256.40197259761038
 20
58.32970204775404
 11
-256.40197259761038
 21
43.92970204775395
  0
LINE
  5
297
100
AcDbEntity
  8
1
  6
CONTINUOUS
 62
             7
100
AcDbLine
 10
-256.40197259761038
 20
43.92970204775395
 11
-256.70197259761028
 21
43.92970204775395
  0
LINE
  5
296
100
AcDbEntity
  8
1
  6
CONTINUOUS
 62
             7
100
AcDbLine
 10
-244.70197259761031
 20
58.32970204775404
 11
-244.4019725976103
 21
58.32970204775404
  0
LINE
  5
295
100
AcDbEntity
  8
1
  6
CONTINUOUS
 62
             7
100
AcDbLine
 10
-255.20197259761031
 20
43.92970204775395
 11
-255.20197259761031
 21
58.32970204775404
  0
LINE
  5
294
100
AcDbEntity
  8
1
  6
CONTINUOUS
 62
             7
100
AcDbLine
 10
-254.90197259761041
 20
58.32970204775404
 11
-254.90197259761041
 21
43.92970204775395
  0
LINE
  5
293
100
AcDbEntity
  8
1
  6
CONTINUOUS
 62
             7
100
AcDbLine
 10
-256.20197259761039
 20
43.92970204775395
 11
-256.20197259761022
 21
58.32970204775404
  0
LINE
  5
292
100
AcDbEntity
  8
1
  6
CONTINUOUS
 62
             7
100
AcDbLine
 10
-254.70197259761031
 20
43.92970204775395
 11
-254.70197259761019
 21
58.32970204775404
  0
LINE
  5
291
100
AcDbEntity
  8
1
  6
CONTINUOUS
 62
             7
100
AcDbLine
 10
-253.70197259761031
 20
43.92970204775395
 11
-253.70197259761031
 21
58.32970204775404
  0
LINE
  5
290
100
AcDbEntity
  8
1
  6
CONTINUOUS
 62
             7
100
AcDbLine
 10
-253.40197259761041
 20
58.32970204775404
 11
-253.40197259761041
 21
43.92970204775395
  0
LINE
  5
28F
100
AcDbEntity
  8
1
  6
CONTINUOUS
 62
             7
100
AcDbLine
 10
-253.20197259761039
 20
43.92970204775395
 11
-253.20197259761019
 21
58.32970204775404
  0
LINE
  5
28E
100
AcDbEntity
  8
1
  6
CONTINUOUS
 62
             7
100
AcDbLine
 10
-252.20197259761031
 20
43.92970204775395
 11
-252.20197259761031
 21
58.32970204775404
  0
LINE
  5
28D
100
AcDbEntity
  8
1
  6
CONTINUOUS
 62
             7
100
AcDbLine
 10
-251.90197259761041
 20
58.32970204775404
 11
-251.90197259761041
 21
43.92970204775395
  0
LINE
  5
28C
100
AcDbEntity
  8
1
  6
CONTINUOUS
 62
             7
100
AcDbLine
 10
-251.70197259761039
 20
43.92970204775395
 11
-251.70197259761019
 21
58.32970204775404
  0
LINE
  5
28B
100
AcDbEntity
  8
1
  6
CONTINUOUS
 62
             7
100
AcDbLine
 10
-250.70197259761031
 20
43.92970204775395
 11
-250.70197259761031
 21
58.32970204775404
  0
LINE
  5
28A
100
AcDbEntity
  8
1
  6
CONTINUOUS
 62
             7
100
AcDbLine
 10
-250.4019725976103
 20
58.32970204775404
 11
-250.4019725976103
 21
43.92970204775395
  0
LINE
  5
289
100
AcDbEntity
  8
1
  6
CONTINUOUS
 62
             7
100
AcDbLine
 10
-250.20197259761019
 20
43.92970204775395
 11
-250.20197259761019
 21
58.32970204775404
  0
LINE
  5
288
100
AcDbEntity
  8
1
  6
CONTINUOUS
 62
             7
100
AcDbLine
 10
-249.20197259761031
 20
43.92970204775395
 11
-249.20197259761031
 21
58.32970204775404
  0
LINE
  5
287
100
AcDbEntity
  8
1
  6
CONTINUOUS
 62
             7
100
AcDbLine
 10
-248.9019725976103
 20
58.32970204775404
 11
-248.9019725976103
 21
43.92970204775395
  0
LINE
  5
286
100
AcDbEntity
  8
1
  6
CONTINUOUS
 62
             7
100
AcDbLine
 10
-248.70197259761019
 20
43.92970204775395
 11
-248.70197259761019
 21
58.32970204775404
  0
LINE
  5
285
100
AcDbEntity
  8
1
  6
CONTINUOUS
 62
             7
100
AcDbLine
 10
-247.70197259761019
 20
43.92970204775395
 11
-247.70197259761031
 21
58.32970204775404
  0
LINE
  5
284
100
AcDbEntity
  8
1
  6
CONTINUOUS
 62
             7
100
AcDbLine
 10
-247.4019725976103
 20
58.32970204775404
 11
-247.4019725976103
 21
43.92970204775395
  0
LINE
  5
283
100
AcDbEntity
  8
1
  6
CONTINUOUS
 62
             7
100
AcDbLine
 10
-247.20197259761019
 20
43.92970204775395
 11
-247.20197259761019
 21
58.32970204775404
  0
LINE
  5
282
100
AcDbEntity
  8
1
  6
CONTINUOUS
 62
             7
100
AcDbLine
 10
-246.20197259761031
 20
43.92970204775395
 11
-246.20197259761031
 21
58.32970204775404
  0
LINE
  5
281
100
AcDbEntity
  8
1
  6
CONTINUOUS
 62
             7
100
AcDbLine
 10
-245.9019725976103
 20
58.32970204775404
 11
-245.9019725976103
 21
43.92970204775395
  0
LINE
  5
280
100
AcDbEntity
  8
1
  6
CONTINUOUS
 62
             7
100
AcDbLine
 10
-245.70197259761019
 20
43.92970204775395
 11
-245.70197259761031
 21
58.32970204775404
  0
LINE
  5
27F
100
AcDbEntity
  8
1
  6
CONTINUOUS
 62
             7
100
AcDbLine
 10
-244.70197259761031
 20
43.92970204775395
 11
-244.70197259761031
 21
58.32970204775404
  0
LINE
  5
27E
100
AcDbEntity
  8
1
  6
CONTINUOUS
 62
             7
100
AcDbLine
 10
-244.40197259761041
 20
43.92970204775395
 11
-251.90197259761041
 21
43.92970204775395
  0
LINE
  5
27D
100
AcDbEntity
  8
1
  6
CONTINUOUS
 62
             7
100
AcDbLine
 10
-285.00197259761012
 20
27.82970204775404
 11
-284.70197259761011
 21
28.129702047754
  0
LINE
  5
27C
100
AcDbEntity
  8
1
  6
CONTINUOUS
 62
             7
100
AcDbLine
 10
-285.00197259761012
 20
74.42970204775395
 11
-284.70197259761011
 21
74.129702047754
  0
LINE
  5
27B
100
AcDbEntity
  8
1
  6
CONTINUOUS
 62
             7
100
AcDbLine
 10
-285.00197259761012
 20
27.82970204775404
 11
-285.00197259761012
 21
27.129702047754
  0
LINE
  5
27A
100
AcDbEntity
  8
1
  6
CONTINUOUS
 62
             7
100
AcDbLine
 10
-285.00197259761012
 20
75.129702047754
 11
-285.00197259761012
 21
74.42970204775395
  0
LINE
  5
279
100
AcDbEntity
  8
1
  6
CONTINUOUS
 62
             7
100
AcDbLine
 10
-279.70197259761011
 20
27.129702047754
 11
-279.70197259761011
 21
75.129702047754
  0
LINE
  5
278
100
AcDbEntity
  8
1
  6
CONTINUOUS
 62
             7
100
AcDbLine
 10
-279.70197259761011
 20
27.129702047754
 11
-285.00197259761012
 21
27.129702047754
  0
LINE
  5
277
100
AcDbEntity
  8
1
  6
CONTINUOUS
 62
             7
100
AcDbLine
 10
-279.70197259761011
 20
75.129702047754
 11
-285.00197259761012
 21
75.129702047754
  0
LINE
  5
276
100
AcDbEntity
  8
1
  6
CONTINUOUS
 62
             7
100
AcDbLine
 10
-279.70197259761011
 20
27.129702047754
 11
-274.70197259761011
 21
27.129702047754
  0
LINE
  5
275
100
AcDbEntity
  8
1
  6
CONTINUOUS
 62
             7
100
AcDbLine
 10
-274.70197259761011
 20
27.129702047754
 11
-274.70197259761011
 21
66.54380366289172
  0
LINE
  5
274
100
AcDbEntity
  8
1
  6
CONTINUOUS
 62
             7
100
AcDbLine
 10
-279.70197259761011
 20
75.129702047754
 11
-274.70197259761011
 21
75.129702047754
  0
LINE
  5
273
100
AcDbEntity
  8
1
  6
CONTINUOUS
 62
             7
100
AcDbLine
 10
-274.70197259761011
 20
75.129702047754
 11
-274.70197259761011
 21
66.54380366289172
  0
LINE
  5
272
100
AcDbEntity
  8
1
  6
CONTINUOUS
 62
             7
100
AcDbLine
 10
-273.20197259761011
 20
73.379702047754
 11
-207.87228649244511
 21
73.379702047754
  0
LINE
  5
271
100
AcDbEntity
  8
1
  6
CONTINUOUS
 62
             7
100
AcDbLine
 10
-178.70197259761019
 20
28.879702047754
 11
-180.20197259761019
 21
28.879702047754
  0
LINE
  5
270
100
AcDbEntity
  8
1
  6
CONTINUOUS
 62
             7
100
AcDbLine
 10
-230.70197259761011
 20
70.129702047754
 11
-207.87228649244511
 21
70.129702047754
  0
LINE
  5
26F
100
AcDbEntity
  8
1
  6
CONTINUOUS
 62
             7
100
AcDbLine
 10
-230.70197259761011
 20
33.629702047754
 11
-230.70197259761011
 21
70.129702047754
  0
LINE
  5
26E
100
AcDbEntity
  8
1
  6
CONTINUOUS
 62
             7
100
AcDbLine
 10
-196.20197259761011
 20
32.129702047754
 11
-207.87228649244511
 21
32.129702047754
  0
LINE
  5
26D
100
AcDbEntity
  8
1
  6
CONTINUOUS
 62
             7
100
AcDbLine
 10
-196.20197259761011
 20
70.129702047754
 11
-196.20197259761011
 21
32.129702047754
  0
LINE
  5
26C
100
AcDbEntity
  8
1
  6
CONTINUOUS
 62
             7
100
AcDbLine
 10
-178.20197259761011
 20
71.27970204775386
 11
-178.20197259761019
 21
72.879702047754
  0
LINE
  5
26B
100
AcDbEntity
  8
1
  6
CONTINUOUS
 62
             7
100
AcDbLine
 10
-178.20197259761011
 20
63.07970204775381
 11
-178.20197259761011
 21
63.77970204775386
  0
LINE
  5
26A
100
AcDbEntity
  8
1
  6
CONTINUOUS
 62
             7
100
AcDbLine
 10
-178.20197259761011
 20
54.87970204775377
 11
-178.20197259761011
 21
55.57970204775381
  0
LINE
  5
269
100
AcDbEntity
  8
1
  6
CONTINUOUS
 62
             7
100
AcDbLine
 10
-178.20197259761011
 20
46.67970204775384
 11
-178.20197259761011
 21
47.37970204775388
  0
LINE
  5
268
100
AcDbEntity
  8
1
  6
CONTINUOUS
 62
             7
100
AcDbLine
 10
-178.20197259761011
 20
38.4797020477539
 11
-178.20197259761011
 21
39.17970204775395
  0
LINE
  5
267
100
AcDbEntity
  8
1
  6
CONTINUOUS
 62
             7
100
AcDbLine
 10
-178.20197259761019
 20
29.379702047754
 11
-178.20197259761011
 21
30.9797020477539
  0
LINE
  5
266
100
AcDbEntity
  8
1
  6
CONTINUOUS
 62
             7
100
AcDbLine
 10
-178.20197259761011
 20
71.27970204775386
 11
-178.50197259761001
 21
70.97970204775379
  0
LINE
  5
265
100
AcDbEntity
  8
1
  6
CONTINUOUS
 62
             7
100
AcDbLine
 10
-178.20197259761011
 20
63.77970204775386
 11
-178.50197259761001
 21
64.07970204775381
  0
LINE
  5
264
100
AcDbEntity
  8
1
  6
CONTINUOUS
 62
             7
100
AcDbLine
 10
-178.20197259761011
 20
63.07970204775381
 11
-178.50197259761001
 21
62.77970204775386
  0
LINE
  5
263
100
AcDbEntity
  8
1
  6
CONTINUOUS
 62
             7
100
AcDbLine
 10
-178.20197259761011
 20
55.57970204775381
 11
-178.50197259761001
 21
55.87970204775388
  0
LINE
  5
262
100
AcDbEntity
  8
1
  6
CONTINUOUS
 62
             7
100
AcDbLine
 10
-178.20197259761011
 20
54.87970204775377
 11
-178.50197259761001
 21
54.57970204775381
  0
LINE
  5
261
100
AcDbEntity
  8
1
  6
CONTINUOUS
 62
             7
100
AcDbLine
 10
-178.20197259761011
 20
47.37970204775388
 11
-178.50197259761001
 21
47.67970204775384
  0
LINE
  5
260
100
AcDbEntity
  8
1
  6
CONTINUOUS
 62
             7
100
AcDbLine
 10
-178.20197259761011
 20
46.67970204775384
 11
-178.50197259761001
 21
46.37970204775377
  0
LINE
  5
25F
100
AcDbEntity
  8
1
  6
CONTINUOUS
 62
             7
100
AcDbLine
 10
-178.20197259761011
 20
39.17970204775395
 11
-178.50197259761001
 21
39.4797020477539
  0
LINE
  5
25E
100
AcDbEntity
  8
1
  6
CONTINUOUS
 62
             7
100
AcDbLine
 10
-178.20197259761011
 20
38.4797020477539
 11
-178.50197259761001
 21
38.17970204775395
  0
LINE
  5
25D
100
AcDbEntity
  8
1
  6
CONTINUOUS
 62
             7
100
AcDbLine
 10
-178.20197259761011
 20
30.9797020477539
 11
-178.50197259761001
 21
31.27970204775397
  0
LINE
  5
25C
100
AcDbEntity
  8
1
  6
CONTINUOUS
 62
             7
100
AcDbLine
 10
-178.70197259761019
 20
73.379702047754
 11
-178.20197259761019
 21
72.879702047754
  0
LINE
  5
25B
100
AcDbEntity
  8
1
  6
CONTINUOUS
 62
             7
100
AcDbLine
 10
-178.70197259761019
 20
28.879702047754
 11
-178.20197259761019
 21
29.379702047754
  0
LINE
  5
25A
100
AcDbEntity
  8
1
  6
CONTINUOUS
 62
             7
100
AcDbLine
 10
-184.20197259761011
 20
64.07970204775381
 11
-184.20197259761011
 21
70.97970204775379
  0
LINE
  5
259
100
AcDbEntity
  8
1
  6
CONTINUOUS
 62
             7
100
AcDbLine
 10
-184.20197259761011
 20
55.87970204775388
 11
-184.20197259761011
 21
62.77970204775386
  0
LINE
  5
258
100
AcDbEntity
  8
1
  6
CONTINUOUS
 62
             7
100
AcDbLine
 10
-184.20197259761011
 20
47.67970204775384
 11
-184.20197259761011
 21
54.57970204775381
  0
LINE
  5
257
100
AcDbEntity
  8
1
  6
CONTINUOUS
 62
             7
100
AcDbLine
 10
-184.20197259761011
 20
39.4797020477539
 11
-184.20197259761011
 21
46.37970204775377
  0
LINE
  5
256
100
AcDbEntity
  8
1
  6
CONTINUOUS
 62
             7
100
AcDbLine
 10
-184.20197259761011
 20
31.27970204775397
 11
-184.20197259761011
 21
38.17970204775395
  0
LINE
  5
255
100
AcDbEntity
  8
1
  6
CONTINUOUS
 62
             7
100
AcDbLine
 10
-229.20197259761011
 20
32.129702047754
 11
-230.70197259761011
 21
33.629702047754
  0
LINE
  5
254
100
AcDbEntity
  8
1
  6
CONTINUOUS
 62
             7
100
AcDbLine
 10
-180.20197259761019
 20
73.379702047754
 11
-180.20197259761011
 21
70.97970204775379
  0
LINE
  5
253
100
AcDbEntity
  8
1
  6
CONTINUOUS
 62
             7
100
AcDbLine
 10
-180.20197259761019
 20
73.379702047754
 11
-178.70197259761019
 21
73.379702047754
  0
LINE
  5
252
100
AcDbEntity
  8
1
  6
CONTINUOUS
 62
             7
100
AcDbLine
 10
-180.20197259761011
 20
70.97970204775379
 11
-178.50197259761001
 21
70.97970204775379
  0
LINE
  5
251
100
AcDbEntity
  8
1
  6
CONTINUOUS
 62
             7
100
AcDbLine
 10
-180.20197259761011
 20
64.07970204775381
 11
-180.20197259761011
 21
62.77970204775386
  0
LINE
  5
250
100
AcDbEntity
  8
1
  6
CONTINUOUS
 62
             7
100
AcDbLine
 10
-180.20197259761011
 20
64.07970204775381
 11
-178.50197259761001
 21
64.07970204775381
  0
LINE
  5
24F
100
AcDbEntity
  8
1
  6
CONTINUOUS
 62
             7
100
AcDbLine
 10
-180.20197259761011
 20
62.77970204775386
 11
-178.50197259761001
 21
62.77970204775386
  0
LINE
  5
24E
100
AcDbEntity
  8
1
  6
CONTINUOUS
 62
             7
100
AcDbLine
 10
-180.20197259761011
 20
55.87970204775388
 11
-180.20197259761011
 21
54.57970204775381
  0
LINE
  5
24D
100
AcDbEntity
  8
1
  6
CONTINUOUS
 62
             7
100
AcDbLine
 10
-180.20197259761011
 20
55.87970204775388
 11
-178.50197259761001
 21
55.87970204775388
  0
LINE
  5
24C
100
AcDbEntity
  8
1
  6
CONTINUOUS
 62
             7
100
AcDbLine
 10
-180.20197259761011
 20
54.57970204775381
 11
-178.50197259761001
 21
54.57970204775381
  0
LINE
  5
24B
100
AcDbEntity
  8
1
  6
CONTINUOUS
 62
             7
100
AcDbLine
 10
-180.20197259761011
 20
47.67970204775384
 11
-180.20197259761011
 21
46.37970204775377
  0
LINE
  5
24A
100
AcDbEntity
  8
1
  6
CONTINUOUS
 62
             7
100
AcDbLine
 10
-180.20197259761011
 20
47.67970204775384
 11
-178.50197259761001
 21
47.67970204775384
  0
LINE
  5
249
100
AcDbEntity
  8
1
  6
CONTINUOUS
 62
             7
100
AcDbLine
 10
-180.20197259761011
 20
46.37970204775377
 11
-178.50197259761001
 21
46.37970204775377
  0
LINE
  5
248
100
AcDbEntity
  8
1
  6
CONTINUOUS
 62
             7
100
AcDbLine
 10
-180.20197259761011
 20
39.4797020477539
 11
-180.20197259761011
 21
38.17970204775395
  0
LINE
  5
247
100
AcDbEntity
  8
1
  6
CONTINUOUS
 62
             7
100
AcDbLine
 10
-180.20197259761011
 20
39.4797020477539
 11
-178.50197259761001
 21
39.4797020477539
  0
LINE
  5
246
100
AcDbEntity
  8
1
  6
CONTINUOUS
 62
             7
100
AcDbLine
 10
-180.20197259761011
 20
38.17970204775395
 11
-178.50197259761001
 21
38.17970204775395
  0
LINE
  5
245
100
AcDbEntity
  8
1
  6
CONTINUOUS
 62
             7
100
AcDbLine
 10
-180.20197259761011
 20
31.27970204775397
 11
-180.20197259761019
 21
28.879702047754
  0
LINE
  5
244
100
AcDbEntity
  8
1
  6
CONTINUOUS
 62
             7
100
AcDbLine
 10
-180.20197259761019
 20
28.879702047754
 11
-207.87228649244511
 21
28.879702047754
  0
LINE
  5
243
100
AcDbEntity
  8
1
  6
CONTINUOUS
 62
             7
100
AcDbLine
 10
-180.20197259761011
 20
31.27970204775397
 11
-178.50197259761001
 21
31.27970204775397
  0
LINE
  5
242
100
AcDbEntity
  8
1
  6
CONTINUOUS
 62
             7
100
AcDbLine
 10
-184.20197259761011
 20
70.97970204775379
 11
-182.84983026277081
 21
70.97970204775379
  0
LINE
  5
241
100
AcDbEntity
  8
1
  6
CONTINUOUS
 62
             7
100
AcDbLine
 10
-184.20197259761011
 20
64.07970204775381
 11
-182.84983026277081
 21
64.07970204775381
  0
LINE
  5
240
100
AcDbEntity
  8
1
  6
CONTINUOUS
 62
             7
100
AcDbLine
 10
-184.20197259761011
 20
62.77970204775386
 11
-180.20197259761011
 21
62.77970204775386
  0
LINE
  5
23F
100
AcDbEntity
  8
1
  6
CONTINUOUS
 62
             7
100
AcDbLine
 10
-184.20197259761011
 20
55.87970204775388
 11
-180.20197259761011
 21
55.87970204775388
  0
LINE
  5
23E
100
AcDbEntity
  8
1
  6
CONTINUOUS
 62
             7
100
AcDbLine
 10
-184.20197259761011
 20
54.57970204775381
 11
-180.20197259761011
 21
54.57970204775381
  0
LINE
  5
23D
100
AcDbEntity
  8
1
  6
CONTINUOUS
 62
             7
100
AcDbLine
 10
-184.20197259761011
 20
47.67970204775384
 11
-180.20197259761011
 21
47.67970204775384
  0
LINE
  5
23C
100
AcDbEntity
  8
1
  6
CONTINUOUS
 62
             7
100
AcDbLine
 10
-184.20197259761011
 20
46.37970204775377
 11
-180.20197259761011
 21
46.37970204775377
  0
LINE
  5
23B
100
AcDbEntity
  8
1
  6
CONTINUOUS
 62
             7
100
AcDbLine
 10
-184.20197259761011
 20
39.4797020477539
 11
-180.20197259761011
 21
39.4797020477539
  0
LINE
  5
23A
100
AcDbEntity
  8
1
  6
CONTINUOUS
 62
             7
100
AcDbLine
 10
-184.20197259761011
 20
38.17970204775395
 11
-180.20197259761011
 21
38.17970204775395
  0
LINE
  5
239
100
AcDbEntity
  8
1
  6
CONTINUOUS
 62
             7
100
AcDbLine
 10
-184.20197259761011
 20
31.27970204775397
 11
-180.20197259761011
 21
31.27970204775397
  0
LINE
  5
238
100
AcDbEntity
  8
1
  6
CONTINUOUS
 62
             7
100
AcDbLine
 10
-183.20197259761011
 20
70.97970204775379
 11
-183.20197259761011
 21
64.07970204775381
  0
LINE
  5
237
100
AcDbEntity
  8
1
  6
CONTINUOUS
 62
             7
100
AcDbLine
 10
-183.20197259761011
 20
62.77970204775386
 11
-183.20197259761011
 21
55.87970204775388
  0
LINE
  5
236
100
AcDbEntity
  8
1
  6
CONTINUOUS
 62
             7
100
AcDbLine
 10
-183.20197259761011
 20
54.57970204775381
 11
-183.20197259761011
 21
47.67970204775384
  0
LINE
  5
235
100
AcDbEntity
  8
1
  6
CONTINUOUS
 62
             7
100
AcDbLine
 10
-183.20197259761011
 20
46.37970204775377
 11
-183.20197259761011
 21
39.4797020477539
  0
LINE
  5
234
100
AcDbEntity
  8
1
  6
CONTINUOUS
 62
             7
100
AcDbLine
 10
-183.20197259761011
 20
38.17970204775395
 11
-183.20197259761011
 21
31.27970204775397
  0
LINE
  5
233
100
AcDbEntity
  8
1
  6
CONTINUOUS
 62
             7
100
AcDbLine
 10
-207.87228649244511
 20
73.379702047754
 11
-180.20197259761019
 21
73.379702047754
  0
LINE
  5
232
100
AcDbEntity
  8
1
  6
CONTINUOUS
 62
             7
100
AcDbLine
 10
-207.87228649244511
 20
70.129702047754
 11
-196.20197259761011
 21
70.129702047754
  0
LINE
  5
231
100
AcDbEntity
  8
1
  6
CONTINUOUS
 62
             7
100
AcDbLine
 10
-207.87228649244511
 20
32.129702047754
 11
-229.20197259761011
 21
32.129702047754
  0
LINE
  5
230
100
AcDbEntity
  8
1
  6
CONTINUOUS
 62
             7
100
AcDbLine
 10
-207.87228649244511
 20
28.879702047754
 11
-273.20197259761011
 21
28.879702047754
  0
LINE
  5
22F
100
AcDbEntity
  8
1
  6
CONTINUOUS
 62
             7
100
AcDbLine
 10
-182.84983026277081
 20
70.97970204775379
 11
-182.84983026277081
 21
64.07970204775381
  0
LINE
  5
22E
100
AcDbEntity
  8
1
  6
CONTINUOUS
 62
             7
100
AcDbLine
 10
-182.84983026277081
 20
70.97970204775379
 11
-180.20197259761011
 21
70.97970204775379
  0
LINE
  5
22D
100
AcDbEntity
  8
1
  6
CONTINUOUS
 62
             7
100
AcDbLine
 10
-182.84983026277081
 20
64.07970204775381
 11
-180.20197259761011
 21
64.07970204775381
  0
LINE
  5
22C
100
AcDbEntity
  8
1
  6
CONTINUOUS
 62
             7
100
AcDbLine
 10
-182.84983026277081
 20
62.77970204775386
 11
-182.84983026277081
 21
55.879702047754
  0
LINE
  5
22B
100
AcDbEntity
  8
1
  6
CONTINUOUS
 62
             7
100
AcDbLine
 10
-182.84983026277081
 20
54.57970204775404
 11
-182.84983026277081
 21
47.67970204775406
  0
LINE
  5
22A
100
AcDbEntity
  8
1
  6
CONTINUOUS
 62
             7
100
AcDbLine
 10
-182.84983026277081
 20
46.37970204775411
 11
-182.84983026277081
 21
39.47970204775413
  0
LINE
  5
229
100
AcDbEntity
  8
1
  6
CONTINUOUS
 62
             7
100
AcDbLine
 10
-182.84983026277081
 20
38.17970204775418
 11
-182.84983026277081
 21
31.27970204775409
  0
LINE
  5
228
100
AcDbEntity
  8
1
  6
CONTINUOUS
 62
             7
100
AcDbLine
 10
-332.97282701557202
 20
27.12970204775401
 11
-321.97282701557202
 21
27.12970204775401
  0
LINE
  5
227
100
AcDbEntity
  8
1
  6
CONTINUOUS
 62
             7
100
AcDbLine
 10
-332.97282701557202
 20
28.22970204775401
 11
-321.97282701557202
 21
28.22970204775401
  0
LINE
  5
226
100
AcDbEntity
  8
1
  6
CONTINUOUS
 62
             7
100
AcDbLine
 10
-332.97282701557202
 20
75.129702047754
 11
-321.97282701557202
 21
75.129702047754
  0
LINE
  5
225
100
AcDbEntity
  8
1
  6
CONTINUOUS
 62
             7
100
AcDbLine
 10
-332.97282701557202
 20
74.029702047754
 11
-321.97282701557202
 21
74.029702047754
  0
LINE
  5
224
100
AcDbEntity
  8
1
  6
CONTINUOUS
 62
             7
100
AcDbLine
 10
-321.97282701557202
 20
74.029702047754
 11
-321.97282701557202
 21
75.129702047754
  0
LINE
  5
223
100
AcDbEntity
  8
1
  6
CONTINUOUS
 62
             7
100
AcDbLine
 10
-332.97282701557202
 20
74.029702047754
 11
-332.97282701557202
 21
75.129702047754
  0
LINE
  5
222
100
AcDbEntity
  8
1
  6
CONTINUOUS
 62
             7
100
AcDbLine
 10
-304.47282701557202
 20
27.129702047754
 11
-321.97282701557202
 21
27.12970204775401
  0
LINE
  5
221
100
AcDbEntity
  8
1
  6
CONTINUOUS
 62
             7
100
AcDbLine
 10
-332.97282701557202
 20
27.12970204775401
 11
-350.47282701557202
 21
27.129702047754
  0
LINE
  5
220
100
AcDbEntity
  8
1
  6
CONTINUOUS
 62
             7
100
AcDbLine
 10
-321.97282701557202
 20
27.12970204775401
 11
-321.97282701557202
 21
28.22970204775401
  0
LINE
  5
21F
100
AcDbEntity
  8
1
  6
CONTINUOUS
 62
             7
100
AcDbLine
 10
-332.97282701557202
 20
27.12970204775401
 11
-332.97282701557202
 21
28.22970204775401
  0
LINE
  5
21E
100
AcDbEntity
  8
1
  6
CONTINUOUS
 62
             7
100
AcDbLine
 10
-321.97282701557202
 20
75.129702047754
 11
-304.47282701557202
 21
75.129702047754
  0
LINE
  5
21D
100
AcDbEntity
  8
1
  6
CONTINUOUS
 62
             7
100
AcDbLine
 10
-350.47282701557202
 20
75.129702047754
 11
-332.97282701557202
 21
75.129702047754
  0
LINE
  5
21C
100
AcDbEntity
  8
1
  6
CONTINUOUS
 62
             7
100
AcDbLine
 10
-303.47282701557202
 20
74.129702047754
 11
-303.47282701557202
 21
28.129702047754
  0
LINE
  5
21B
100
AcDbEntity
  8
1
  6
CONTINUOUS
 62
             7
100
AcDbLine
 10
-349.72282701557202
 20
73.379702047754
 11
-305.22282701557202
 21
73.379702047754
  0
LINE
  5
21A
100
AcDbEntity
  8
1
  6
CONTINUOUS
 62
             7
100
AcDbLine
 10
-305.22282701557202
 20
73.379702047754
 11
-305.22282701557202
 21
28.879702047754
  0
LINE
  5
219
100
AcDbEntity
  8
1
  6
CONTINUOUS
 62
             7
100
AcDbLine
 10
-305.22282701557202
 20
28.879702047754
 11
-349.72282701557202
 21
28.879702047754
  0
LINE
  5
218
100
AcDbEntity
  8
1
  6
CONTINUOUS
 62
             7
100
AcDbLine
 10
-349.72282701557202
 20
28.879702047754
 11
-349.72282701557202
 21
73.379702047754
  0
LINE
  5
217
100
AcDbEntity
  8
1
  6
CONTINUOUS
 62
             7
100
AcDbLine
 10
-284.70197259761011
 20
74.32779580735632
 11
-284.70197259761011
 21
51.129702047754
  0
LINE
  5
216
100
AcDbEntity
  8
1
  6
CONTINUOUS
 62
             7
100
AcDbLine
 10
-284.70197259761011
 20
51.129702047754
 11
-284.70197259761011
 21
27.93160828815167
  0
LINE
  5
215
100
AcDbEntity
  8
1
  6
CONTINUOUS
 62
             7
100
AcDbLine
 10
-279.9019725976101
 20
75.129702047754
 11
-279.9019725976101
 21
28.22970204775402
  0
LINE
  5
214
100
AcDbEntity
  8
1
  6
CONTINUOUS
 62
             7
100
AcDbLine
 10
-284.2368508344822
 20
74.82657783248624
 11
-279.9019725976101
 21
75.129702047754
  0
LINE
  5
213
100
AcDbEntity
  8
1
  6
CONTINUOUS
 62
             7
100
AcDbLine
 10
-279.9019725976101
 20
28.22970204775402
 11
-279.9019725976101
 21
27.129702047754
  0
LINE
  5
212
100
AcDbEntity
  8
1
  6
CONTINUOUS
 62
             7
100
AcDbLine
 10
-279.9019725976101
 20
27.129702047754
 11
-284.2368508344822
 21
27.4328262630218
  0
LINE
  5
211
100
AcDbEntity
  8
1
  6
CONTINUOUS
 62
             7
100
AcDbLine
 10
-351.47282701557202
 20
74.129702047754
 11
-351.47282701557202
 21
28.129702047754
  0
LINE
  5
210
100
AcDbEntity
  8
1
  6
CONTINUOUS
 62
             7
100
AcDbLine
 10
-320.95976820228071
 20
52.48650317856683
 11
-320.57636756592092
 21
52.02958409278227
  0
LINE
  5
20F
100
AcDbEntity
  8
1
  6
CONTINUOUS
 62
             7
100
AcDbLine
 10
-328.45976820228071
 20
52.48650317856683
 11
-328.07636756592092
 21
52.02958409278227
  0
LINE
  5
20E
100
AcDbEntity
  8
1
  6
CONTINUOUS
 62
             7
100
AcDbLine
 10
-335.9597682022806
 20
52.48650317856683
 11
-335.57636756592092
 21
52.02958409278227
  0
LINE
  5
20D
100
AcDbEntity
  8
1
  6
CONTINUOUS
 62
             7
100
AcDbLine
 10
-343.4597682022806
 20
52.48650317856683
 11
-343.07636756592092
 21
52.02958409278227
  0
LINE
  5
20C
100
AcDbEntity
  8
1
  6
CONTINUOUS
 62
             7
100
AcDbLine
 10
-314.47282701557202
 20
47.12970204775402
 11
-310.47282701557202
 21
47.12970204775402
  0
LINE
  5
20B
100
AcDbEntity
  8
1
  6
CONTINUOUS
 62
             7
100
AcDbLine
 10
-334.8228270155721
 20
39.92970204775403
 11
-329.62282701557211
 21
39.92970204775403
  0
LINE
  5
20A
100
AcDbEntity
  8
1
  6
CONTINUOUS
 62
             7
100
AcDbLine
 10
-329.62282701557211
 20
39.92970204775403
 11
-332.22282701557202
 21
36.83114270700906
  0
LINE
  5
209
100
AcDbEntity
  8
1
  6
CONTINUOUS
 62
             7
100
AcDbLine
 10
-332.22282701557202
 20
36.83114270700906
 11
-334.8228270155721
 21
39.92970204775403
  0
LINE
  5
208
100
AcDbEntity
  8
1
  6
CONTINUOUS
 62
             7
100
AcDbLine
 10
-339.122827015572
 20
37.32970204775403
 11
-344.3228270155721
 21
37.32970204775403
  0
LINE
  5
207
100
AcDbEntity
  8
1
  6
CONTINUOUS
 62
             7
100
AcDbLine
 10
-341.72282701557202
 20
40.42826138849897
 11
-339.122827015572
 21
37.32970204775403
  0
LINE
  5
206
100
AcDbEntity
  8
1
  6
CONTINUOUS
 62
             7
100
AcDbLine
 10
-344.3228270155721
 20
37.32970204775403
 11
-341.72282701557202
 21
40.42826138849897
  0
LINE
  5
205
100
AcDbEntity
  8
1
  6
CONTINUOUS
 62
             7
100
AcDbLine
 10
-344.47282701557202
 20
46.62970204775402
 11
-344.47282701557202
 21
45.62970204775402
  0
LINE
  5
204
100
AcDbEntity
  8
1
  6
CONTINUOUS
 62
             7
100
AcDbLine
 10
-339.97282701557202
 20
47.12970204775402
 11
-343.97282701557202
 21
47.12970204775402
  0
LINE
  5
203
100
AcDbEntity
  8
1
  6
CONTINUOUS
 62
             7
100
AcDbLine
 10
-339.47282701557202
 20
45.62970204775404
 11
-339.47282701557202
 21
46.62970204775402
  0
LINE
  5
202
100
AcDbEntity
  8
1
  6
CONTINUOUS
 62
             7
100
AcDbLine
 10
-343.97282701557202
 20
45.12970204775402
 11
-339.97282701557202
 21
45.12970204775402
  0
LINE
  5
201
100
AcDbEntity
  8
1
  6
CONTINUOUS
 62
             7
100
AcDbLine
 10
-336.97282701557202
 20
46.62970204775402
 11
-336.97282701557202
 21
45.62970204775402
  0
LINE
  5
200
100
AcDbEntity
  8
1
  6
CONTINUOUS
 62
             7
100
AcDbLine
 10
-332.47282701557202
 20
47.12970204775402
 11
-336.47282701557202
 21
47.12970204775402
  0
LINE
  5
1FF
100
AcDbEntity
  8
1
  6
CONTINUOUS
 62
             7
100
AcDbLine
 10
-331.97282701557202
 20
45.62970204775402
 11
-331.97282701557202
 21
46.62970204775402
  0
LINE
  5
1FE
100
AcDbEntity
  8
1
  6
CONTINUOUS
 62
             7
100
AcDbLine
 10
-336.47282701557202
 20
45.12970204775402
 11
-332.47282701557202
 21
45.12970204775402
  0
LINE
  5
1FD
100
AcDbEntity
  8
1
  6
CONTINUOUS
 62
             7
100
AcDbLine
 10
-314.97282701557202
 20
66.62970204775402
 11
-314.97282701557202
 21
65.62970204775402
  0
LINE
  5
1FC
100
AcDbEntity
  8
1
  6
CONTINUOUS
 62
             7
100
AcDbLine
 10
-310.47282701557202
 20
67.12970204775402
 11
-314.47282701557202
 21
67.12970204775402
  0
LINE
  5
1FB
100
AcDbEntity
  8
1
  6
CONTINUOUS
 62
             7
100
AcDbLine
 10
-309.97282701557202
 20
65.62970204775402
 11
-309.97282701557202
 21
66.62970204775402
  0
LINE
  5
1FA
100
AcDbEntity
  8
1
  6
CONTINUOUS
 62
             7
100
AcDbLine
 10
-314.47282701557202
 20
65.12970204775402
 11
-310.47282701557202
 21
65.12970204775402
  0
LINE
  5
1F9
100
AcDbEntity
  8
1
  6
CONTINUOUS
 62
             7
100
AcDbLine
 10
-314.97282701557202
 20
60.62970204775402
 11
-314.97282701557202
 21
59.62970204775402
  0
LINE
  5
1F8
100
AcDbEntity
  8
1
  6
CONTINUOUS
 62
             7
100
AcDbLine
 10
-310.47282701557202
 20
61.12970204775402
 11
-314.47282701557202
 21
61.12970204775402
  0
LINE
  5
1F7
100
AcDbEntity
  8
1
  6
CONTINUOUS
 62
             7
100
AcDbLine
 10
-309.97282701557202
 20
59.62970204775402
 11
-309.97282701557202
 21
60.62970204775402
  0
LINE
  5
1F6
100
AcDbEntity
  8
1
  6
CONTINUOUS
 62
             7
100
AcDbLine
 10
-314.47282701557202
 20
59.12970204775402
 11
-310.47282701557202
 21
59.12970204775402
  0
LINE
  5
1F5
100
AcDbEntity
  8
1
  6
CONTINUOUS
 62
             7
100
AcDbLine
 10
-314.97282701557202
 20
54.62970204775402
 11
-314.97282701557202
 21
53.62970204775402
  0
LINE
  5
1F4
100
AcDbEntity
  8
1
  6
CONTINUOUS
 62
             7
100
AcDbLine
 10
-310.47282701557202
 20
55.12970204775402
 11
-314.47282701557202
 21
55.12970204775402
  0
LINE
  5
1F3
100
AcDbEntity
  8
1
  6
CONTINUOUS
 62
             7
100
AcDbLine
 10
-309.97282701557202
 20
53.62970204775402
 11
-309.97282701557202
 21
54.62970204775402
  0
LINE
  5
1F2
100
AcDbEntity
  8
1
  6
CONTINUOUS
 62
             7
100
AcDbLine
 10
-314.47282701557202
 20
53.12970204775402
 11
-310.47282701557202
 21
53.12970204775402
  0
LINE
  5
1F1
100
AcDbEntity
  8
1
  6
CONTINUOUS
 62
             7
100
AcDbLine
 10
-314.97282701557202
 20
48.62970204775402
 11
-314.97282701557202
 21
47.62970204775402
  0
LINE
  5
1F0
100
AcDbEntity
  8
1
  6
CONTINUOUS
 62
             7
100
AcDbLine
 10
-310.47282701557202
 20
49.12970204775402
 11
-314.47282701557202
 21
49.12970204775402
  0
LINE
  5
1EF
100
AcDbEntity
  8
1
  6
CONTINUOUS
 62
             7
100
AcDbLine
 10
-309.97282701557202
 20
47.62970204775402
 11
-309.97282701557202
 21
48.62970204775402
  0
LINE
  5
1EE
100
AcDbEntity
  8
1
  6
CONTINUOUS
 62
             7
100
AcDbLine
 10
-321.97282701557202
 20
46.62970204775402
 11
-321.97282701557202
 21
45.62970204775402
  0
LINE
  5
1ED
100
AcDbEntity
  8
1
  6
CONTINUOUS
 62
             7
100
AcDbLine
 10
-317.47282701557202
 20
47.12970204775402
 11
-321.47282701557202
 21
47.12970204775402
  0
LINE
  5
1EC
100
AcDbEntity
  8
1
  6
CONTINUOUS
 62
             7
100
AcDbLine
 10
-316.97282701557202
 20
45.62970204775402
 11
-316.97282701557202
 21
46.62970204775402
  0
LINE
  5
1EB
100
AcDbEntity
  8
1
  6
CONTINUOUS
 62
             7
100
AcDbLine
 10
-321.47282701557202
 20
45.12970204775402
 11
-317.47282701557202
 21
45.12970204775402
  0
LINE
  5
1EA
100
AcDbEntity
  8
1
  6
CONTINUOUS
 62
             7
100
AcDbLine
 10
-345.97282701557202
 20
44.12970204775404
 11
-308.97282701557202
 21
44.12970204775404
  0
LINE
  5
1E9
100
AcDbEntity
  8
1
  6
CONTINUOUS
 62
             7
100
AcDbLine
 10
-307.47282701557202
 20
45.62970204775404
 11
-307.47282701557202
 21
69.12970204775402
  0
LINE
  5
1E8
100
AcDbEntity
  8
1
  6
CONTINUOUS
 62
             7
100
AcDbLine
 10
-308.97282701557202
 20
70.62970204775402
 11
-345.97282701557202
 21
70.62970204775402
  0
LINE
  5
1E7
100
AcDbEntity
  8
1
  6
CONTINUOUS
 62
             7
100
AcDbLine
 10
-347.47282701557202
 20
69.12970204775402
 11
-347.47282701557202
 21
45.62970204775404
  0
LINE
  5
1E6
100
AcDbEntity
  8
1
  6
CONTINUOUS
 62
             7
100
AcDbLine
 10
-345.97282701557202
 20
34.12970204775404
 11
-308.97282701557202
 21
34.12970204775404
  0
LINE
  5
1E5
100
AcDbEntity
  8
1
  6
CONTINUOUS
 62
             7
100
AcDbLine
 10
-307.47282701557202
 20
35.62970204775404
 11
-307.47282701557202
 21
41.62970204775404
  0
LINE
  5
1E4
100
AcDbEntity
  8
1
  6
CONTINUOUS
 62
             7
100
AcDbLine
 10
-347.47282701557202
 20
41.62970204775404
 11
-347.47282701557202
 21
35.62970204775404
  0
LINE
  5
1E3
100
AcDbEntity
  8
1
  6
CONTINUOUS
 62
             7
100
AcDbLine
 10
-345.97282701557202
 20
41.12970204775404
 11
-345.97282701557202
 21
36.12970204775404
  0
LINE
  5
1E2
100
AcDbEntity
  8
1
  6
CONTINUOUS
 62
             7
100
AcDbLine
 10
-309.97282701557202
 20
42.12970204775404
 11
-344.97282701557202
 21
42.12970204775404
  0
LINE
  5
1E1
100
AcDbEntity
  8
1
  6
CONTINUOUS
 62
             7
100
AcDbLine
 10
-308.97282701557202
 20
36.12970204775404
 11
-308.97282701557202
 21
41.12970204775404
  0
LINE
  5
1E0
100
AcDbEntity
  8
1
  6
CONTINUOUS
 62
             7
100
AcDbLine
 10
-344.97282701557202
 20
35.12970204775404
 11
-309.97282701557202
 21
35.12970204775404
  0
LINE
  5
1DF
100
AcDbEntity
  8
1
  6
CONTINUOUS
 62
             7
100
AcDbLine
 10
-328.97282701557202
 20
45.12970204775402
 11
-324.97282701557202
 21
45.12970204775402
  0
LINE
  5
1DE
100
AcDbEntity
  8
1
  6
CONTINUOUS
 62
             7
100
AcDbLine
 10
-324.47282701557202
 20
45.62970204775402
 11
-324.47282701557202
 21
46.62970204775402
  0
LINE
  5
1DD
100
AcDbEntity
  8
1
  6
CONTINUOUS
 62
             7
100
AcDbLine
 10
-324.97282701557202
 20
47.12970204775402
 11
-328.97282701557202
 21
47.12970204775402
  0
LINE
  5
1DC
100
AcDbEntity
  8
1
  6
CONTINUOUS
 62
             7
100
AcDbLine
 10
-308.97282701557202
 20
43.12970204775404
 11
-345.97282701557202
 21
43.12970204775404
  0
LINE
  5
1DB
100
AcDbEntity
  8
1
  6
CONTINUOUS
 62
             7
100
AcDbLine
 10
-337.67282701557201
 20
38.92970204775403
 11
-336.27282701557198
 21
38.92970204775403
  0
LINE
  5
1DA
100
AcDbEntity
  8
1
  6
CONTINUOUS
 62
             7
100
AcDbLine
 10
-336.27282701557198
 20
38.32970204775403
 11
-337.67282701557201
 21
38.32970204775403
  0
LINE
  5
1D9
100
AcDbEntity
  8
1
  6
CONTINUOUS
 62
             7
100
AcDbLine
 10
-336.27282701557198
 20
39.52970204775402
 11
-337.67282701557201
 21
39.52970204775402
  0
LINE
  5
1D8
100
AcDbEntity
  8
1
  6
CONTINUOUS
 62
             7
100
AcDbLine
 10
-337.67282701557201
 20
40.12970204775404
 11
-336.27282701557198
 21
40.12970204775404
  0
LINE
  5
1D7
100
AcDbEntity
  8
1
  6
CONTINUOUS
 62
             7
100
AcDbLine
 10
-336.27282701557198
 20
37.12970204775404
 11
-337.67282701557201
 21
37.12970204775404
  0
LINE
  5
1D6
100
AcDbEntity
  8
1
  6
CONTINUOUS
 62
             7
100
AcDbLine
 10
-337.67282701557201
 20
37.72970204775401
 11
-336.27282701557198
 21
37.72970204775401
  0
LINE
  5
1D5
100
AcDbEntity
  8
1
  6
CONTINUOUS
 62
             7
100
AcDbLine
 10
-329.47282701557202
 20
46.62970204775402
 11
-329.47282701557202
 21
45.62970204775404
  0
LINE
  5
1D4
100
AcDbEntity
  8
1
  6
CONTINUOUS
 62
             7
100
AcDbLine
 10
-321.89346876416289
 20
58.50114835306575
 11
-321.06491506947481
 21
59.329702047754
  0
LINE
  5
1D3
100
AcDbEntity
  8
1
  6
CONTINUOUS
 62
             7
100
AcDbLine
 10
-321.06491506947481
 20
59.329702047754
 11
-319.09976286492821
 21
59.329702047754
  0
LINE
  5
1D2
100
AcDbEntity
  8
1
  6
CONTINUOUS
 62
             7
100
AcDbLine
 10
-319.09976286492821
 20
59.329702047754
 11
-318.46741673479448
 21
58.4266181824326
  0
LINE
  5
1D1
100
AcDbEntity
  8
1
  6
CONTINUOUS
 62
             7
100
AcDbLine
 10
-318.93986354245402
 20
58.329702047754
 11
-321.27534474979109
 21
58.329702047754
  0
LINE
  5
1D0
100
AcDbEntity
  8
1
  6
CONTINUOUS
 62
             7
100
AcDbLine
 10
-322.45711405340569
 20
59.73807986095432
 11
-322.07890545331242
 21
61.88300741868718
  0
LINE
  5
1CF
100
AcDbEntity
  8
1
  6
CONTINUOUS
 62
             7
100
AcDbLine
 10
-322.07890545331242
 20
61.88300741868718
 11
-321.3782269222902
 21
62.58368594970931
  0
LINE
  5
1CE
100
AcDbEntity
  8
1
  6
CONTINUOUS
 62
             7
100
AcDbLine
 10
-321.3782269222902
 20
62.58368594970931
 11
-321.02809970636162
 21
62.08365246417478
  0
LINE
  5
1CD
100
AcDbEntity
  8
1
  6
CONTINUOUS
 62
             7
100
AcDbLine
 10
-321.02809970636162
 20
62.08365246417478
 11
-321.42811986957167
 21
59.81502538508079
  0
LINE
  5
1CC
100
AcDbEntity
  8
1
  6
CONTINUOUS
 62
             7
100
AcDbLine
 10
-321.42811986957167
 20
59.81502538508079
 11
-322.31416067410038
 21
58.92898458055216
  0
LINE
  5
1CB
100
AcDbEntity
  8
1
  6
CONTINUOUS
 62
             7
100
AcDbLine
 10
-320.9474178964532
 20
63.01449497554629
 11
-320.33221082424541
 21
63.62970204775402
  0
LINE
  5
1CA
100
AcDbEntity
  8
1
  6
CONTINUOUS
 62
             7
100
AcDbLine
 10
-320.33221082424541
 20
63.62970204775402
 11
-318.26767104338069
 21
63.62970204775402
  0
LINE
  5
1C9
100
AcDbEntity
  8
1
  6
CONTINUOUS
 62
             7
100
AcDbLine
 10
-318.26767104338069
 20
63.62970204775402
 11
-317.99823613469079
 21
63.2449091199617
  0
LINE
  5
1C8
100
AcDbEntity
  8
1
  6
CONTINUOUS
 62
             7
100
AcDbLine
 10
-317.99823613469079
 20
63.2449091199617
 11
-318.61344320689852
 21
62.62970204775402
  0
LINE
  5
1C7
100
AcDbEntity
  8
1
  6
CONTINUOUS
 62
             7
100
AcDbLine
 10
-318.61344320689852
 20
62.62970204775402
 11
-320.67798298776319
 21
62.62970204775402
  0
LINE
  5
1C6
100
AcDbEntity
  8
1
  6
CONTINUOUS
 62
             7
100
AcDbLine
 10
-320.67798298776319
 20
62.62970204775402
 11
-320.9474178964532
 21
63.01449497554629
  0
LINE
  5
1C5
100
AcDbEntity
  8
1
  6
CONTINUOUS
 62
             7
100
AcDbLine
 10
-317.64878126823788
 20
62.74583584899069
 11
-317.2537401141999
 21
62.18165861227012
  0
LINE
  5
1C4
100
AcDbEntity
  8
1
  6
CONTINUOUS
 62
             7
100
AcDbLine
 10
-317.2537401141999
 20
62.18165861227012
 11
-317.75809423883931
 21
59.32132423455369
  0
LINE
  5
1C3
100
AcDbEntity
  8
1
  6
CONTINUOUS
 62
             7
100
AcDbLine
 10
-317.99202843940208
 20
58.79376141331206
 11
-318.69062348816658
 21
59.79145853972506
  0
LINE
  5
1C2
100
AcDbEntity
  8
1
  6
CONTINUOUS
 62
             7
100
AcDbLine
 10
-318.69062348816658
 20
59.79145853972506
 11
-318.2811994450048
 21
62.11341767222397
  0
LINE
  5
1C1
100
AcDbEntity
  8
1
  6
CONTINUOUS
 62
             7
100
AcDbLine
 10
-318.2811994450048
 20
62.11341767222397
 11
-317.64878126823788
 21
62.74583584899069
  0
LINE
  5
1C0
100
AcDbEntity
  8
1
  6
CONTINUOUS
 62
             7
100
AcDbLine
 10
-321.29687276290599
 20
63.5135682465173
 11
-321.6919139169442
 21
64.07774548323792
  0
LINE
  5
1BF
100
AcDbEntity
  8
1
  6
CONTINUOUS
 62
             7
100
AcDbLine
 10
-321.6919139169442
 20
64.07774548323792
 11
-321.1875597923048
 21
66.93807986095433
  0
LINE
  5
1BE
100
AcDbEntity
  8
1
  6
CONTINUOUS
 62
             7
100
AcDbLine
 10
-320.95362559174191
 20
67.46564268219598
 11
-320.25503054297752
 21
66.46794555578298
  0
LINE
  5
1BD
100
AcDbEntity
  8
1
  6
CONTINUOUS
 62
             7
100
AcDbLine
 10
-320.25503054297752
 20
66.46794555578298
 11
-320.66445458613941
 21
64.14598642328397
  0
LINE
  5
1BC
100
AcDbEntity
  8
1
  6
CONTINUOUS
 62
             7
100
AcDbLine
 10
-320.66445458613941
 20
64.14598642328397
 11
-321.29687276290599
 21
63.5135682465173
  0
LINE
  5
1BB
100
AcDbEntity
  8
1
  6
CONTINUOUS
 62
             7
100
AcDbLine
 10
-319.84589116621589
 20
66.92970204775403
 11
-320.47823729634962
 21
67.83278591307544
  0
LINE
  5
1BA
100
AcDbEntity
  8
1
  6
CONTINUOUS
 62
             7
100
AcDbLine
 10
-320.00579048869008
 20
67.92970204775403
 11
-317.67030928135301
 21
67.92970204775403
  0
LINE
  5
1B9
100
AcDbEntity
  8
1
  6
CONTINUOUS
 62
             7
100
AcDbLine
 10
-317.05218526698098
 20
67.75825574244225
 11
-317.88073896166929
 21
66.92970204775403
  0
LINE
  5
1B8
100
AcDbEntity
  8
1
  6
CONTINUOUS
 62
             7
100
AcDbLine
 10
-317.88073896166929
 20
66.92970204775403
 11
-319.84589116621589
 21
66.92970204775403
  0
LINE
  5
1B7
100
AcDbEntity
  8
1
  6
CONTINUOUS
 62
             7
100
AcDbLine
 10
-317.91755432478237
 20
64.1757516313333
 11
-317.51753416157231
 21
66.44437871042715
  0
LINE
  5
1B6
100
AcDbEntity
  8
1
  6
CONTINUOUS
 62
             7
100
AcDbLine
 10
-317.51753416157231
 20
66.44437871042715
 11
-316.63149335704361
 21
67.33041951495582
  0
LINE
  5
1B5
100
AcDbEntity
  8
1
  6
CONTINUOUS
 62
             7
100
AcDbLine
 10
-316.48853997773841
 20
66.5213242345537
 11
-316.86674857783169
 21
64.37639667682078
  0
LINE
  5
1B4
100
AcDbEntity
  8
1
  6
CONTINUOUS
 62
             7
100
AcDbLine
 10
-316.86674857783169
 20
64.37639667682078
 11
-317.56742710885391
 21
63.6757181457987
  0
LINE
  5
1B3
100
AcDbEntity
  8
1
  6
CONTINUOUS
 62
             7
100
AcDbLine
 10
-317.56742710885391
 20
63.6757181457987
 11
-317.91755432478237
 21
64.1757516313333
  0
LINE
  5
1B2
100
AcDbEntity
  8
1
  6
CONTINUOUS
 62
             7
100
AcDbLine
 10
-325.06742710885391
 20
63.6757181457987
 11
-325.41755432478237
 21
64.1757516313333
  0
LINE
  5
1B1
100
AcDbEntity
  8
1
  6
CONTINUOUS
 62
             7
100
AcDbLine
 10
-324.36674857783169
 20
64.37639667682078
 11
-325.06742710885391
 21
63.6757181457987
  0
LINE
  5
1B0
100
AcDbEntity
  8
1
  6
CONTINUOUS
 62
             7
100
AcDbLine
 10
-323.98853997773841
 20
66.5213242345537
 11
-324.36674857783169
 21
64.37639667682078
  0
LINE
  5
1AF
100
AcDbEntity
  8
1
  6
CONTINUOUS
 62
             7
100
AcDbLine
 10
-325.01753416157231
 20
66.44437871042715
 11
-324.13149335704361
 21
67.33041951495582
  0
LINE
  5
1AE
100
AcDbEntity
  8
1
  6
CONTINUOUS
 62
             7
100
AcDbLine
 10
-325.41755432478237
 20
64.1757516313333
 11
-325.01753416157231
 21
66.44437871042715
  0
LINE
  5
1AD
100
AcDbEntity
  8
1
  6
CONTINUOUS
 62
             7
100
AcDbLine
 10
-325.38073896166929
 20
66.92970204775403
 11
-327.34589116621589
 21
66.92970204775403
  0
LINE
  5
1AC
100
AcDbEntity
  8
1
  6
CONTINUOUS
 62
             7
100
AcDbLine
 10
-324.55218526698098
 20
67.75825574244225
 11
-325.38073896166929
 21
66.92970204775403
  0
LINE
  5
1AB
100
AcDbEntity
  8
1
  6
CONTINUOUS
 62
             7
100
AcDbLine
 10
-327.50579048869008
 20
67.92970204775403
 11
-325.17030928135301
 21
67.92970204775403
  0
LINE
  5
1AA
100
AcDbEntity
  8
1
  6
CONTINUOUS
 62
             7
100
AcDbLine
 10
-327.34589116621589
 20
66.92970204775403
 11
-327.9782372963495
 21
67.83278591307544
  0
LINE
  5
1A9
100
AcDbEntity
  8
1
  6
CONTINUOUS
 62
             7
100
AcDbLine
 10
-328.16445458613941
 20
64.14598642328397
 11
-328.79687276290599
 21
63.5135682465173
  0
LINE
  5
1A8
100
AcDbEntity
  8
1
  6
CONTINUOUS
 62
             7
100
AcDbLine
 10
-327.75503054297752
 20
66.46794555578298
 11
-328.16445458613941
 21
64.14598642328397
  0
LINE
  5
1A7
100
AcDbEntity
  8
1
  6
CONTINUOUS
 62
             7
100
AcDbLine
 10
-328.45362559174191
 20
67.46564268219598
 11
-327.75503054297752
 21
66.46794555578298
  0
LINE
  5
1A6
100
AcDbEntity
  8
1
  6
CONTINUOUS
 62
             7
100
AcDbLine
 10
-329.1919139169442
 20
64.07774548323792
 11
-328.6875597923048
 21
66.93807986095433
  0
LINE
  5
1A5
100
AcDbEntity
  8
1
  6
CONTINUOUS
 62
             7
100
AcDbLine
 10
-328.79687276290599
 20
63.5135682465173
 11
-329.1919139169442
 21
64.07774548323792
  0
LINE
  5
1A4
100
AcDbEntity
  8
1
  6
CONTINUOUS
 62
             7
100
AcDbLine
 10
-325.7811994450048
 20
62.11341767222397
 11
-325.14878126823788
 21
62.74583584899069
  0
LINE
  5
1A3
100
AcDbEntity
  8
1
  6
CONTINUOUS
 62
             7
100
AcDbLine
 10
-326.19062348816658
 20
59.79145853972506
 11
-325.7811994450048
 21
62.11341767222397
  0
LINE
  5
1A2
100
AcDbEntity
  8
1
  6
CONTINUOUS
 62
             7
100
AcDbLine
 10
-325.49202843940208
 20
58.79376141331206
 11
-326.19062348816658
 21
59.79145853972506
  0
LINE
  5
1A1
100
AcDbEntity
  8
1
  6
CONTINUOUS
 62
             7
100
AcDbLine
 10
-324.7537401141999
 20
62.18165861227012
 11
-325.25809423883931
 21
59.32132423455369
  0
LINE
  5
1A0
100
AcDbEntity
  8
1
  6
CONTINUOUS
 62
             7
100
AcDbLine
 10
-325.14878126823788
 20
62.74583584899069
 11
-324.7537401141999
 21
62.18165861227012
  0
LINE
  5
19F
100
AcDbEntity
  8
1
  6
CONTINUOUS
 62
             7
100
AcDbLine
 10
-328.17798298776319
 20
62.62970204775402
 11
-328.4474178964532
 21
63.01449497554629
  0
LINE
  5
19E
100
AcDbEntity
  8
1
  6
CONTINUOUS
 62
             7
100
AcDbLine
 10
-326.11344320689852
 20
62.62970204775402
 11
-328.17798298776319
 21
62.62970204775402
  0
LINE
  5
19D
100
AcDbEntity
  8
1
  6
CONTINUOUS
 62
             7
100
AcDbLine
 10
-325.49823613469079
 20
63.2449091199617
 11
-326.11344320689852
 21
62.62970204775402
  0
LINE
  5
19C
100
AcDbEntity
  8
1
  6
CONTINUOUS
 62
             7
100
AcDbLine
 10
-325.7676710433808
 20
63.62970204775402
 11
-325.49823613469079
 21
63.2449091199617
  0
LINE
  5
19B
100
AcDbEntity
  8
1
  6
CONTINUOUS
 62
             7
100
AcDbLine
 10
-327.83221082424541
 20
63.62970204775402
 11
-325.7676710433808
 21
63.62970204775402
  0
LINE
  5
19A
100
AcDbEntity
  8
1
  6
CONTINUOUS
 62
             7
100
AcDbLine
 10
-328.4474178964532
 20
63.01449497554629
 11
-327.83221082424541
 21
63.62970204775402
  0
LINE
  5
199
100
AcDbEntity
  8
1
  6
CONTINUOUS
 62
             7
100
AcDbLine
 10
-328.92811986957167
 20
59.81502538508079
 11
-329.81416067410038
 21
58.92898458055216
  0
LINE
  5
198
100
AcDbEntity
  8
1
  6
CONTINUOUS
 62
             7
100
AcDbLine
 10
-328.52809970636162
 20
62.08365246417478
 11
-328.92811986957167
 21
59.81502538508079
  0
LINE
  5
197
100
AcDbEntity
  8
1
  6
CONTINUOUS
 62
             7
100
AcDbLine
 10
-328.8782269222902
 20
62.58368594970931
 11
-328.52809970636162
 21
62.08365246417478
  0
LINE
  5
196
100
AcDbEntity
  8
1
  6
CONTINUOUS
 62
             7
100
AcDbLine
 10
-329.57890545331242
 20
61.88300741868718
 11
-328.8782269222902
 21
62.58368594970931
  0
LINE
  5
195
100
AcDbEntity
  8
1
  6
CONTINUOUS
 62
             7
100
AcDbLine
 10
-329.9571140534058
 20
59.73807986095432
 11
-329.57890545331242
 21
61.88300741868718
  0
LINE
  5
194
100
AcDbEntity
  8
1
  6
CONTINUOUS
 62
             7
100
AcDbLine
 10
-326.43986354245402
 20
58.329702047754
 11
-328.7753447497912
 21
58.329702047754
  0
LINE
  5
193
100
AcDbEntity
  8
1
  6
CONTINUOUS
 62
             7
100
AcDbLine
 10
-326.59976286492821
 20
59.329702047754
 11
-325.96741673479448
 21
58.4266181824326
  0
LINE
  5
192
100
AcDbEntity
  8
1
  6
CONTINUOUS
 62
             7
100
AcDbLine
 10
-328.56491506947481
 20
59.329702047754
 11
-326.59976286492821
 21
59.329702047754
  0
LINE
  5
191
100
AcDbEntity
  8
1
  6
CONTINUOUS
 62
             7
100
AcDbLine
 10
-329.393468764163
 20
58.50114835306575
 11
-328.56491506947481
 21
59.329702047754
  0
LINE
  5
190
100
AcDbEntity
  8
1
  6
CONTINUOUS
 62
             7
100
AcDbLine
 10
-332.56742710885391
 20
63.6757181457987
 11
-332.91755432478237
 21
64.1757516313333
  0
LINE
  5
18F
100
AcDbEntity
  8
1
  6
CONTINUOUS
 62
             7
100
AcDbLine
 10
-331.86674857783169
 20
64.37639667682078
 11
-332.56742710885391
 21
63.6757181457987
  0
LINE
  5
18E
100
AcDbEntity
  8
1
  6
CONTINUOUS
 62
             7
100
AcDbLine
 10
-331.48853997773841
 20
66.5213242345537
 11
-331.86674857783169
 21
64.37639667682078
  0
LINE
  5
18D
100
AcDbEntity
  8
1
  6
CONTINUOUS
 62
             7
100
AcDbLine
 10
-332.51753416157231
 20
66.44437871042715
 11
-331.63149335704361
 21
67.33041951495582
  0
LINE
  5
18C
100
AcDbEntity
  8
1
  6
CONTINUOUS
 62
             7
100
AcDbLine
 10
-332.91755432478237
 20
64.1757516313333
 11
-332.51753416157231
 21
66.44437871042715
  0
LINE
  5
18B
100
AcDbEntity
  8
1
  6
CONTINUOUS
 62
             7
100
AcDbLine
 10
-332.88073896166929
 20
66.92970204775403
 11
-334.84589116621601
 21
66.92970204775403
  0
LINE
  5
18A
100
AcDbEntity
  8
1
  6
CONTINUOUS
 62
             7
100
AcDbLine
 10
-332.05218526698098
 20
67.75825574244225
 11
-332.88073896166929
 21
66.92970204775403
  0
LINE
  5
189
100
AcDbEntity
  8
1
  6
CONTINUOUS
 62
             7
100
AcDbLine
 10
-335.00579048869008
 20
67.92970204775403
 11
-332.67030928135301
 21
67.92970204775403
  0
LINE
  5
188
100
AcDbEntity
  8
1
  6
CONTINUOUS
 62
             7
100
AcDbLine
 10
-334.84589116621601
 20
66.92970204775403
 11
-335.4782372963495
 21
67.83278591307544
  0
LINE
  5
187
100
AcDbEntity
  8
1
  6
CONTINUOUS
 62
             7
100
AcDbLine
 10
-335.66445458613941
 20
64.14598642328397
 11
-336.2968727629061
 21
63.5135682465173
  0
LINE
  5
186
100
AcDbEntity
  8
1
  6
CONTINUOUS
 62
             7
100
AcDbLine
 10
-335.25503054297741
 20
66.46794555578298
 11
-335.66445458613941
 21
64.14598642328397
  0
LINE
  5
185
100
AcDbEntity
  8
1
  6
CONTINUOUS
 62
             7
100
AcDbLine
 10
-335.95362559174191
 20
67.46564268219598
 11
-335.25503054297741
 21
66.46794555578298
  0
LINE
  5
184
100
AcDbEntity
  8
1
  6
CONTINUOUS
 62
             7
100
AcDbLine
 10
-336.6919139169442
 20
64.07774548323792
 11
-336.18755979230491
 21
66.93807986095433
  0
LINE
  5
183
100
AcDbEntity
  8
1
  6
CONTINUOUS
 62
             7
100
AcDbLine
 10
-336.2968727629061
 20
63.5135682465173
 11
-336.6919139169442
 21
64.07774548323792
  0
LINE
  5
182
100
AcDbEntity
  8
1
  6
CONTINUOUS
 62
             7
100
AcDbLine
 10
-333.2811994450048
 20
62.11341767222397
 11
-332.64878126823788
 21
62.74583584899069
  0
LINE
  5
181
100
AcDbEntity
  8
1
  6
CONTINUOUS
 62
             7
100
AcDbLine
 10
-333.69062348816658
 20
59.79145853972506
 11
-333.2811994450048
 21
62.11341767222397
  0
LINE
  5
180
100
AcDbEntity
  8
1
  6
CONTINUOUS
 62
             7
100
AcDbLine
 10
-332.99202843940208
 20
58.79376141331206
 11
-333.69062348816658
 21
59.79145853972506
  0
LINE
  5
17F
100
AcDbEntity
  8
1
  6
CONTINUOUS
 62
             7
100
AcDbLine
 10
-332.2537401141999
 20
62.18165861227012
 11
-332.75809423883931
 21
59.32132423455369
  0
LINE
  5
17E
100
AcDbEntity
  8
1
  6
CONTINUOUS
 62
             7
100
AcDbLine
 10
-332.64878126823788
 20
62.74583584899069
 11
-332.2537401141999
 21
62.18165861227012
  0
LINE
  5
17D
100
AcDbEntity
  8
1
  6
CONTINUOUS
 62
             7
100
AcDbLine
 10
-335.67798298776319
 20
62.62970204775402
 11
-335.94741789645332
 21
63.01449497554629
  0
LINE
  5
17C
100
AcDbEntity
  8
1
  6
CONTINUOUS
 62
             7
100
AcDbLine
 10
-333.61344320689852
 20
62.62970204775402
 11
-335.67798298776319
 21
62.62970204775402
  0
LINE
  5
17B
100
AcDbEntity
  8
1
  6
CONTINUOUS
 62
             7
100
AcDbLine
 10
-332.99823613469079
 20
63.2449091199617
 11
-333.61344320689852
 21
62.62970204775402
  0
LINE
  5
17A
100
AcDbEntity
  8
1
  6
CONTINUOUS
 62
             7
100
AcDbLine
 10
-333.2676710433808
 20
63.62970204775402
 11
-332.99823613469079
 21
63.2449091199617
  0
LINE
  5
179
100
AcDbEntity
  8
1
  6
CONTINUOUS
 62
             7
100
AcDbLine
 10
-335.33221082424541
 20
63.62970204775402
 11
-333.2676710433808
 21
63.62970204775402
  0
LINE
  5
178
100
AcDbEntity
  8
1
  6
CONTINUOUS
 62
             7
100
AcDbLine
 10
-335.94741789645332
 20
63.01449497554629
 11
-335.33221082424541
 21
63.62970204775402
  0
LINE
  5
177
100
AcDbEntity
  8
1
  6
CONTINUOUS
 62
             7
100
AcDbLine
 10
-336.42811986957167
 20
59.81502538508079
 11
-337.31416067410038
 21
58.92898458055216
  0
LINE
  5
176
100
AcDbEntity
  8
1
  6
CONTINUOUS
 62
             7
100
AcDbLine
 10
-336.02809970636162
 20
62.08365246417478
 11
-336.42811986957167
 21
59.81502538508079
  0
LINE
  5
175
100
AcDbEntity
  8
1
  6
CONTINUOUS
 62
             7
100
AcDbLine
 10
-336.37822692229031
 20
62.58368594970931
 11
-336.02809970636162
 21
62.08365246417478
  0
LINE
  5
174
100
AcDbEntity
  8
1
  6
CONTINUOUS
 62
             7
100
AcDbLine
 10
-337.0789054533123
 20
61.88300741868718
 11
-336.37822692229031
 21
62.58368594970931
  0
LINE
  5
173
100
AcDbEntity
  8
1
  6
CONTINUOUS
 62
             7
100
AcDbLine
 10
-337.4571140534058
 20
59.73807986095432
 11
-337.0789054533123
 21
61.88300741868718
  0
LINE
  5
172
100
AcDbEntity
  8
1
  6
CONTINUOUS
 62
             7
100
AcDbLine
 10
-333.93986354245391
 20
58.329702047754
 11
-336.2753447497912
 21
58.329702047754
  0
LINE
  5
171
100
AcDbEntity
  8
1
  6
CONTINUOUS
 62
             7
100
AcDbLine
 10
-334.09976286492821
 20
59.329702047754
 11
-333.46741673479448
 21
58.4266181824326
  0
LINE
  5
170
100
AcDbEntity
  8
1
  6
CONTINUOUS
 62
             7
100
AcDbLine
 10
-336.06491506947469
 20
59.329702047754
 11
-334.09976286492821
 21
59.329702047754
  0
LINE
  5
16F
100
AcDbEntity
  8
1
  6
CONTINUOUS
 62
             7
100
AcDbLine
 10
-336.893468764163
 20
58.50114835306575
 11
-336.06491506947469
 21
59.329702047754
  0
LINE
  5
16E
100
AcDbEntity
  8
1
  6
CONTINUOUS
 62
             7
100
AcDbLine
 10
-340.06742710885379
 20
63.6757181457987
 11
-340.41755432478237
 21
64.1757516313333
  0
LINE
  5
16D
100
AcDbEntity
  8
1
  6
CONTINUOUS
 62
             7
100
AcDbLine
 10
-339.36674857783169
 20
64.37639667682078
 11
-340.06742710885379
 21
63.6757181457987
  0
LINE
  5
16C
100
AcDbEntity
  8
1
  6
CONTINUOUS
 62
             7
100
AcDbLine
 10
-338.9885399777383
 20
66.5213242345537
 11
-339.36674857783169
 21
64.37639667682078
  0
LINE
  5
16B
100
AcDbEntity
  8
1
  6
CONTINUOUS
 62
             7
100
AcDbLine
 10
-340.01753416157231
 20
66.44437871042715
 11
-339.13149335704361
 21
67.33041951495582
  0
LINE
  5
16A
100
AcDbEntity
  8
1
  6
CONTINUOUS
 62
             7
100
AcDbLine
 10
-340.41755432478237
 20
64.1757516313333
 11
-340.01753416157231
 21
66.44437871042715
  0
LINE
  5
169
100
AcDbEntity
  8
1
  6
CONTINUOUS
 62
             7
100
AcDbLine
 10
-340.38073896166941
 20
66.92970204775403
 11
-342.34589116621601
 21
66.92970204775403
  0
LINE
  5
168
100
AcDbEntity
  8
1
  6
CONTINUOUS
 62
             7
100
AcDbLine
 10
-339.55218526698098
 20
67.75825574244225
 11
-340.38073896166941
 21
66.92970204775403
  0
LINE
  5
167
100
AcDbEntity
  8
1
  6
CONTINUOUS
 62
             7
100
AcDbLine
 10
-342.50579048869008
 20
67.92970204775403
 11
-340.1703092813529
 21
67.92970204775403
  0
LINE
  5
166
100
AcDbEntity
  8
1
  6
CONTINUOUS
 62
             7
100
AcDbLine
 10
-342.34589116621601
 20
66.92970204775403
 11
-342.9782372963495
 21
67.83278591307544
  0
LINE
  5
165
100
AcDbEntity
  8
1
  6
CONTINUOUS
 62
             7
100
AcDbLine
 10
-343.16445458613941
 20
64.14598642328397
 11
-343.7968727629061
 21
63.5135682465173
  0
LINE
  5
164
100
AcDbEntity
  8
1
  6
CONTINUOUS
 62
             7
100
AcDbLine
 10
-342.75503054297741
 20
66.46794555578298
 11
-343.16445458613941
 21
64.14598642328397
  0
LINE
  5
163
100
AcDbEntity
  8
1
  6
CONTINUOUS
 62
             7
100
AcDbLine
 10
-343.45362559174191
 20
67.46564268219598
 11
-342.75503054297741
 21
66.46794555578298
  0
LINE
  5
162
100
AcDbEntity
  8
1
  6
CONTINUOUS
 62
             7
100
AcDbLine
 10
-344.1919139169442
 20
64.07774548323792
 11
-343.68755979230491
 21
66.93807986095433
  0
LINE
  5
161
100
AcDbEntity
  8
1
  6
CONTINUOUS
 62
             7
100
AcDbLine
 10
-343.7968727629061
 20
63.5135682465173
 11
-344.1919139169442
 21
64.07774548323792
  0
LINE
  5
160
100
AcDbEntity
  8
1
  6
CONTINUOUS
 62
             7
100
AcDbLine
 10
-340.7811994450048
 20
62.11341767222397
 11
-340.14878126823788
 21
62.74583584899069
  0
LINE
  5
15F
100
AcDbEntity
  8
1
  6
CONTINUOUS
 62
             7
100
AcDbLine
 10
-341.19062348816658
 20
59.79145853972506
 11
-340.7811994450048
 21
62.11341767222397
  0
LINE
  5
15E
100
AcDbEntity
  8
1
  6
CONTINUOUS
 62
             7
100
AcDbLine
 10
-340.49202843940208
 20
58.79376141331206
 11
-341.19062348816658
 21
59.79145853972506
  0
LINE
  5
15D
100
AcDbEntity
  8
1
  6
CONTINUOUS
 62
             7
100
AcDbLine
 10
-339.75374011420001
 20
62.18165861227012
 11
-340.25809423883919
 21
59.32132423455369
  0
LINE
  5
15C
100
AcDbEntity
  8
1
  6
CONTINUOUS
 62
             7
100
AcDbLine
 10
-340.14878126823788
 20
62.74583584899069
 11
-339.75374011420001
 21
62.18165861227012
  0
LINE
  5
15B
100
AcDbEntity
  8
1
  6
CONTINUOUS
 62
             7
100
AcDbLine
 10
-343.17798298776319
 20
62.62970204775402
 11
-343.44741789645332
 21
63.01449497554629
  0
LINE
  5
15A
100
AcDbEntity
  8
1
  6
CONTINUOUS
 62
             7
100
AcDbLine
 10
-341.11344320689852
 20
62.62970204775402
 11
-343.17798298776319
 21
62.62970204775402
  0
LINE
  5
159
100
AcDbEntity
  8
1
  6
CONTINUOUS
 62
             7
100
AcDbLine
 10
-340.49823613469079
 20
63.2449091199617
 11
-341.11344320689852
 21
62.62970204775402
  0
LINE
  5
158
100
AcDbEntity
  8
1
  6
CONTINUOUS
 62
             7
100
AcDbLine
 10
-340.76767104338091
 20
63.62970204775402
 11
-340.49823613469079
 21
63.2449091199617
  0
LINE
  5
157
100
AcDbEntity
  8
1
  6
CONTINUOUS
 62
             7
100
AcDbLine
 10
-342.83221082424552
 20
63.62970204775402
 11
-340.76767104338091
 21
63.62970204775402
  0
LINE
  5
156
100
AcDbEntity
  8
1
  6
CONTINUOUS
 62
             7
100
AcDbLine
 10
-343.44741789645332
 20
63.01449497554629
 11
-342.83221082424552
 21
63.62970204775402
  0
LINE
  5
155
100
AcDbEntity
  8
1
  6
CONTINUOUS
 62
             7
100
AcDbLine
 10
-343.92811986957167
 20
59.81502538508079
 11
-344.81416067410038
 21
58.92898458055216
  0
LINE
  5
154
100
AcDbEntity
  8
1
  6
CONTINUOUS
 62
             7
100
AcDbLine
 10
-343.52809970636162
 20
62.08365246417478
 11
-343.92811986957167
 21
59.81502538508079
  0
LINE
  5
153
100
AcDbEntity
  8
1
  6
CONTINUOUS
 62
             7
100
AcDbLine
 10
-343.87822692229031
 20
62.58368594970931
 11
-343.52809970636162
 21
62.08365246417478
  0
LINE
  5
152
100
AcDbEntity
  8
1
  6
CONTINUOUS
 62
             7
100
AcDbLine
 10
-344.5789054533123
 20
61.88300741868718
 11
-343.87822692229031
 21
62.58368594970931
  0
LINE
  5
151
100
AcDbEntity
  8
1
  6
CONTINUOUS
 62
             7
100
AcDbLine
 10
-344.9571140534058
 20
59.73807986095432
 11
-344.5789054533123
 21
61.88300741868718
  0
LINE
  5
150
100
AcDbEntity
  8
1
  6
CONTINUOUS
 62
             7
100
AcDbLine
 10
-341.43986354245391
 20
58.329702047754
 11
-343.7753447497912
 21
58.329702047754
  0
LINE
  5
14F
100
AcDbEntity
  8
1
  6
CONTINUOUS
 62
             7
100
AcDbLine
 10
-341.5997628649281
 20
59.329702047754
 11
-340.96741673479448
 21
58.4266181824326
  0
LINE
  5
14E
100
AcDbEntity
  8
1
  6
CONTINUOUS
 62
             7
100
AcDbLine
 10
-343.56491506947469
 20
59.329702047754
 11
-341.5997628649281
 21
59.329702047754
  0
LINE
  5
14D
100
AcDbEntity
  8
1
  6
CONTINUOUS
 62
             7
100
AcDbLine
 10
-344.393468764163
 20
58.50114835306575
 11
-343.56491506947469
 21
59.329702047754
  0
LINE
  5
14C
100
AcDbEntity
  8
1
  6
CONTINUOUS
 62
             7
100
AcDbLine
 10
-322.06034676905512
 20
48.37067736834364
 11
-321.27495173975939
 21
49.02970204775402
  0
LINE
  5
14B
100
AcDbEntity
  8
1
  6
CONTINUOUS
 62
             7
100
AcDbLine
 10
-321.27495173975939
 20
49.02970204775402
 11
-318.84241202196182
 21
49.02970204775402
  0
LINE
  5
14A
100
AcDbEntity
  8
1
  6
CONTINUOUS
 62
             7
100
AcDbLine
 10
-318.84241202196182
 20
49.02970204775402
 11
-318.19034788640892
 21
48.25260227160697
  0
LINE
  5
149
100
AcDbEntity
  8
1
  6
CONTINUOUS
 62
             7
100
AcDbLine
 10
-318.88696544824131
 20
48.02970204775402
 11
-321.22244665557861
 21
48.02970204775402
  0
LINE
  5
148
100
AcDbEntity
  8
1
  6
CONTINUOUS
 62
             7
100
AcDbLine
 10
-322.40421595919332
 20
49.43807986095435
 11
-322.02418315705148
 21
51.59335298259907
  0
LINE
  5
147
100
AcDbEntity
  8
1
  6
CONTINUOUS
 62
             7
100
AcDbLine
 10
-322.02418315705148
 20
51.59335298259907
 11
-321.41939486815198
 21
52.10083061275491
  0
LINE
  5
146
100
AcDbEntity
  8
1
  6
CONTINUOUS
 62
             7
100
AcDbLine
 10
-321.41939486815198
 20
52.10083061275491
 11
-321.0061195292692
 21
51.60830824291076
  0
LINE
  5
145
100
AcDbEntity
  8
1
  6
CONTINUOUS
 62
             7
100
AcDbLine
 10
-321.0061195292692
 20
51.60830824291076
 11
-321.33097996533508
 21
49.76593315793729
  0
LINE
  5
144
100
AcDbEntity
  8
1
  6
CONTINUOUS
 62
             7
100
AcDbLine
 10
-321.33097996533508
 20
49.76593315793729
 11
-322.41061650066331
 21
48.86001053933793
  0
LINE
  5
143
100
AcDbEntity
  8
1
  6
CONTINUOUS
 62
             7
100
AcDbLine
 10
-317.60023406169552
 20
52.1131562960981
 11
-317.23646462748491
 21
51.6796327660017
  0
LINE
  5
142
100
AcDbEntity
  8
1
  6
CONTINUOUS
 62
             7
100
AcDbLine
 10
-318.6045415669472
 20
49.6796533745346
 11
-318.2753344298232
 21
51.54667982619451
  0
LINE
  5
141
100
AcDbEntity
  8
1
  6
CONTINUOUS
 62
             7
100
AcDbLine
 10
-318.2753344298232
 20
51.54667982619451
 11
-317.60023406169552
 21
52.1131562960981
  0
LINE
  5
140
100
AcDbEntity
  8
1
  6
CONTINUOUS
 62
             7
100
AcDbLine
 10
-320.95976820228071
 20
52.48650317856683
 11
-320.31254957169511
 21
53.02958409278232
  0
LINE
  5
13F
100
AcDbEntity
  8
1
  6
CONTINUOUS
 62
             7
100
AcDbLine
 10
-320.31254957169511
 20
53.02958409278232
 11
-318.3692082878938
 21
53.02958409278229
  0
LINE
  5
13E
100
AcDbEntity
  8
1
  6
CONTINUOUS
 62
             7
100
AcDbLine
 10
-318.3692082878938
 20
53.02958409278229
 11
-317.98590662750752
 21
52.57278296196949
  0
LINE
  5
13D
100
AcDbEntity
  8
1
  6
CONTINUOUS
 62
             7
100
AcDbLine
 10
-317.98590662750752
 20
52.57278296196949
 11
-318.63326583135432
 21
52.02958409278227
  0
LINE
  5
13C
100
AcDbEntity
  8
1
  6
CONTINUOUS
 62
             7
100
AcDbLine
 10
-318.63326583135432
 20
52.02958409278227
 11
-320.57636756592092
 21
52.02958409278227
  0
LINE
  5
13B
100
AcDbEntity
  8
1
  6
CONTINUOUS
 62
             7
100
AcDbLine
 10
-321.34544076809249
 20
52.94612984443824
 11
-321.7092102023031
 21
53.37965337453465
  0
LINE
  5
13A
100
AcDbEntity
  8
1
  6
CONTINUOUS
 62
             7
100
AcDbLine
 10
-321.7092102023031
 20
53.37965337453465
 11
-321.24047868516129
 21
56.03796190598259
  0
LINE
  5
139
100
AcDbEntity
  8
1
  6
CONTINUOUS
 62
             7
100
AcDbLine
 10
-321.1455459557971
 20
56.33829448276061
 11
-320.3411332628408
 21
55.37963276600173
  0
LINE
  5
138
100
AcDbEntity
  8
1
  6
CONTINUOUS
 62
             7
100
AcDbLine
 10
-320.3411332628408
 20
55.37963276600173
 11
-320.67034039996491
 21
53.5126063143418
  0
LINE
  5
137
100
AcDbEntity
  8
1
  6
CONTINUOUS
 62
             7
100
AcDbLine
 10
-320.67034039996491
 20
53.5126063143418
 11
-321.34544076809249
 21
52.94612984443824
  0
LINE
  5
136
100
AcDbEntity
  8
1
  6
CONTINUOUS
 62
             7
100
AcDbLine
 10
-317.23646462748491
 20
51.6796327660017
 11
-317.70519614462671
 21
49.02132423455372
  0
LINE
  5
135
100
AcDbEntity
  8
1
  6
CONTINUOUS
 62
             7
100
AcDbLine
 10
-317.80012887399101
 20
48.72099165777572
 11
-318.6045415669472
 21
49.6796533745346
  0
LINE
  5
134
100
AcDbEntity
  8
1
  6
CONTINUOUS
 62
             7
100
AcDbLine
 10
-317.52627996163602
 20
52.95845552778138
 11
-317.93955530051869
 21
53.45097789762556
  0
LINE
  5
133
100
AcDbEntity
  8
1
  6
CONTINUOUS
 62
             7
100
AcDbLine
 10
-317.93955530051869
 20
53.45097789762556
 11
-317.61469486445287
 21
55.293352982599
  0
LINE
  5
132
100
AcDbEntity
  8
1
  6
CONTINUOUS
 62
             7
100
AcDbLine
 10
-317.61469486445287
 20
55.293352982599
 11
-316.57201385531363
 21
56.16826623280328
  0
LINE
  5
131
100
AcDbEntity
  8
1
  6
CONTINUOUS
 62
             7
100
AcDbLine
 10
-316.54145887059491
 20
55.62120627958196
 11
-316.92149167273652
 21
53.46593315793722
  0
LINE
  5
130
100
AcDbEntity
  8
1
  6
CONTINUOUS
 62
             7
100
AcDbLine
 10
-316.92149167273652
 20
53.46593315793722
 11
-317.52627996163602
 21
52.95845552778138
  0
LINE
  5
12F
100
AcDbEntity
  8
1
  6
CONTINUOUS
 62
             7
100
AcDbLine
 10
-320.10326280782618
 20
56.02958409278228
 11
-320.7553269433792
 21
56.80668386892933
  0
LINE
  5
12E
100
AcDbEntity
  8
1
  6
CONTINUOUS
 62
             7
100
AcDbLine
 10
-320.05870938154669
 20
57.02958409278228
 11
-317.72322817420962
 21
57.02958409278228
  0
LINE
  5
12D
100
AcDbEntity
  8
1
  6
CONTINUOUS
 62
             7
100
AcDbLine
 10
-316.88532806073312
 20
56.68860877219267
 11
-317.67072309002862
 21
56.02958409278228
  0
LINE
  5
12C
100
AcDbEntity
  8
1
  6
CONTINUOUS
 62
             7
100
AcDbLine
 10
-317.67072309002862
 20
56.02958409278228
 11
-320.10326280782618
 21
56.02958409278228
  0
LINE
  5
12B
100
AcDbEntity
  8
1
  6
CONTINUOUS
 62
             7
100
AcDbLine
 10
-325.17072309002862
 20
56.02958409278228
 11
-327.60326280782618
 21
56.02958409278228
  0
LINE
  5
12A
100
AcDbEntity
  8
1
  6
CONTINUOUS
 62
             7
100
AcDbLine
 10
-324.38532806073312
 20
56.68860877219267
 11
-325.17072309002862
 21
56.02958409278228
  0
LINE
  5
129
100
AcDbEntity
  8
1
  6
CONTINUOUS
 62
             7
100
AcDbLine
 10
-327.55870938154669
 20
57.02958409278228
 11
-325.22322817420962
 21
57.02958409278228
  0
LINE
  5
128
100
AcDbEntity
  8
1
  6
CONTINUOUS
 62
             7
100
AcDbLine
 10
-327.60326280782618
 20
56.02958409278228
 11
-328.2553269433792
 21
56.80668386892933
  0
LINE
  5
127
100
AcDbEntity
  8
1
  6
CONTINUOUS
 62
             7
100
AcDbLine
 10
-324.42149167273652
 20
53.46593315793722
 11
-325.02627996163602
 21
52.95845552778138
  0
LINE
  5
126
100
AcDbEntity
  8
1
  6
CONTINUOUS
 62
             7
100
AcDbLine
 10
-324.04145887059491
 20
55.62120627958196
 11
-324.42149167273652
 21
53.46593315793722
  0
LINE
  5
125
100
AcDbEntity
  8
1
  6
CONTINUOUS
 62
             7
100
AcDbLine
 10
-325.11469486445287
 20
55.293352982599
 11
-324.07201385531363
 21
56.16826623280328
  0
LINE
  5
124
100
AcDbEntity
  8
1
  6
CONTINUOUS
 62
             7
100
AcDbLine
 10
-325.43955530051869
 20
53.45097789762556
 11
-325.11469486445287
 21
55.293352982599
  0
LINE
  5
123
100
AcDbEntity
  8
1
  6
CONTINUOUS
 62
             7
100
AcDbLine
 10
-325.02627996163602
 20
52.95845552778138
 11
-325.43955530051869
 21
53.45097789762556
  0
LINE
  5
122
100
AcDbEntity
  8
1
  6
CONTINUOUS
 62
             7
100
AcDbLine
 10
-325.30012887399101
 20
48.72099165777572
 11
-326.1045415669472
 21
49.6796533745346
  0
LINE
  5
121
100
AcDbEntity
  8
1
  6
CONTINUOUS
 62
             7
100
AcDbLine
 10
-324.73646462748491
 20
51.6796327660017
 11
-325.20519614462671
 21
49.02132423455372
  0
LINE
  5
120
100
AcDbEntity
  8
1
  6
CONTINUOUS
 62
             7
100
AcDbLine
 10
-328.17034039996491
 20
53.5126063143418
 11
-328.84544076809249
 21
52.94612984443824
  0
LINE
  5
11F
100
AcDbEntity
  8
1
  6
CONTINUOUS
 62
             7
100
AcDbLine
 10
-327.8411332628408
 20
55.37963276600173
 11
-328.17034039996491
 21
53.5126063143418
  0
LINE
  5
11E
100
AcDbEntity
  8
1
  6
CONTINUOUS
 62
             7
100
AcDbLine
 10
-328.6455459557971
 20
56.33829448276061
 11
-327.8411332628408
 21
55.37963276600173
  0
LINE
  5
11D
100
AcDbEntity
  8
1
  6
CONTINUOUS
 62
             7
100
AcDbLine
 10
-329.2092102023031
 20
53.37965337453465
 11
-328.74047868516129
 21
56.03796190598259
  0
LINE
  5
11C
100
AcDbEntity
  8
1
  6
CONTINUOUS
 62
             7
100
AcDbLine
 10
-328.84544076809249
 20
52.94612984443824
 11
-329.2092102023031
 21
53.37965337453465
  0
LINE
  5
11B
100
AcDbEntity
  8
1
  6
CONTINUOUS
 62
             7
100
AcDbLine
 10
-326.13326583135432
 20
52.02958409278227
 11
-328.07636756592092
 21
52.02958409278227
  0
LINE
  5
11A
100
AcDbEntity
  8
1
  6
CONTINUOUS
 62
             7
100
AcDbLine
 10
-325.48590662750752
 20
52.57278296196949
 11
-326.13326583135432
 21
52.02958409278227
  0
LINE
  5
119
100
AcDbEntity
  8
1
  6
CONTINUOUS
 62
             7
100
AcDbLine
 10
-325.8692082878938
 20
53.02958409278229
 11
-325.48590662750752
 21
52.57278296196949
  0
LINE
  5
118
100
AcDbEntity
  8
1
  6
CONTINUOUS
 62
             7
100
AcDbLine
 10
-327.81254957169511
 20
53.02958409278232
 11
-325.8692082878938
 21
53.02958409278229
  0
LINE
  5
117
100
AcDbEntity
  8
1
  6
CONTINUOUS
 62
             7
100
AcDbLine
 10
-328.45976820228071
 20
52.48650317856683
 11
-327.81254957169511
 21
53.02958409278232
  0
LINE
  5
116
100
AcDbEntity
  8
1
  6
CONTINUOUS
 62
             7
100
AcDbLine
 10
-325.7753344298232
 20
51.54667982619451
 11
-325.10023406169552
 21
52.1131562960981
  0
LINE
  5
115
100
AcDbEntity
  8
1
  6
CONTINUOUS
 62
             7
100
AcDbLine
 10
-326.1045415669472
 20
49.6796533745346
 11
-325.7753344298232
 21
51.54667982619451
  0
LINE
  5
114
100
AcDbEntity
  8
1
  6
CONTINUOUS
 62
             7
100
AcDbLine
 10
-325.10023406169552
 20
52.1131562960981
 11
-324.73646462748491
 21
51.6796327660017
  0
LINE
  5
113
100
AcDbEntity
  8
1
  6
CONTINUOUS
 62
             7
100
AcDbLine
 10
-328.83097996533508
 20
49.76593315793729
 11
-329.91061650066331
 21
48.86001053933793
  0
LINE
  5
112
100
AcDbEntity
  8
1
  6
CONTINUOUS
 62
             7
100
AcDbLine
 10
-328.5061195292692
 20
51.60830824291076
 11
-328.83097996533508
 21
49.76593315793729
  0
LINE
  5
111
100
AcDbEntity
  8
1
  6
CONTINUOUS
 62
             7
100
AcDbLine
 10
-328.91939486815198
 20
52.10083061275491
 11
-328.5061195292692
 21
51.60830824291076
  0
LINE
  5
110
100
AcDbEntity
  8
1
  6
CONTINUOUS
 62
             7
100
AcDbLine
 10
-329.52418315705148
 20
51.59335298259907
 11
-328.91939486815198
 21
52.10083061275491
  0
LINE
  5
10F
100
AcDbEntity
  8
1
  6
CONTINUOUS
 62
             7
100
AcDbLine
 10
-329.90421595919321
 20
49.43807986095435
 11
-329.52418315705148
 21
51.59335298259907
  0
LINE
  5
10E
100
AcDbEntity
  8
1
  6
CONTINUOUS
 62
             7
100
AcDbLine
 10
-326.38696544824131
 20
48.02970204775402
 11
-328.72244665557861
 21
48.02970204775402
  0
LINE
  5
10D
100
AcDbEntity
  8
1
  6
CONTINUOUS
 62
             7
100
AcDbLine
 10
-326.34241202196182
 20
49.02970204775402
 11
-325.69034788640892
 21
48.25260227160697
  0
LINE
  5
10C
100
AcDbEntity
  8
1
  6
CONTINUOUS
 62
             7
100
AcDbLine
 10
-328.77495173975939
 20
49.02970204775402
 11
-326.34241202196182
 21
49.02970204775402
  0
LINE
  5
10B
100
AcDbEntity
  8
1
  6
CONTINUOUS
 62
             7
100
AcDbLine
 10
-329.56034676905512
 20
48.37067736834364
 11
-328.77495173975939
 21
49.02970204775402
  0
LINE
  5
10A
100
AcDbEntity
  8
1
  6
CONTINUOUS
 62
             7
100
AcDbLine
 10
-332.67072309002862
 20
56.02958409278228
 11
-335.10326280782618
 21
56.02958409278228
  0
LINE
  5
109
100
AcDbEntity
  8
1
  6
CONTINUOUS
 62
             7
100
AcDbLine
 10
-331.88532806073312
 20
56.68860877219267
 11
-332.67072309002862
 21
56.02958409278228
  0
LINE
  5
108
100
AcDbEntity
  8
1
  6
CONTINUOUS
 62
             7
100
AcDbLine
 10
-335.05870938154681
 20
57.02958409278228
 11
-332.72322817420951
 21
57.02958409278228
  0
LINE
  5
107
100
AcDbEntity
  8
1
  6
CONTINUOUS
 62
             7
100
AcDbLine
 10
-335.10326280782618
 20
56.02958409278228
 11
-335.7553269433792
 21
56.80668386892933
  0
LINE
  5
106
100
AcDbEntity
  8
1
  6
CONTINUOUS
 62
             7
100
AcDbLine
 10
-331.92149167273652
 20
53.46593315793722
 11
-332.52627996163602
 21
52.95845552778138
  0
LINE
  5
105
100
AcDbEntity
  8
1
  6
CONTINUOUS
 62
             7
100
AcDbLine
 10
-331.54145887059491
 20
55.62120627958196
 11
-331.92149167273652
 21
53.46593315793722
  0
LINE
  5
104
100
AcDbEntity
  8
1
  6
CONTINUOUS
 62
             7
100
AcDbLine
 10
-332.61469486445287
 20
55.293352982599
 11
-331.57201385531363
 21
56.16826623280328
  0
LINE
  5
103
100
AcDbEntity
  8
1
  6
CONTINUOUS
 62
             7
100
AcDbLine
 10
-332.93955530051869
 20
53.45097789762556
 11
-332.61469486445287
 21
55.293352982599
  0
LINE
  5
102
100
AcDbEntity
  8
1
  6
CONTINUOUS
 62
             7
100
AcDbLine
 10
-332.52627996163602
 20
52.95845552778138
 11
-332.93955530051869
 21
53.45097789762556
  0
LINE
  5
101
100
AcDbEntity
  8
1
  6
CONTINUOUS
 62
             7
100
AcDbLine
 10
-332.80012887399101
 20
48.72099165777572
 11
-333.6045415669472
 21
49.6796533745346
  0
LINE
  5
100
100
AcDbEntity
  8
1
  6
CONTINUOUS
 62
             7
100
AcDbLine
 10
-332.23646462748491
 20
51.6796327660017
 11
-332.70519614462671
 21
49.02132423455372
  0
LINE
  5
FF
100
AcDbEntity
  8
1
  6
CONTINUOUS
 62
             7
100
AcDbLine
 10
-335.6703403999648
 20
53.5126063143418
 11
-336.34544076809249
 21
52.94612984443824
  0
LINE
  5
FE
100
AcDbEntity
  8
1
  6
CONTINUOUS
 62
             7
100
AcDbLine
 10
-335.34113326284091
 20
55.37963276600173
 11
-335.6703403999648
 21
53.5126063143418
  0
LINE
  5
FD
100
AcDbEntity
  8
1
  6
CONTINUOUS
 62
             7
100
AcDbLine
 10
-336.1455459557971
 20
56.33829448276061
 11
-335.34113326284091
 21
55.37963276600173
  0
LINE
  5
FC
100
AcDbEntity
  8
1
  6
CONTINUOUS
 62
             7
100
AcDbLine
 10
-336.70921020230321
 20
53.37965337453465
 11
-336.24047868516141
 21
56.03796190598259
  0
LINE
  5
FB
100
AcDbEntity
  8
1
  6
CONTINUOUS
 62
             7
100
AcDbLine
 10
-336.34544076809249
 20
52.94612984443824
 11
-336.70921020230321
 21
53.37965337453465
  0
LINE
  5
FA
100
AcDbEntity
  8
1
  6
CONTINUOUS
 62
             7
100
AcDbLine
 10
-333.63326583135432
 20
52.02958409278227
 11
-335.57636756592092
 21
52.02958409278227
  0
LINE
  5
F9
100
AcDbEntity
  8
1
  6
CONTINUOUS
 62
             7
100
AcDbLine
 10
-332.98590662750752
 20
52.57278296196949
 11
-333.63326583135432
 21
52.02958409278227
  0
LINE
  5
F8
100
AcDbEntity
  8
1
  6
CONTINUOUS
 62
             7
100
AcDbLine
 10
-333.3692082878938
 20
53.02958409278229
 11
-332.98590662750752
 21
52.57278296196949
  0
LINE
  5
F7
100
AcDbEntity
  8
1
  6
CONTINUOUS
 62
             7
100
AcDbLine
 10
-335.312549571695
 20
53.02958409278232
 11
-333.3692082878938
 21
53.02958409278229
  0
LINE
  5
F6
100
AcDbEntity
  8
1
  6
CONTINUOUS
 62
             7
100
AcDbLine
 10
-335.9597682022806
 20
52.48650317856683
 11
-335.312549571695
 21
53.02958409278232
  0
LINE
  5
F5
100
AcDbEntity
  8
1
  6
CONTINUOUS
 62
             7
100
AcDbLine
 10
-333.2753344298232
 20
51.54667982619451
 11
-332.60023406169552
 21
52.1131562960981
  0
LINE
  5
F4
100
AcDbEntity
  8
1
  6
CONTINUOUS
 62
             7
100
AcDbLine
 10
-333.6045415669472
 20
49.6796533745346
 11
-333.2753344298232
 21
51.54667982619451
  0
LINE
  5
F3
100
AcDbEntity
  8
1
  6
CONTINUOUS
 62
             7
100
AcDbLine
 10
-332.60023406169552
 20
52.1131562960981
 11
-332.23646462748491
 21
51.6796327660017
  0
LINE
  5
F2
100
AcDbEntity
  8
1
  6
CONTINUOUS
 62
             7
100
AcDbLine
 10
-336.33097996533508
 20
49.76593315793729
 11
-337.41061650066331
 21
48.86001053933793
  0
LINE
  5
F1
100
AcDbEntity
  8
1
  6
CONTINUOUS
 62
             7
100
AcDbLine
 10
-336.00611952926931
 20
51.60830824291076
 11
-336.33097996533508
 21
49.76593315793729
  0
LINE
  5
F0
100
AcDbEntity
  8
1
  6
CONTINUOUS
 62
             7
100
AcDbLine
 10
-336.41939486815198
 20
52.10083061275491
 11
-336.00611952926931
 21
51.60830824291076
  0
LINE
  5
EF
100
AcDbEntity
  8
1
  6
CONTINUOUS
 62
             7
100
AcDbLine
 10
-337.02418315705148
 20
51.59335298259907
 11
-336.41939486815198
 21
52.10083061275491
  0
LINE
  5
EE
100
AcDbEntity
  8
1
  6
CONTINUOUS
 62
             7
100
AcDbLine
 10
-337.40421595919321
 20
49.43807986095435
 11
-337.02418315705148
 21
51.59335298259907
  0
LINE
  5
ED
100
AcDbEntity
  8
1
  6
CONTINUOUS
 62
             7
100
AcDbLine
 10
-333.88696544824131
 20
48.02970204775402
 11
-336.22244665557849
 21
48.02970204775402
  0
LINE
  5
EC
100
AcDbEntity
  8
1
  6
CONTINUOUS
 62
             7
100
AcDbLine
 10
-333.84241202196182
 20
49.02970204775402
 11
-333.19034788640892
 21
48.25260227160697
  0
LINE
  5
EB
100
AcDbEntity
  8
1
  6
CONTINUOUS
 62
             7
100
AcDbLine
 10
-336.27495173975939
 20
49.02970204775402
 11
-333.84241202196182
 21
49.02970204775402
  0
LINE
  5
EA
100
AcDbEntity
  8
1
  6
CONTINUOUS
 62
             7
100
AcDbLine
 10
-337.060346769055
 20
48.37067736834364
 11
-336.27495173975939
 21
49.02970204775402
  0
LINE
  5
E9
100
AcDbEntity
  8
1
  6
CONTINUOUS
 62
             7
100
AcDbLine
 10
-340.17072309002862
 20
56.02958409278228
 11
-342.60326280782618
 21
56.02958409278228
  0
LINE
  5
E8
100
AcDbEntity
  8
1
  6
CONTINUOUS
 62
             7
100
AcDbLine
 10
-339.385328060733
 20
56.68860877219267
 11
-340.17072309002862
 21
56.02958409278228
  0
LINE
  5
E7
100
AcDbEntity
  8
1
  6
CONTINUOUS
 62
             7
100
AcDbLine
 10
-342.55870938154681
 20
57.02958409278228
 11
-340.22322817420951
 21
57.02958409278228
  0
LINE
  5
E6
100
AcDbEntity
  8
1
  6
CONTINUOUS
 62
             7
100
AcDbLine
 10
-342.60326280782618
 20
56.02958409278228
 11
-343.2553269433792
 21
56.80668386892933
  0
LINE
  5
E5
100
AcDbEntity
  8
1
  6
CONTINUOUS
 62
             7
100
AcDbLine
 10
-339.42149167273652
 20
53.46593315793722
 11
-340.02627996163602
 21
52.95845552778138
  0
LINE
  5
E4
100
AcDbEntity
  8
1
  6
CONTINUOUS
 62
             7
100
AcDbLine
 10
-339.04145887059479
 20
55.62120627958196
 11
-339.42149167273652
 21
53.46593315793722
  0
LINE
  5
E3
100
AcDbEntity
  8
1
  6
CONTINUOUS
 62
             7
100
AcDbLine
 10
-340.11469486445287
 20
55.293352982599
 11
-339.07201385531368
 21
56.16826623280328
  0
LINE
  5
E2
100
AcDbEntity
  8
1
  6
CONTINUOUS
 62
             7
100
AcDbLine
 10
-340.4395553005188
 20
53.45097789762556
 11
-340.11469486445287
 21
55.293352982599
  0
LINE
  5
E1
100
AcDbEntity
  8
1
  6
CONTINUOUS
 62
             7
100
AcDbLine
 10
-340.02627996163602
 20
52.95845552778138
 11
-340.4395553005188
 21
53.45097789762556
  0
LINE
  5
E0
100
AcDbEntity
  8
1
  6
CONTINUOUS
 62
             7
100
AcDbLine
 10
-340.30012887399101
 20
48.72099165777572
 11
-341.1045415669472
 21
49.6796533745346
  0
LINE
  5
DF
100
AcDbEntity
  8
1
  6
CONTINUOUS
 62
             7
100
AcDbLine
 10
-339.73646462748491
 20
51.6796327660017
 11
-340.20519614462671
 21
49.02132423455372
  0
LINE
  5
DE
100
AcDbEntity
  8
1
  6
CONTINUOUS
 62
             7
100
AcDbLine
 10
-343.17034039996491
 20
53.5126063143418
 11
-343.84544076809249
 21
52.94612984443824
  0
LINE
  5
DD
100
AcDbEntity
  8
1
  6
CONTINUOUS
 62
             7
100
AcDbLine
 10
-342.84113326284091
 20
55.37963276600173
 11
-343.17034039996491
 21
53.5126063143418
  0
LINE
  5
DC
100
AcDbEntity
  8
1
  6
CONTINUOUS
 62
             7
100
AcDbLine
 10
-343.6455459557971
 20
56.33829448276061
 11
-342.84113326284091
 21
55.37963276600173
  0
LINE
  5
DB
100
AcDbEntity
  8
1
  6
CONTINUOUS
 62
             7
100
AcDbLine
 10
-344.20921020230321
 20
53.37965337453465
 11
-343.74047868516141
 21
56.03796190598259
  0
LINE
  5
DA
100
AcDbEntity
  8
1
  6
CONTINUOUS
 62
             7
100
AcDbLine
 10
-343.84544076809249
 20
52.94612984443824
 11
-344.20921020230321
 21
53.37965337453465
  0
LINE
  5
D9
100
AcDbEntity
  8
1
  6
CONTINUOUS
 62
             7
100
AcDbLine
 10
-341.13326583135432
 20
52.02958409278227
 11
-343.07636756592092
 21
52.02958409278227
  0
LINE
  5
D8
100
AcDbEntity
  8
1
  6
CONTINUOUS
 62
             7
100
AcDbLine
 10
-340.4859066275074
 20
52.57278296196949
 11
-341.13326583135432
 21
52.02958409278227
  0
LINE
  5
D7
100
AcDbEntity
  8
1
  6
CONTINUOUS
 62
             7
100
AcDbLine
 10
-340.86920828789391
 20
53.02958409278229
 11
-340.4859066275074
 21
52.57278296196949
  0
LINE
  5
D6
100
AcDbEntity
  8
1
  6
CONTINUOUS
 62
             7
100
AcDbLine
 10
-342.812549571695
 20
53.02958409278232
 11
-340.86920828789391
 21
53.02958409278229
  0
LINE
  5
D5
100
AcDbEntity
  8
1
  6
CONTINUOUS
 62
             7
100
AcDbLine
 10
-343.4597682022806
 20
52.48650317856683
 11
-342.812549571695
 21
53.02958409278232
  0
LINE
  5
D4
100
AcDbEntity
  8
1
  6
CONTINUOUS
 62
             7
100
AcDbLine
 10
-340.7753344298232
 20
51.54667982619451
 11
-340.10023406169552
 21
52.1131562960981
  0
LINE
  5
D3
100
AcDbEntity
  8
1
  6
CONTINUOUS
 62
             7
100
AcDbLine
 10
-341.1045415669472
 20
49.6796533745346
 11
-340.7753344298232
 21
51.54667982619451
  0
LINE
  5
D2
100
AcDbEntity
  8
1
  6
CONTINUOUS
 62
             7
100
AcDbLine
 10
-340.10023406169552
 20
52.1131562960981
 11
-339.73646462748491
 21
51.6796327660017
  0
LINE
  5
D1
100
AcDbEntity
  8
1
  6
CONTINUOUS
 62
             7
100
AcDbLine
 10
-343.83097996533508
 20
49.76593315793729
 11
-344.91061650066331
 21
48.86001053933793
  0
LINE
  5
D0
100
AcDbEntity
  8
1
  6
CONTINUOUS
 62
             7
100
AcDbLine
 10
-343.50611952926931
 20
51.60830824291076
 11
-343.83097996533508
 21
49.76593315793729
  0
LINE
  5
CF
100
AcDbEntity
  8
1
  6
CONTINUOUS
 62
             7
100
AcDbLine
 10
-343.91939486815198
 20
52.10083061275491
 11
-343.50611952926931
 21
51.60830824291076
  0
LINE
  5
CE
100
AcDbEntity
  8
1
  6
CONTINUOUS
 62
             7
100
AcDbLine
 10
-344.52418315705148
 20
51.59335298259907
 11
-343.91939486815198
 21
52.10083061275491
  0
LINE
  5
CD
100
AcDbEntity
  8
1
  6
CONTINUOUS
 62
             7
100
AcDbLine
 10
-344.90421595919321
 20
49.43807986095435
 11
-344.52418315705148
 21
51.59335298259907
  0
LINE
  5
CC
100
AcDbEntity
  8
1
  6
CONTINUOUS
 62
             7
100
AcDbLine
 10
-341.38696544824131
 20
48.02970204775402
 11
-343.72244665557849
 21
48.02970204775402
  0
LINE
  5
CB
100
AcDbEntity
  8
1
  6
CONTINUOUS
 62
             7
100
AcDbLine
 10
-341.34241202196182
 20
49.02970204775402
 11
-340.69034788640892
 21
48.25260227160697
  0
LINE
  5
CA
100
AcDbEntity
  8
1
  6
CONTINUOUS
 62
             7
100
AcDbLine
 10
-343.77495173975939
 20
49.02970204775402
 11
-341.34241202196182
 21
49.02970204775402
  0
LINE
  5
C9
100
AcDbEntity
  8
1
  6
CONTINUOUS
 62
             7
100
AcDbLine
 10
-344.560346769055
 20
48.37067736834364
 11
-343.77495173975939
 21
49.02970204775402
  0
LINE
  5
C8
100
AcDbEntity
  8
1
  6
CONTINUOUS
 62
             7
100
AcDbLine
 10
-328.17282701557201
 20
37.72970204775401
 11
-326.77282701557198
 21
37.72970204775401
  0
LINE
  5
C7
100
AcDbEntity
  8
1
  6
CONTINUOUS
 62
             7
100
AcDbLine
 10
-326.77282701557198
 20
37.12970204775404
 11
-328.17282701557201
 21
37.12970204775404
  0
LINE
  5
C6
100
AcDbEntity
  8
1
  6
CONTINUOUS
 62
             7
100
AcDbLine
 10
-328.17282701557201
 20
40.12970204775404
 11
-326.77282701557198
 21
40.12970204775404
  0
LINE
  5
C5
100
AcDbEntity
  8
1
  6
CONTINUOUS
 62
             7
100
AcDbLine
 10
-326.77282701557198
 20
39.52970204775402
 11
-328.17282701557201
 21
39.52970204775402
  0
LINE
  5
C4
100
AcDbEntity
  8
1
  6
CONTINUOUS
 62
             7
100
AcDbLine
 10
-326.77282701557198
 20
38.32970204775403
 11
-328.17282701557201
 21
38.32970204775403
  0
LINE
  5
C3
100
AcDbEntity
  8
1
  6
CONTINUOUS
 62
             7
100
AcDbLine
 10
-328.17282701557201
 20
38.92970204775403
 11
-326.77282701557198
 21
38.92970204775403
  0
LINE
  5
C2
100
AcDbEntity
  8
1
  6
CONTINUOUS
 62
             7
100
AcDbLine
 10
-318.67282701557201
 20
38.92970204775403
 11
-317.27282701557198
 21
38.92970204775403
  0
LINE
  5
C1
100
AcDbEntity
  8
1
  6
CONTINUOUS
 62
             7
100
AcDbLine
 10
-317.27282701557198
 20
38.32970204775403
 11
-318.67282701557201
 21
38.32970204775403
  0
LINE
  5
C0
100
AcDbEntity
  8
1
  6
CONTINUOUS
 62
             7
100
AcDbLine
 10
-317.27282701557198
 20
39.52970204775402
 11
-318.67282701557201
 21
39.52970204775402
  0
LINE
  5
BF
100
AcDbEntity
  8
1
  6
CONTINUOUS
 62
             7
100
AcDbLine
 10
-318.67282701557201
 20
40.12970204775404
 11
-317.27282701557198
 21
40.12970204775404
  0
LINE
  5
BE
100
AcDbEntity
  8
1
  6
CONTINUOUS
 62
             7
100
AcDbLine
 10
-317.27282701557198
 20
37.12970204775404
 11
-318.67282701557201
 21
37.12970204775404
  0
LINE
  5
BD
100
AcDbEntity
  8
1
  6
CONTINUOUS
 62
             7
100
AcDbLine
 10
-318.67282701557201
 20
37.72970204775401
 11
-317.27282701557198
 21
37.72970204775401
  0
LINE
  5
BC
100
AcDbEntity
  8
1
  6
CONTINUOUS
 62
             7
100
AcDbLine
 10
-322.23539014849558
 20
37.37970204775402
 11
-322.23539014849558
 21
37.87970204775402
  0
LINE
  5
BB
100
AcDbEntity
  8
1
  6
CONTINUOUS
 62
             7
100
AcDbLine
 10
-321.87282701557211
 20
37.37970204775402
 11
-322.23539014849558
 21
37.37970204775402
  0
LINE
  5
BA
100
AcDbEntity
  8
1
  6
CONTINUOUS
 62
             7
100
AcDbLine
 10
-323.97282701557202
 20
36.87970204775402
 11
-323.73539014849558
 21
36.87970204775402
  0
LINE
  5
B9
100
AcDbEntity
  8
1
  6
CONTINUOUS
 62
             7
100
AcDbLine
 10
-321.47282701557202
 20
40.37970204775402
 11
-323.97282701557202
 21
40.37970204775402
  0
LINE
  5
B8
100
AcDbEntity
  8
1
  6
CONTINUOUS
 62
             7
100
AcDbLine
 10
-323.23539014849558
 20
36.87970204775402
 11
-321.47282701557202
 21
36.87970204775402
  0
LINE
  5
B7
100
AcDbEntity
  8
1
  6
CONTINUOUS
 62
             7
100
AcDbLine
 10
-322.23539014849558
 20
37.87970204775402
 11
-323.23539014849558
 21
36.87970204775402
  0
LINE
  5
B6
100
AcDbEntity
  8
1
  6
CONTINUOUS
 62
             7
100
AcDbLine
 10
-323.57282701557199
 20
39.87970204775402
 11
-321.87282701557211
 21
39.87970204775402
  0
LINE
  5
B5
100
AcDbEntity
  8
1
  6
CONTINUOUS
 62
             7
100
AcDbLine
 10
-323.23539014849558
 20
37.37970204775402
 11
-323.57282701557199
 21
37.37970204775402
  0
LINE
  5
B4
100
AcDbEntity
  8
1
  6
CONTINUOUS
 62
             7
100
AcDbLine
 10
-323.73539014849558
 20
36.87970204775402
 11
-323.23539014849558
 21
37.37970204775402
  0
LINE
  5
B3
100
AcDbEntity
  8
0
  6
CONTINUOUS
 62
             7
100
AcDbLine
 10
-181.4498302627708
 20
35.61830214138712
 11
-181.4498302627708
 21
33.84110195412126
  0
LINE
  5
B2
100
AcDbEntity
  8
0
  6
CONTINUOUS
 62
             7
100
AcDbLine
 10
-181.4498302627708
 20
37.47970204775419
 11
-180.71071012114629
 21
37.47970204775419
  0
LINE
  5
B1
100
AcDbEntity
  8
0
  6
CONTINUOUS
 62
             7
100
AcDbLine
 10
-180.71071012114629
 20
31.97970204775419
 11
-181.4498302627708
 21
31.97970204775419
  0
LINE
  5
B0
100
AcDbEntity
  8
0
  6
CONTINUOUS
 62
             7
100
AcDbLine
 10
-181.84983026277081
 20
38.12970204775419
 11
-182.84983026277081
 21
38.12970204775419
  0
LINE
  5
AF
100
AcDbEntity
  8
0
  6
CONTINUOUS
 62
             7
100
AcDbLine
 10
-181.84983026277081
 20
31.32970204775419
 11
-182.84983026277081
 21
31.32970204775419
  0
LINE
  5
AE
100
AcDbEntity
  8
0
  6
CONTINUOUS
 62
             7
100
AcDbLine
 10
-181.84983026277081
 20
38.12970204775419
 11
-181.4498302627708
 21
36.47970204775419
  0
LINE
  5
AD
100
AcDbEntity
  8
0
  6
CONTINUOUS
 62
             7
100
AcDbLine
 10
-182.84983026277081
 20
38.12970204775419
 11
-182.4498302627708
 21
36.47970204775419
  0
LINE
  5
AC
100
AcDbEntity
  8
0
  6
CONTINUOUS
 62
             7
100
AcDbLine
 10
-181.84983026277081
 20
35.32970204775419
 11
-181.5796055744531
 21
35.43103630587331
  0
LINE
  5
AB
100
AcDbEntity
  8
0
  6
CONTINUOUS
 62
             7
100
AcDbLine
 10
-181.84983026277081
 20
35.32970204775419
 11
-181.84983026277081
 21
34.12970204775419
  0
LINE
  5
AA
100
AcDbEntity
  8
0
  6
CONTINUOUS
 62
             7
100
AcDbLine
 10
-181.84983026277081
 20
34.12970204775419
 11
-181.5796055744531
 21
34.02836778963507
  0
LINE
  5
A9
100
AcDbEntity
  8
0
  6
CONTINUOUS
 62
             7
100
AcDbLine
 10
-182.84983026277081
 20
35.32970204775418
 11
-182.5796055744531
 21
35.43103630587331
  0
LINE
  5
A8
100
AcDbEntity
  8
0
  6
CONTINUOUS
 62
             7
100
AcDbLine
 10
-182.84983026277081
 20
34.12970204775419
 11
-182.5796055744531
 21
34.02836778963507
  0
LINE
  5
A7
100
AcDbEntity
  8
0
  6
CONTINUOUS
 62
             7
100
AcDbLine
 10
-181.4498302627708
 20
38.12970204775419
 11
-181.4498302627708
 21
35.61830214138712
  0
LINE
  5
A6
100
AcDbEntity
  8
0
  6
CONTINUOUS
 62
             7
100
AcDbLine
 10
-181.4498302627708
 20
32.97970204775419
 11
-181.84983026277081
 21
31.32970204775419
  0
LINE
  5
A5
100
AcDbEntity
  8
0
  6
CONTINUOUS
 62
             7
100
AcDbLine
 10
-182.4498302627708
 20
32.97970204775419
 11
-182.84983026277081
 21
31.32970204775419
  0
LINE
  5
A4
100
AcDbEntity
  8
0
  6
CONTINUOUS
 62
             7
100
AcDbLine
 10
-181.4498302627708
 20
38.12970204775419
 11
-181.84983026277081
 21
38.12970204775419
  0
LINE
  5
A3
100
AcDbEntity
  8
0
  6
CONTINUOUS
 62
             7
100
AcDbLine
 10
-181.4498302627708
 20
31.32970204775419
 11
-181.84983026277081
 21
31.32970204775419
  0
LINE
  5
A2
100
AcDbEntity
  8
0
  6
CONTINUOUS
 62
             7
100
AcDbLine
 10
-182.4498302627708
 20
35.61830214138712
 11
-182.4498302627708
 21
36.47970204775419
  0
LINE
  5
A1
100
AcDbEntity
  8
0
  6
CONTINUOUS
 62
             7
100
AcDbLine
 10
-182.4498302627708
 20
32.97970204775419
 11
-182.4498302627708
 21
33.84110195412126
  0
LINE
  5
A0
100
AcDbEntity
  8
0
  6
CONTINUOUS
 62
             7
100
AcDbLine
 10
-181.4498302627708
 20
31.32970204775419
 11
-181.4498302627708
 21
33.84110195412126
  0
LINE
  5
9F
100
AcDbEntity
  8
0
  6
CONTINUOUS
 62
             7
100
AcDbLine
 10
-181.4498302627708
 20
39.52970204775416
 11
-181.4498302627708
 21
42.04110195412123
  0
LINE
  5
9E
100
AcDbEntity
  8
0
  6
CONTINUOUS
 62
             7
100
AcDbLine
 10
-182.4498302627708
 20
41.17970204775416
 11
-182.4498302627708
 21
42.04110195412123
  0
LINE
  5
9D
100
AcDbEntity
  8
0
  6
CONTINUOUS
 62
             7
100
AcDbLine
 10
-182.4498302627708
 20
43.81830214138709
 11
-182.4498302627708
 21
44.67970204775416
  0
LINE
  5
9C
100
AcDbEntity
  8
0
  6
CONTINUOUS
 62
             7
100
AcDbLine
 10
-181.4498302627708
 20
39.52970204775416
 11
-181.84983026277081
 21
39.52970204775416
  0
LINE
  5
9B
100
AcDbEntity
  8
0
  6
CONTINUOUS
 62
             7
100
AcDbLine
 10
-181.4498302627708
 20
46.32970204775417
 11
-181.84983026277081
 21
46.32970204775417
  0
LINE
  5
9A
100
AcDbEntity
  8
0
  6
CONTINUOUS
 62
             7
100
AcDbLine
 10
-182.4498302627708
 20
41.17970204775416
 11
-182.84983026277081
 21
39.52970204775416
  0
LINE
  5
99
100
AcDbEntity
  8
0
  6
CONTINUOUS
 62
             7
100
AcDbLine
 10
-181.4498302627708
 20
41.17970204775416
 11
-181.84983026277081
 21
39.52970204775416
  0
LINE
  5
98
100
AcDbEntity
  8
0
  6
CONTINUOUS
 62
             7
100
AcDbLine
 10
-181.4498302627708
 20
46.32970204775417
 11
-181.4498302627708
 21
43.81830214138709
  0
LINE
  5
97
100
AcDbEntity
  8
0
  6
CONTINUOUS
 62
             7
100
AcDbLine
 10
-182.84983026277081
 20
42.32970204775417
 11
-182.5796055744531
 21
42.22836778963504
  0
LINE
  5
96
100
AcDbEntity
  8
0
  6
CONTINUOUS
 62
             7
100
AcDbLine
 10
-182.84983026277081
 20
43.52970204775415
 11
-182.5796055744531
 21
43.63103630587328
  0
LINE
  5
95
100
AcDbEntity
  8
0
  6
CONTINUOUS
 62
             7
100
AcDbLine
 10
-181.84983026277081
 20
42.32970204775417
 11
-181.5796055744531
 21
42.22836778963504
  0
LINE
  5
94
100
AcDbEntity
  8
0
  6
CONTINUOUS
 62
             7
100
AcDbLine
 10
-181.84983026277081
 20
43.52970204775416
 11
-181.84983026277081
 21
42.32970204775417
  0
LINE
  5
93
100
AcDbEntity
  8
0
  6
CONTINUOUS
 62
             7
100
AcDbLine
 10
-181.84983026277081
 20
43.52970204775416
 11
-181.5796055744531
 21
43.63103630587328
  0
LINE
  5
92
100
AcDbEntity
  8
0
  6
CONTINUOUS
 62
             7
100
AcDbLine
 10
-182.84983026277081
 20
46.32970204775417
 11
-182.4498302627708
 21
44.67970204775416
  0
LINE
  5
91
100
AcDbEntity
  8
0
  6
CONTINUOUS
 62
             7
100
AcDbLine
 10
-181.84983026277081
 20
46.32970204775417
 11
-181.4498302627708
 21
44.67970204775416
  0
LINE
  5
90
100
AcDbEntity
  8
0
  6
CONTINUOUS
 62
             7
100
AcDbLine
 10
-181.84983026277081
 20
39.52970204775416
 11
-182.84983026277081
 21
39.52970204775416
  0
LINE
  5
8F
100
AcDbEntity
  8
0
  6
CONTINUOUS
 62
             7
100
AcDbLine
 10
-181.84983026277081
 20
46.32970204775417
 11
-182.84983026277081
 21
46.32970204775417
  0
LINE
  5
8E
100
AcDbEntity
  8
0
  6
CONTINUOUS
 62
             7
100
AcDbLine
 10
-180.71071012114629
 20
40.17970204775416
 11
-181.4498302627708
 21
40.17970204775416
  0
LINE
  5
8D
100
AcDbEntity
  8
0
  6
CONTINUOUS
 62
             7
100
AcDbLine
 10
-181.4498302627708
 20
45.67970204775416
 11
-180.71071012114629
 21
45.67970204775416
  0
LINE
  5
8C
100
AcDbEntity
  8
0
  6
CONTINUOUS
 62
             7
100
AcDbLine
 10
-181.4498302627708
 20
43.81830214138709
 11
-181.4498302627708
 21
42.04110195412123
  0
LINE
  5
8B
100
AcDbEntity
  8
0
  6
CONTINUOUS
 62
             7
100
AcDbLine
 10
-181.4498302627708
 20
47.72970204775383
 11
-181.4498302627708
 21
50.24110195412091
  0
LINE
  5
8A
100
AcDbEntity
  8
0
  6
CONTINUOUS
 62
             7
100
AcDbLine
 10
-182.4498302627708
 20
49.37970204775383
 11
-182.4498302627708
 21
50.24110195412091
  0
LINE
  5
89
100
AcDbEntity
  8
0
  6
CONTINUOUS
 62
             7
100
AcDbLine
 10
-182.4498302627708
 20
52.01830214138678
 11
-182.4498302627708
 21
52.87970204775383
  0
LINE
  5
88
100
AcDbEntity
  8
0
  6
CONTINUOUS
 62
             7
100
AcDbLine
 10
-181.4498302627708
 20
47.72970204775383
 11
-181.84983026277081
 21
47.72970204775383
  0
LINE
  5
87
100
AcDbEntity
  8
0
  6
CONTINUOUS
 62
             7
100
AcDbLine
 10
-181.4498302627708
 20
54.52970204775384
 11
-181.84983026277081
 21
54.52970204775384
  0
LINE
  5
86
100
AcDbEntity
  8
0
  6
CONTINUOUS
 62
             7
100
AcDbLine
 10
-182.4498302627708
 20
49.37970204775383
 11
-182.84983026277081
 21
47.72970204775383
  0
LINE
  5
85
100
AcDbEntity
  8
0
  6
CONTINUOUS
 62
             7
100
AcDbLine
 10
-181.4498302627708
 20
49.37970204775383
 11
-181.84983026277081
 21
47.72970204775383
  0
LINE
  5
84
100
AcDbEntity
  8
0
  6
CONTINUOUS
 62
             7
100
AcDbLine
 10
-181.4498302627708
 20
54.52970204775384
 11
-181.4498302627708
 21
52.01830214138678
  0
LINE
  5
83
100
AcDbEntity
  8
0
  6
CONTINUOUS
 62
             7
100
AcDbLine
 10
-182.84983026277081
 20
50.52970204775384
 11
-182.5796055744531
 21
50.42836778963473
  0
LINE
  5
82
100
AcDbEntity
  8
0
  6
CONTINUOUS
 62
             7
100
AcDbLine
 10
-182.84983026277081
 20
51.72970204775381
 11
-182.5796055744531
 21
51.83103630587296
  0
LINE
  5
81
100
AcDbEntity
  8
0
  6
CONTINUOUS
 62
             7
100
AcDbLine
 10
-181.84983026277081
 20
50.52970204775384
 11
-181.5796055744531
 21
50.42836778963473
  0
LINE
  5
80
100
AcDbEntity
  8
0
  6
CONTINUOUS
 62
             7
100
AcDbLine
 10
-181.84983026277081
 20
51.72970204775383
 11
-181.84983026277081
 21
50.52970204775384
  0
LINE
  5
7F
100
AcDbEntity
  8
0
  6
CONTINUOUS
 62
             7
100
AcDbLine
 10
-181.84983026277081
 20
51.72970204775383
 11
-181.5796055744531
 21
51.83103630587296
  0
LINE
  5
7E
100
AcDbEntity
  8
0
  6
CONTINUOUS
 62
             7
100
AcDbLine
 10
-182.84983026277081
 20
54.52970204775384
 11
-182.4498302627708
 21
52.87970204775383
  0
LINE
  5
7D
100
AcDbEntity
  8
0
  6
CONTINUOUS
 62
             7
100
AcDbLine
 10
-181.84983026277081
 20
54.52970204775384
 11
-181.4498302627708
 21
52.87970204775383
  0
LINE
  5
7C
100
AcDbEntity
  8
0
  6
CONTINUOUS
 62
             7
100
AcDbLine
 10
-181.84983026277081
 20
47.72970204775383
 11
-182.84983026277081
 21
47.72970204775383
  0
LINE
  5
7B
100
AcDbEntity
  8
0
  6
CONTINUOUS
 62
             7
100
AcDbLine
 10
-181.84983026277081
 20
54.52970204775384
 11
-182.84983026277081
 21
54.52970204775384
  0
LINE
  5
7A
100
AcDbEntity
  8
0
  6
CONTINUOUS
 62
             7
100
AcDbLine
 10
-180.71071012114629
 20
48.37970204775383
 11
-181.4498302627708
 21
48.37970204775383
  0
LINE
  5
79
100
AcDbEntity
  8
0
  6
CONTINUOUS
 62
             7
100
AcDbLine
 10
-181.4498302627708
 20
53.87970204775383
 11
-180.71071012114629
 21
53.87970204775383
  0
LINE
  5
78
100
AcDbEntity
  8
0
  6
CONTINUOUS
 62
             7
100
AcDbLine
 10
-181.4498302627708
 20
52.01830214138678
 11
-181.4498302627708
 21
50.24110195412091
  0
LINE
  5
77
100
AcDbEntity
  8
0
  6
CONTINUOUS
 62
             7
100
AcDbLine
 10
-181.4498302627708
 20
55.92970204775394
 11
-181.4498302627708
 21
58.44110195412101
  0
LINE
  5
76
100
AcDbEntity
  8
0
  6
CONTINUOUS
 62
             7
100
AcDbLine
 10
-182.4498302627708
 20
57.57970204775394
 11
-182.4498302627708
 21
58.44110195412101
  0
LINE
  5
75
100
AcDbEntity
  8
0
  6
CONTINUOUS
 62
             7
100
AcDbLine
 10
-182.4498302627708
 20
60.21830214138687
 11
-182.4498302627708
 21
61.07970204775394
  0
LINE
  5
74
100
AcDbEntity
  8
0
  6
CONTINUOUS
 62
             7
100
AcDbLine
 10
-181.4498302627708
 20
55.92970204775394
 11
-181.84983026277081
 21
55.92970204775394
  0
LINE
  5
73
100
AcDbEntity
  8
0
  6
CONTINUOUS
 62
             7
100
AcDbLine
 10
-181.4498302627708
 20
62.72970204775394
 11
-181.84983026277081
 21
62.72970204775394
  0
LINE
  5
72
100
AcDbEntity
  8
0
  6
CONTINUOUS
 62
             7
100
AcDbLine
 10
-182.4498302627708
 20
57.57970204775394
 11
-182.84983026277081
 21
55.92970204775394
  0
LINE
  5
71
100
AcDbEntity
  8
0
  6
CONTINUOUS
 62
             7
100
AcDbLine
 10
-181.4498302627708
 20
57.57970204775394
 11
-181.84983026277081
 21
55.92970204775394
  0
LINE
  5
70
100
AcDbEntity
  8
0
  6
CONTINUOUS
 62
             7
100
AcDbLine
 10
-181.4498302627708
 20
62.72970204775394
 11
-181.4498302627708
 21
60.21830214138687
  0
LINE
  5
6F
100
AcDbEntity
  8
0
  6
CONTINUOUS
 62
             7
100
AcDbLine
 10
-182.84983026277081
 20
58.72970204775394
 11
-182.5796055744531
 21
58.62836778963482
  0
LINE
  5
6E
100
AcDbEntity
  8
0
  6
CONTINUOUS
 62
             7
100
AcDbLine
 10
-182.84983026277081
 20
59.92970204775394
 11
-182.5796055744531
 21
60.03103630587306
  0
LINE
  5
6D
100
AcDbEntity
  8
0
  6
CONTINUOUS
 62
             7
100
AcDbLine
 10
-181.84983026277081
 20
58.72970204775394
 11
-181.5796055744531
 21
58.62836778963482
  0
LINE
  5
6C
100
AcDbEntity
  8
0
  6
CONTINUOUS
 62
             7
100
AcDbLine
 10
-181.84983026277081
 20
59.92970204775394
 11
-181.84983026277081
 21
58.72970204775394
  0
LINE
  5
6B
100
AcDbEntity
  8
0
  6
CONTINUOUS
 62
             7
100
AcDbLine
 10
-181.84983026277081
 20
59.92970204775394
 11
-181.5796055744531
 21
60.03103630587306
  0
LINE
  5
6A
100
AcDbEntity
  8
0
  6
CONTINUOUS
 62
             7
100
AcDbLine
 10
-182.84983026277081
 20
62.72970204775394
 11
-182.4498302627708
 21
61.07970204775394
  0
LINE
  5
69
100
AcDbEntity
  8
0
  6
CONTINUOUS
 62
             7
100
AcDbLine
 10
-181.84983026277081
 20
62.72970204775394
 11
-181.4498302627708
 21
61.07970204775394
  0
LINE
  5
68
100
AcDbEntity
  8
0
  6
CONTINUOUS
 62
             7
100
AcDbLine
 10
-181.84983026277081
 20
55.92970204775394
 11
-182.84983026277081
 21
55.92970204775394
  0
LINE
  5
67
100
AcDbEntity
  8
0
  6
CONTINUOUS
 62
             7
100
AcDbLine
 10
-181.84983026277081
 20
62.72970204775394
 11
-182.84983026277081
 21
62.72970204775394
  0
LINE
  5
66
100
AcDbEntity
  8
0
  6
CONTINUOUS
 62
             7
100
AcDbLine
 10
-180.71071012114629
 20
56.57970204775394
 11
-181.4498302627708
 21
56.57970204775394
  0
LINE
  5
65
100
AcDbEntity
  8
0
  6
CONTINUOUS
 62
             7
100
AcDbLine
 10
-181.4498302627708
 20
62.07970204775394
 11
-180.71071012114629
 21
62.07970204775394
  0
LINE
  5
64
100
AcDbEntity
  8
0
  6
CONTINUOUS
 62
             7
100
AcDbLine
 10
-181.4498302627708
 20
60.21830214138687
 11
-181.4498302627708
 21
58.44110195412101
  0
LINE
  5
63
100
AcDbEntity
  8
0
  6
CONTINUOUS
 62
             7
100
AcDbLine
 10
-181.4498302627708
 20
68.41830214138678
 11
-181.4498302627708
 21
66.64110195412091
  0
LINE
  5
62
100
AcDbEntity
  8
0
  6
CONTINUOUS
 62
             7
100
AcDbLine
 10
-181.4498302627708
 20
70.27970204775384
 11
-180.71071012114629
 21
70.27970204775384
  0
LINE
  5
61
100
AcDbEntity
  8
0
  6
CONTINUOUS
 62
             7
100
AcDbLine
 10
-180.71071012114629
 20
64.77970204775384
 11
-181.4498302627708
 21
64.77970204775384
  0
LINE
  5
60
100
AcDbEntity
  8
0
  6
CONTINUOUS
 62
             7
100
AcDbLine
 10
-181.84983026277081
 20
70.92970204775385
 11
-182.84983026277081
 21
70.92970204775385
  0
LINE
  5
5F
100
AcDbEntity
  8
0
  6
CONTINUOUS
 62
             7
100
AcDbLine
 10
-181.84983026277081
 20
64.12970204775384
 11
-182.84983026277081
 21
64.12970204775384
  0
LINE
  5
5E
100
AcDbEntity
  8
0
  6
CONTINUOUS
 62
             7
100
AcDbLine
 10
-181.84983026277081
 20
70.92970204775385
 11
-181.4498302627708
 21
69.27970204775384
  0
LINE
  5
5D
100
AcDbEntity
  8
0
  6
CONTINUOUS
 62
             7
100
AcDbLine
 10
-182.84983026277081
 20
70.92970204775385
 11
-182.4498302627708
 21
69.27970204775384
  0
LINE
  5
5C
100
AcDbEntity
  8
0
  6
CONTINUOUS
 62
             7
100
AcDbLine
 10
-181.84983026277081
 20
68.12970204775384
 11
-181.5796055744531
 21
68.23103630587296
  0
LINE
  5
5B
100
AcDbEntity
  8
0
  6
CONTINUOUS
 62
             7
100
AcDbLine
 10
-181.84983026277081
 20
68.12970204775384
 11
-181.84983026277081
 21
66.92970204775385
  0
LINE
  5
5A
100
AcDbEntity
  8
0
  6
CONTINUOUS
 62
             7
100
AcDbLine
 10
-181.84983026277081
 20
66.92970204775385
 11
-181.5796055744531
 21
66.82836778963473
  0
LINE
  5
59
100
AcDbEntity
  8
0
  6
CONTINUOUS
 62
             7
100
AcDbLine
 10
-182.84983026277081
 20
68.12970204775384
 11
-182.5796055744531
 21
68.23103630587296
  0
LINE
  5
58
100
AcDbEntity
  8
0
  6
CONTINUOUS
 62
             7
100
AcDbLine
 10
-182.84983026277081
 20
66.92970204775385
 11
-182.5796055744531
 21
66.82836778963473
  0
LINE
  5
57
100
AcDbEntity
  8
0
  6
CONTINUOUS
 62
             7
100
AcDbLine
 10
-181.4498302627708
 20
70.92970204775385
 11
-181.4498302627708
 21
68.41830214138678
  0
LINE
  5
56
100
AcDbEntity
  8
0
  6
CONTINUOUS
 62
             7
100
AcDbLine
 10
-181.4498302627708
 20
65.77970204775384
 11
-181.84983026277081
 21
64.12970204775384
  0
LINE
  5
55
100
AcDbEntity
  8
0
  6
CONTINUOUS
 62
             7
100
AcDbLine
 10
-182.4498302627708
 20
65.77970204775384
 11
-182.84983026277081
 21
64.12970204775384
  0
LINE
  5
54
100
AcDbEntity
  8
0
  6
CONTINUOUS
 62
             7
100
AcDbLine
 10
-181.4498302627708
 20
70.92970204775385
 11
-181.84983026277081
 21
70.92970204775385
  0
LINE
  5
53
100
AcDbEntity
  8
0
  6
CONTINUOUS
 62
             7
100
AcDbLine
 10
-181.4498302627708
 20
64.12970204775384
 11
-181.84983026277081
 21
64.12970204775384
  0
LINE
  5
52
100
AcDbEntity
  8
0
  6
CONTINUOUS
 62
             7
100
AcDbLine
 10
-182.4498302627708
 20
68.41830214138678
 11
-182.4498302627708
 21
69.27970204775384
  0
LINE
  5
51
100
AcDbEntity
  8
0
  6
CONTINUOUS
 62
             7
100
AcDbLine
 10
-182.4498302627708
 20
65.77970204775384
 11
-182.4498302627708
 21
66.64110195412091
  0
LINE
  5
50
100
AcDbEntity
  8
0
  6
CONTINUOUS
 62
             7
100
AcDbLine
 10
-181.4498302627708
 20
64.12970204775384
 11
-181.4498302627708
 21
66.64110195412091
  0
LINE
  5
4F
100
AcDbEntity
  8
1
  6
CONTINUOUS
 62
             7
100
AcDbLine
 10
-180.8019725976101
 20
76.379702047754
 11
-272.20197259761022
 21
76.379702047754
  0
LINE
  5
4E
100
AcDbEntity
  8
1
  6
CONTINUOUS
 62
             7
100
AcDbLine
 10
-272.20197259761022
 20
76.379702047754
 11
-272.20197259761011
 21
73.379702047754
  0
LINE
  5
4D
100
AcDbEntity
  8
1
  6
CONTINUOUS
 62
             7
100
AcDbLine
 10
-180.8019725976101
 20
73.97970204775399
 11
-180.8019725976101
 21
80.379702047754
  0
LINE
  5
4C
100
AcDbEntity
  8
1
  6
CONTINUOUS
 62
             7
100
AcDbLine
 10
-180.8019725976101
 20
80.379702047754
 11
-180.20197259761011
 21
80.379702047754
  0
LINE
  5
4B
100
AcDbEntity
  8
1
  6
CONTINUOUS
 62
             7
100
AcDbLine
 10
-180.20197259761011
 20
80.379702047754
 11
-180.20197259761011
 21
73.97970204775399
  0
LINE
  5
4A
100
AcDbEntity
  8
1
  6
CONTINUOUS
 62
             7
100
AcDbLine
 10
-211.70197259761011
 20
76.379702047754
 11
-211.70197259761011
 21
79.77970204775399
  0
LINE
  5
49
100
AcDbEntity
  8
1
  6
CONTINUOUS
 62
             7
100
AcDbLine
 10
-211.70197259761011
 20
79.77970204775399
 11
-188.10197259761009
 21
79.77970204775399
  0
LINE
  5
48
100
AcDbEntity
  8
1
  6
CONTINUOUS
 62
             7
100
AcDbLine
 10
-188.10197259761009
 20
79.77970204775399
 11
-188.10197259761009
 21
76.379702047754
  0
LINE
  5
47
100
AcDbEntity
  8
1
  6
CONTINUOUS
 62
             7
100
AcDbLine
 10
-212.90197259761001
 20
76.379702047754
 11
-212.90197259761001
 21
79.77970204775399
  0
LINE
  5
46
100
AcDbEntity
  8
1
  6
CONTINUOUS
 62
             7
100
AcDbLine
 10
-211.70197259761011
 20
80.97970204775399
 11
-188.10197259761009
 21
80.97970204775399
  0
LINE
  5
45
100
AcDbEntity
  8
1
  6
CONTINUOUS
 62
             7
100
AcDbLine
 10
-186.9019725976101
 20
79.77970204775399
 11
-186.9019725976101
 21
76.379702047754
  0
LINE
  5
44
100
AcDbEntity
  8
1
  6
CONTINUOUS
 62
             7
100
AcDbLine
 10
-180.20197259761011
 20
74.129702047754
 11
-178.4628524559856
 21
74.129702047754
  0
LINE
  5
43
100
AcDbEntity
  8
1
  6
CONTINUOUS
 62
             7
100
AcDbLine
 10
-178.4628524559856
 20
79.629702047754
 11
-180.20197259761011
 21
79.629702047754
  0
LINE
  5
42
100
AcDbEntity
  8
1
  6
CONTINUOUS
 62
             7
100
AcDbLine
 10
-180.20197259761011
 20
76.379702047754
 11
-179.20197259761011
 21
77.379702047754
  0
LINE
  5
41
100
AcDbEntity
  8
1
  6
CONTINUOUS
 62
             7
100
AcDbLine
 10
-179.20197259761011
 20
74.129702047754
 11
-179.20197259761011
 21
79.629702047754
  0
LINE
  5
40
100
AcDbEntity
  8
1
  6
CONTINUOUS
 62
             7
100
AcDbLine
 10
-204.20197259761011
 20
78.379702047754
 11
-188.10197259761009
 21
78.379702047754
  0
LINE
  5
3F
100
AcDbEntity
  8
1
  6
CONTINUOUS
 62
             7
100
AcDbLine
 10
-186.9019725976101
 20
78.379702047754
 11
-180.8019725976101
 21
78.379702047754
  0
LINE
  5
3E
100
AcDbEntity
  8
1
  6
CONTINUOUS
 62
             7
100
AcDbLine
 10
-204.20197259761011
 20
78.379702047754
 11
-204.20197259761011
 21
76.379702047754
  0
LINE
  5
3D
100
AcDbEntity
  8
1
  6
CONTINUOUS
 62
             7
100
AcDbLine
 10
-204.20197259761011
 20
77.97970204775399
 11
-188.10197259761009
 21
77.97970204775399
  0
LINE
  5
3C
100
AcDbEntity
  8
1
  6
CONTINUOUS
 62
             7
100
AcDbLine
 10
-186.9019725976101
 20
77.97970204775399
 11
-180.8019725976101
 21
77.97970204775399
  0
LINE
  5
3B
100
AcDbEntity
  8
1
  6
CONTINUOUS
 62
             7
100
AcDbLine
 10
-180.8019725976101
 20
21.87970204775398
 11
-180.8019725976101
 21
28.27970204775399
  0
LINE
  5
3A
100
AcDbEntity
  8
1
  6
CONTINUOUS
 62
             7
100
AcDbLine
 10
-180.20197259761011
 20
21.87970204775398
 11
-180.8019725976101
 21
21.87970204775398
  0
LINE
  5
39
100
AcDbEntity
  8
1
  6
CONTINUOUS
 62
             7
100
AcDbLine
 10
-180.20197259761011
 20
28.27970204775399
 11
-180.20197259761011
 21
21.87970204775398
  0
LINE
  5
38
100
AcDbEntity
  8
1
  6
CONTINUOUS
 62
             7
100
AcDbLine
 10
-211.70197259761011
 20
22.47970204775399
 11
-211.70197259761011
 21
25.87970204775398
  0
LINE
  5
37
100
AcDbEntity
  8
1
  6
CONTINUOUS
 62
             7
100
AcDbLine
 10
-188.10197259761009
 20
22.47970204775399
 11
-211.70197259761011
 21
22.47970204775399
  0
LINE
  5
36
100
AcDbEntity
  8
1
  6
CONTINUOUS
 62
             7
100
AcDbLine
 10
-188.10197259761009
 20
25.87970204775398
 11
-188.10197259761009
 21
22.47970204775399
  0
LINE
  5
35
100
AcDbEntity
  8
1
  6
CONTINUOUS
 62
             7
100
AcDbLine
 10
-212.90197259761001
 20
22.47970204775399
 11
-212.90197259761001
 21
25.87970204775398
  0
LINE
  5
34
100
AcDbEntity
  8
1
  6
CONTINUOUS
 62
             7
100
AcDbLine
 10
-188.10197259761009
 20
21.27970204775399
 11
-211.70197259761011
 21
21.27970204775399
  0
LINE
  5
33
100
AcDbEntity
  8
1
  6
CONTINUOUS
 62
             7
100
AcDbLine
 10
-186.9019725976101
 20
25.87970204775398
 11
-186.9019725976101
 21
22.47970204775399
  0
LINE
  5
32
100
AcDbEntity
  8
1
  6
CONTINUOUS
 62
             7
100
AcDbLine
 10
-178.4628524559856
 20
28.12970204775398
 11
-180.20197259761011
 21
28.12970204775398
  0
LINE
  5
31
100
AcDbEntity
  8
1
  6
CONTINUOUS
 62
             7
100
AcDbLine
 10
-180.20197259761011
 20
22.62970204775398
 11
-178.4628524559856
 21
22.62970204775398
  0
LINE
  5
30
100
AcDbEntity
  8
1
  6
CONTINUOUS
 62
             7
100
AcDbLine
 10
-179.20197259761011
 20
25.87970204775398
 11
-180.20197259761011
 21
24.87970204775398
  0
LINE
  5
2F
100
AcDbEntity
  8
1
  6
CONTINUOUS
 62
             7
100
AcDbLine
 10
-179.20197259761011
 20
22.62970204775398
 11
-179.20197259761011
 21
28.12970204775398
  0
LINE
  5
2E
100
AcDbEntity
  8
1
  6
CONTINUOUS
 62
             7
100
AcDbLine
 10
-188.10197259761009
 20
23.87970204775398
 11
-204.20197259761011
 21
23.87970204775398
  0
LINE
  5
2D
100
AcDbEntity
  8
1
  6
CONTINUOUS
 62
             7
100
AcDbLine
 10
-180.8019725976101
 20
23.87970204775398
 11
-186.9019725976101
 21
23.87970204775398
  0
LINE
  5
2C
100
AcDbEntity
  8
1
  6
CONTINUOUS
 62
             7
100
AcDbLine
 10
-204.20197259761011
 20
25.87970204775398
 11
-204.20197259761011
 21
23.87970204775398
  0
LINE
  5
2B
100
AcDbEntity
  8
1
  6
CONTINUOUS
 62
             7
100
AcDbLine
 10
-188.10197259761009
 20
24.27970204775399
 11
-204.20197259761011
 21
24.27970204775399
  0
LINE
  5
2A
100
AcDbEntity
  8
1
  6
CONTINUOUS
 62
             7
100
AcDbLine
 10
-180.8019725976101
 20
24.27970204775399
 11
-186.9019725976101
 21
24.27970204775399
  0
LINE
  5
29
100
AcDbEntity
  8
1
  6
CONTINUOUS
 62
             7
100
AcDbLine
 10
-272.20197259761011
 20
25.87970204775398
 11
-180.8019725976101
 21
25.87970204775398
  0
LINE
  5
28
100
AcDbEntity
  8
1
  6
CONTINUOUS
 62
             7
100
AcDbLine
 10
-272.20197259761011
 20
28.87970204775398
 11
-272.20197259761011
 21
25.87970204775398
  0
ENDSEC
  0
SECTION
  2
OBJECTS
  0
DICTIONARY
  5
19
100
AcDbDictionary
  3
ACAD_GROUP
350
1A
  3
ACAD_MLINESTYLE
350
1B
  0
DICTIONARY
  5
1A
102
{ACAD_REACTORS
330
19
102
}
100
AcDbDictionary
  0
DICTIONARY
  5
1B
102
{ACAD_REACTORS
330
19
102
}
100
AcDbDictionary
  3
STANDARD
350
1C
  0
MLINESTYLE
  5
1C
102
{ACAD_REACTORS
330
1B
102
}
100
AcDbMlineStyle
  2
STANDARD
 70
             0
  3

 62
             0
 51
90.0
 52
90.0
 71
             2
 49
0.5
 62
           256
  6
BYLAYER
 49
-0.5
 62
           256
  6
BYLAYER
  0
ENDSEC
  0
EOF
