  0
SECTION
  2
HEADER
  9
$ACADVER
  1
AC1014
  9
$ACADMAINTVER
 70
             0
  9
$DWGCODEPAGE
  3
ANSI_1252
  9
$INSBASE
 10
0.0
 20
0.0
 30
0.0
  9
$EXTMIN
 10
1.00000000000000E+20
 20
1.00000000000000E+20
 30
1.00000000000000E+20
  9
$EXTMAX
 10
-1.00000000000000E+20
 20
-1.00000000000000E+20
 30
-1.00000000000000E+20
  9
$LIMMIN
 10
0.0
 20
0.0
  9
$LIMMAX
 10
0.0
 20
0.0
  9
$ORTHOMODE
 70
             0
  9
$REGENMODE
 70
             1
  9
$FILLMODE
 70
             1
  9
$QTEXTMODE
 70
             0
  9
$MIRRTEXT
 70
             1
  9
$DRAGMODE
 70
             2
  9
$LTSCALE
 40
1.0
  9
$OSMODE
 70
             0
  9
$ATTMODE
 70
             1
  9
$TEXTSIZE
 40
0.2
  9
$TRACEWID
 40
0.05
  9
$TEXTSTYLE
  7
STANDARD
  9
$CLAYER
  8
0
  9
$CELTYPE
  6
CONTINUOUS
  9
$CECOLOR
 62
           256
  9
$CELTSCALE
 40
1.0
  9
$DELOBJ
 70
             1
  9
$DISPSILH
 70
             0
  9
$DIMSCALE
 40
1.0
  9
$DIMASZ
 40
0.18
  9
$DIMEXO
 40
0.0625
  9
$DIMDLI
 40
0.38
  9
$DIMRND
 40
0.0
  9
$DIMDLE
 40
0.0
  9
$DIMEXE
 40
0.18
  9
$DIMTP
 40
0.0
  9
$DIMTM
 40
0.0
  9
$DIMTXT
 40
0.18
  9
$DIMCEN
 40
0.09
  9
$DIMTSZ
 40
0.0
  9
$DIMTOL
 70
             0
  9
$DIMLIM
 70
             0
  9
$DIMTIH
 70
             1
  9
$DIMTOH
 70
             1
  9
$DIMSE1
 70
             0
  9
$DIMSE2
 70
             0
  9
$DIMTAD
 70
             0
  9
$DIMZIN
 70
             0
  9
$DIMBLK
  1

  9
$DIMASO
 70
             1
  9
$DIMSHO
 70
             1
  9
$DIMPOST
  1

  9
$DIMAPOST
  1

  9
$DIMALT
 70
             0
  9
$DIMALTD
 70
             2
  9
$DIMALTF
 40
25.4
  9
$DIMLFAC
 40
1.0
  9
$DIMTOFL
 70
             0
  9
$DIMTVP
 40
0.0
  9
$DIMTIX
 70
             0
  9
$DIMSOXD
 70
             0
  9
$DIMSAH
 70
             0
  9
$DIMBLK1
  1

  9
$DIMBLK2
  1

  9
$DIMSTYLE
  2
STANDARD
  9
$DIMCLRD
 70
             0
  9
$DIMCLRE
 70
             0
  9
$DIMCLRT
 70
             0
  9
$DIMTFAC
 40
1.0
  9
$DIMGAP
 40
0.09
  9
$DIMJUST
 70
             0
  9
$DIMSD1
 70
             0
  9
$DIMSD2
 70
             0
  9
$DIMTOLJ
 70
             1
  9
$DIMTZIN
 70
             0
  9
$DIMALTZ
 70
             0
  9
$DIMALTTZ
 70
             0
  9
$DIMFIT
 70
             3
  9
$DIMUPT
 70
             0
  9
$DIMUNIT
 70
             2
  9
$DIMDEC
 70
             4
  9
$DIMTDEC
 70
             4
  9
$DIMALTU
 70
             2
  9
$DIMALTTD
 70
             2
  9
$DIMTXSTY
  7
STANDARD
  9
$DIMAUNIT
 70
             0
  9
$LUNITS
 70
             2
  9
$LUPREC
 70
             4
  9
$SKETCHINC
 40
0.1
  9
$FILLETRAD
 40
0.0
  9
$AUNITS
 70
             0
  9
$AUPREC
 70
             0
  9
$MENU
  1
acad
  9
$ELEVATION
 40
0.0
  9
$PELEVATION
 40
0.0
  9
$THICKNESS
 40
0.0
  9
$LIMCHECK
 70
             0
  9
$BLIPMODE
 70
             1
  9
$CHAMFERA
 40
0.0
  9
$CHAMFERB
 40
0.0
  9
$CHAMFERC
 40
0.0
  9
$CHAMFERD
 40
0.0
  9
$SKPOLY
 70
             0
  9
$TDCREATE
 40
0.000000000
  9
$TDUPDATE
 40
0.000000000
  9
$TDINDWG
 40
0.0000000000
  9
$TDUSRTIMER
 40
0.0000000000
  9
$USRTIMER
 70
             1
  9
$ANGBASE
 50
0.0
  9
$ANGDIR
 70
             0
  9
$PDMODE
 70
             0
  9
$PDSIZE
 40
0.0
  9
$PLINEWID
 40
0.0
  9
$COORDS
 70
             0
  9
$SPLFRAME
 70
             0
  9
$SPLINETYPE
 70
             6
  9
$SPLINESEGS
 70
             8
  9
$ATTDIA
 70
             0
  9
$ATTREQ
 70
             1
  9
$HANDLING
 70
             1
  9
$HANDSEED
  5
44E
  9
$SURFTAB1
 70
             6
  9
$SURFTAB2
 70
             6
  9
$SURFTYPE
 70
             6
  9
$SURFU
 70
             6
  9
$SURFV
 70
             6
  9
$UCSNAME
  2

  9
$UCSORG
 10
0.0
 20
0.0
 30
0.0
  9
$UCSXDIR
 10
1.0
 20
0.0
 30
0.0
  9
$UCSYDIR
 10
0.0
 20
1.0
 30
0.0
  9
$PUCSNAME
  2

  9
$PUCSORG
 10
0.0
 20
0.0
 30
0.0
  9
$PUCSXDIR
 10
1.0
 20
0.0
 30
0.0
  9
$PUCSYDIR
 10
0.0
 20
1.0
 30
0.0
  9
$USERI1
 70
             0
  9
$USERI2
 70
             0
  9
$USERI3
 70
             0
  9
$USERI4
 70
             0
  9
$USERI5
 70
             0
  9
$USERR1
 40
11.6
  9
$USERR2
 40
0.0
  9
$USERR3
 40
0.0
  9
$USERR4
 40
0.0
  9
$USERR5
 40
0.0
  9
$WORLDVIEW
 70
             1
  9
$SHADEDGE
 70
             3
  9
$SHADEDIF
 70
            70
  9
$TILEMODE
 70
             1
  9
$MAXACTVP
 70
            16
  9
$PINSBASE
 10
0.0
 20
0.0
 30
0.0
  9
$PLIMCHECK
 70
             0
  9
$PEXTMIN
 10
1.00000000000000E+20
 20
1.00000000000000E+20
 30
1.00000000000000E+20
  9
$PEXTMAX
 10
-1.00000000000000E+20
 20
-1.00000000000000E+20
 30
-1.00000000000000E+20
  9
$PLIMMIN
 10
0.0
 20
0.0
  9
$PLIMMAX
 10
12.0
 20
9.0
  9
$UNITMODE
 70
             0
  9
$VISRETAIN
 70
             0
  9
$PLINEGEN
 70
             1
  9
$PSLTSCALE
 70
             0
  9
$TREEDEPTH
 70
          3020
  9
$PICKSTYLE
 70
             1
  9
$CMLSTYLE
  2
STANDARD
  9
$CMLJUST
 70
             0
  9
$CMLSCALE
 40
1.0
  9
$PROXYGRAPHICS
 70
             0
  9
$MEASUREMENT
 70
             1
  0
ENDSEC
  0
SECTION
  2
CLASSES
  0
CLASS
  1
LWPOLYLINE
  2
AcDbPolyline
  3
"AutoCAD"
 90
        0
280
             0
281
             1
  0
CLASS
  1
IMAGE
  2
AcDbRasterImage
  3
ISM
 90
      127
280
             0
281
             1
  0
CLASS
  1
OLE2FRAME
  2
AcDbOle2Frame
  3
""
 90
        0
280
             0
281
             1
  0
CLASS
  1
HATCH
  2
AcDbHatch
  3
"ACAD_SEDONA"
 90
        0
280
             0
281
             1
  0
CLASS
  1
DICTIONARYVAR
  2
AcDbDictionaryVar
  3
"AutoCAD"
 90
        0
280
             0
281
             0
  0
CLASS
  1
RASTERVARIABLES
  2
AcDbRasterVariables
  3
ISM
 90
        0
280
             0
281
             0
  0
CLASS
  1
IMAGEDEF
  2
AcDbRasterImageDef
  3
ISM
 90
        0
280
             0
281
             0
  0
CLASS
  1
IMAGEDEF_REACTOR
  2
AcDbRasterImageDefReactor
  3
ISM
 90
        1
280
             0
281
             0
  0
CLASS
  1
IDBUFFER
  2
AcDbIdBuffer
  3
"Acad"
 90
        0
280
             0
281
             0
  0
CLASS
  1
SPATIAL_FILTER
  2
AcDbSpatialFilter
  3
"Acad"
 90
        0
280
             0
281
             0
  0
CLASS
  1
XRECORD
  2
AcDbXrecord
  3
"<Built In>"
 90
        0
280
             0
281
             0
  0
CLASS
  1
SORTENTSTABLE
  2
AcDbSortentsTable
  3
"AutoCAD"
 90
        0
280
             0
281
             0
  0
CLASS
  1
LAYER_INDEX
  2
AcDbLayerIndex
  3
"Acad"
 90
        0
280
             0
281
             0
  0
CLASS
  1
SPATIAL_INDEX
  2
AcDbSpatialIndex
  3
"Acad"
 90
        0
280
             0
281
             0
  0
CLASS
  1
OBJECT_PTR
  2
CAseDLPNTableRecord
  3
"ASE-LPNTableRecord"
 90
        1
280
             0
281
             0
  0
CLASS
  1
LAYOUT
  2
AcDbLayout
  3
"AutoCAD 2000"
 90
        1
280
             0
281
             0
  0
CLASS
  1
PLOTSETTINGS
  2
AcDbPlotSettings
  3
"AutoCAD 2000"
 90
        1
280
             0
281
             0
  0
CLASS
  1
ACDBDICTIONARYWDFLT
  2
AcDbDictionaryWithDefault
  3
"AutoCAD 2000"
 90
        1
280
             0
281
             0
  0
CLASS
  1
ACDBPLACEHOLDER
  2
AcDbPlaceHolder
  3
"AutoCAD 2000"
 90
        1
280
             0
281
             0
  0
ENDSEC
  0
SECTION
  2
TABLES
  0
TABLE
  2
VPORT
  5
7
100
AcDbSymbolTable
 70
             1
  0
VPORT
  5
15
100
AcDbSymbolTableRecord
100
AcDbViewportTableRecord
  2
*ACTIVE
 70
             0
 10
0.0
 20
0.0
 11
1.0
 21
1.0
 12
71.49999999999994
 22
0.00000000000001
 13
0.0
 23
0.0
 14
1.0
 24
1.0
 15
0.0
 25
0.0
 16
0.0
 26
0.0
 36
1.0
 17
0.0
 27
0.0
 37
0.0
 40
131.09303621169931
 41
1.60267857142857
 42
50.0
 43
0.0
 44
0.0
 50
0.0
 51
0.0
 71
             0
 72
           100
 73
             1
 74
             1
 75
             0
 76
             0
 77
             0
 78
             0
  0
ENDTAB
  0
TABLE
  2
LTYPE
  5
4
100
AcDbSymbolTable
 70
            10
  0
LTYPE
  5
11
100
AcDbSymbolTableRecord
100
AcDbLinetypeTableRecord
  2
BYBLOCK
 70
            64
  3

 72
            65
 73
             0
 40
0.0
  0
LTYPE
  5
12
100
AcDbSymbolTableRecord
100
AcDbLinetypeTableRecord
  2
BYLAYER
 70
            64
  3

 72
            65
 73
             0
 40
0.0
  0
LTYPE
  5
13
100
AcDbSymbolTableRecord
100
AcDbLinetypeTableRecord
  2
CONTINUOUS
 70
            64
  3
Solid line
 72
            65
 73
             0
 40
0.0
  0
LTYPE
  5
1D
100
AcDbSymbolTableRecord
100
AcDbLinetypeTableRecord
  2
DASHED
 70
            64
  3
Dashed
 72
            65
 73
             2
 40
15.0
 49
12.0
 74
             0
 49
-3.0
 74
             0
  0
LTYPE
  5
1E
100
AcDbSymbolTableRecord
100
AcDbLinetypeTableRecord
  2
DOTTED
 70
            64
  3
Dotted
 72
            65
 73
             2
 40
3.5
 49
0.5
 74
             0
 49
-3.0
 74
             0
  0
LTYPE
  5
1F
100
AcDbSymbolTableRecord
100
AcDbLinetypeTableRecord
  2
DOT_CENTER
 70
            64
  3
Dot_Center
 72
            65
 73
             4
 40
2.0
 49
1.25
 74
             0
 49
-0.25
 74
             0
 49
0.25
 74
             0
 49
-0.25
 74
             0
  0
LTYPE
  5
20
100
AcDbSymbolTableRecord
100
AcDbLinetypeTableRecord
  2
LONG_DASHED
 70
            64
  3
Long_Dashed
 72
            65
 73
             2
 40
2.0
 49
1.5
 74
             0
 49
-0.5
 74
             0
  0
LTYPE
  5
21
100
AcDbSymbolTableRecord
100
AcDbLinetypeTableRecord
  2
DASH_CENTER
 70
            64
  3
Dash_Center
 72
            65
 73
             4
 40
36.0
 49
24.0
 74
             0
 49
-3.0
 74
             0
 49
6.0
 74
             0
 49
-3.0
 74
             0
  0
LTYPE
  5
22
100
AcDbSymbolTableRecord
100
AcDbLinetypeTableRecord
  2
PHANTOM
 70
            64
  3
Phantom
 72
            65
 73
             6
 40
2.5
 49
1.25
 74
             0
 49
-0.25
 74
             0
 49
0.25
 74
             0
 49
-0.25
 74
             0
 49
0.25
 74
             0
 49
-0.25
 74
             0
  0
LTYPE
  5
23
100
AcDbSymbolTableRecord
100
AcDbLinetypeTableRecord
  2
CENTER_DASH_DASH
 70
            64
  3
Center_Dash_Dash
 72
            65
 73
             6
 40
22.0
 49
12.0
 74
             0
 49
-3.0
 74
             0
 49
0.5
 74
             0
 49
-3.0
 74
             0
 49
0.5
 74
             0
 49
-3.0
 74
             0
  0
ENDTAB
  0
TABLE
  2
LAYER
  5
2
100
AcDbSymbolTable
 70
             2
  0
LAYER
  5
14
100
AcDbSymbolTableRecord
100
AcDbLayerTableRecord
  2
0
 70
             0
 62
             7
  6
CONTINUOUS
  0
LAYER
  5
24
100
AcDbSymbolTableRecord
100
AcDbLayerTableRecord
  2
1
 70
             0
 62
             7
  6
CONTINUOUS
  0
ENDTAB
  0
TABLE
  2
STYLE
  5
3
100
AcDbSymbolTable
 70
             1
  0
STYLE
  5
17
100
AcDbSymbolTableRecord
100
AcDbTextStyleTableRecord
  2
STANDARD
 70
             0
 40
0.0
 41
1.0
 50
0.0
 71
             0
 42
0.0
  3
txt
  4

  0
ENDTAB
  0
TABLE
  2
VIEW
  5
5
100
AcDbSymbolTable
 70
             0
  0
ENDTAB
  0
TABLE
  2
UCS
  5
6
100
AcDbSymbolTable
 70
             0
  0
ENDTAB
  0
TABLE
  2
APPID
  5
8
100
AcDbSymbolTable
 70
             1
  0
APPID
  5
16
100
AcDbSymbolTableRecord
100
AcDbRegAppTableRecord
  2
ACAD
 70
             0
  0
ENDTAB
  0
TABLE
  2
DIMSTYLE
  5
9
100
AcDbSymbolTable
 70
             1
  0
DIMSTYLE
105
18
100
AcDbSymbolTableRecord
100
AcDbDimStyleTableRecord
  2
STANDARD
 70
             0
  3

  4

  5

  6

  7

 40
1.0
 41
0.18
 42
0.0625
 43
0.38
 44
0.18
 45
0.0
 46
0.0
 47
0.0
 48
0.0
 71
             0
 72
             0
 73
             1
 74
             1
 75
             0
 76
             0
 77
             0
 78
             0
140
0.18
141
0.09
142
0.0
143
25.4
144
1.0
145
0.0
146
1.0
147
0.09
170
             0
171
             2
172
             0
173
             0
174
             0
175
             0
176
             0
177
             0
178
             0
270
             2
271
             4
272
             4
273
             2
274
             2
275
             0
280
             0
281
             0
282
             0
283
             1
284
             0
285
             0
286
             0
287
             0
288
             0
340
17
  0
ENDTAB
  0
TABLE
  2
BLOCK_RECORD
  5
1
100
AcDbSymbolTable
 70
             1
  0
BLOCK_RECORD
  5
A
100
AcDbSymbolTableRecord
100
AcDbBlockTableRecord
  2
*MODEL_SPACE
  0
BLOCK_RECORD
  5
B
100
AcDbSymbolTableRecord
100
AcDbBlockTableRecord
  2
*PAPER_SPACE
  0
BLOCK_RECORD
  5
25
100
AcDbSymbolTableRecord
100
AcDbBlockTableRecord
  2
TOP__1
  0
ENDTAB
  0
ENDSEC
  0
SECTION
  2
BLOCKS
  0
BLOCK
  5
D
100
AcDbEntity
  8
0
100
AcDbBlockBegin
  2
*MODEL_SPACE
 70
             0
 10
0.0
 20
0.0
 30
0.0
  3
*MODEL_SPACE
  1

  0
ENDBLK
  5
E
100
AcDbEntity
  8
0
100
AcDbBlockEnd
  0
BLOCK
  5
F
100
AcDbEntity
 67
             1
  8
0
100
AcDbBlockBegin
  2
*PAPER_SPACE
 70
             0
 10
0.0
 20
0.0
 30
0.0
  3
*PAPER_SPACE
  1

  0
ENDBLK
  5
10
100
AcDbEntity
 67
             1
  8
0
100
AcDbBlockEnd
  0
BLOCK
  5
26
100
AcDbEntity
  8
0
100
AcDbBlockBegin
  2
TOP__1
 70
             0
 10
-25.94220542612711
 20
-7.5850307130167
 30
0.0
  3
TOP__1
  1

  0
ARC
  5
44A
100
AcDbEntity
  8
1
  6
CONTINUOUS
 62
             7
100
AcDbCircle
 10
14.25000000000006
 20
36.0
 40
5.5
100
AcDbArc
 50
0.0
 51
90.0
  0
ARC
  5
449
100
AcDbEntity
  8
1
  6
CONTINUOUS
 62
             7
100
AcDbCircle
 10
-14.25000000000006
 20
36.0
 40
5.5
100
AcDbArc
 50
90.0
 51
180.0
  0
ARC
  5
448
100
AcDbEntity
  8
1
  6
CONTINUOUS
 62
             7
100
AcDbCircle
 10
-14.25000000000006
 20
-33.0
 40
5.5
100
AcDbArc
 50
180.0
 51
-90.0
  0
ARC
  5
447
100
AcDbEntity
  8
1
  6
CONTINUOUS
 62
             7
100
AcDbCircle
 10
14.25000000000006
 20
-33.0
 40
5.5
100
AcDbArc
 50
-90.0
 51
0.0
  0
ARC
  5
446
100
AcDbEntity
  8
1
  6
CONTINUOUS
 62
             7
100
AcDbCircle
 10
14.25000000000006
 20
-33.0
 40
5.0
100
AcDbArc
 50
-90.0
 51
0.0
  0
ARC
  5
445
100
AcDbEntity
  8
1
  6
CONTINUOUS
 62
             7
100
AcDbCircle
 10
-14.25000000000006
 20
-33.0
 40
5.0
100
AcDbArc
 50
180.0
 51
-90.0
  0
ARC
  5
444
100
AcDbEntity
  8
1
  6
CONTINUOUS
 62
             7
100
AcDbCircle
 10
-14.25000000000006
 20
36.0
 40
5.0
100
AcDbArc
 50
90.0
 51
180.0
  0
ARC
  5
443
100
AcDbEntity
  8
1
  6
CONTINUOUS
 62
             7
100
AcDbCircle
 10
14.25000000000006
 20
36.0
 40
5.0
100
AcDbArc
 50
0.0
 51
90.0
  0
ARC
  5
442
100
AcDbEntity
  8
1
  6
CONTINUOUS
 62
             7
100
AcDbCircle
 10
14.25000000000006
 20
-23.0
 40
4.0
100
AcDbArc
 50
-90.0
 51
0.0
  0
ARC
  5
441
100
AcDbEntity
  8
1
  6
CONTINUOUS
 62
             7
100
AcDbCircle
 10
14.25000000000006
 20
-4.0
 40
4.0
100
AcDbArc
 50
0.0
 51
90.0
  0
ARC
  5
440
100
AcDbEntity
  8
1
  6
CONTINUOUS
 62
             7
100
AcDbCircle
 10
-14.25000000000006
 20
-4.0
 40
4.0
100
AcDbArc
 50
90.0
 51
180.0
  0
ARC
  5
43F
100
AcDbEntity
  8
1
  6
CONTINUOUS
 62
             7
100
AcDbCircle
 10
-14.25000000000006
 20
-23.0
 40
4.0
100
AcDbArc
 50
180.0
 51
-90.0
  0
ARC
  5
43E
100
AcDbEntity
  8
1
  6
CONTINUOUS
 62
             7
100
AcDbCircle
 10
-14.25000000000006
 20
36.0
 40
4.0
100
AcDbArc
 50
90.0
 51
180.0
  0
ARC
  5
43D
100
AcDbEntity
  8
1
  6
CONTINUOUS
 62
             7
100
AcDbCircle
 10
-14.25000000000006
 20
17.0
 40
4.0
100
AcDbArc
 50
180.0
 51
-90.0
  0
ARC
  5
43C
100
AcDbEntity
  8
1
  6
CONTINUOUS
 62
             7
100
AcDbCircle
 10
14.25000000000006
 20
17.0
 40
4.0
100
AcDbArc
 50
-90.0
 51
0.0
  0
ARC
  5
43B
100
AcDbEntity
  8
1
  6
CONTINUOUS
 62
             7
100
AcDbCircle
 10
14.25000000000006
 20
36.0
 40
4.0
100
AcDbArc
 50
0.0
 51
90.0
  0
ARC
  5
43A
100
AcDbEntity
  8
1
  6
CONTINUOUS
 62
             7
100
AcDbCircle
 10
11.49999999999994
 20
-2.5
 40
0.5
100
AcDbArc
 50
0.0
 51
90.0
  0
ARC
  5
439
100
AcDbEntity
  8
1
  6
CONTINUOUS
 62
             7
100
AcDbCircle
 10
11.49999999999994
 20
-13.5
 40
0.5
100
AcDbArc
 50
-90.0
 51
0.0
  0
ARC
  5
438
100
AcDbEntity
  8
1
  6
CONTINUOUS
 62
             7
100
AcDbCircle
 10
-11.50000000000006
 20
-13.5
 40
0.5
100
AcDbArc
 50
180.0
 51
-90.0
  0
ARC
  5
437
100
AcDbEntity
  8
1
  6
CONTINUOUS
 62
             7
100
AcDbCircle
 10
-11.50000000000006
 20
-2.5
 40
0.5
100
AcDbArc
 50
90.0
 51
180.0
  0
ARC
  5
436
100
AcDbEntity
  8
1
  6
CONTINUOUS
 62
             7
100
AcDbCircle
 10
11.49999999999994
 20
37.5
 40
0.5
100
AcDbArc
 50
0.0
 51
90.0
  0
ARC
  5
435
100
AcDbEntity
  8
1
  6
CONTINUOUS
 62
             7
100
AcDbCircle
 10
11.49999999999994
 20
26.5
 40
0.5
100
AcDbArc
 50
-90.0
 51
0.0
  0
ARC
  5
434
100
AcDbEntity
  8
1
  6
CONTINUOUS
 62
             7
100
AcDbCircle
 10
-11.50000000000006
 20
26.5
 40
0.5
100
AcDbArc
 50
180.0
 51
-90.0
  0
ARC
  5
433
100
AcDbEntity
  8
1
  6
CONTINUOUS
 62
             7
100
AcDbCircle
 10
-11.50000000000006
 20
37.5
 40
0.5
100
AcDbArc
 50
90.0
 51
180.0
  0
ARC
  5
432
100
AcDbEntity
  8
0
  6
CONTINUOUS
 62
             7
100
AcDbCircle
 10
160.28615612366929
 20
38.68860009363283
 40
0.2
100
AcDbArc
 50
-69.44395478040296
 51
0.0
  0
ARC
  5
431
100
AcDbEntity
  8
0
  6
CONTINUOUS
 62
             7
100
AcDbCircle
 10
160.28615612366929
 20
36.91139990636697
 40
0.20000000000002
100
AcDbArc
 50
0.0
 51
69.44395478040509
  0
ARC
  5
430
100
AcDbEntity
  8
0
  6
CONTINUOUS
 62
             7
100
AcDbCircle
 10
161.28615612366929
 20
38.68860009363283
 40
0.2
100
AcDbArc
 50
-69.44395478040296
 51
0.0
  0
ARC
  5
42F
100
AcDbEntity
  8
0
  6
CONTINUOUS
 62
             7
100
AcDbCircle
 10
161.28615612366929
 20
36.91139990636697
 40
0.20000000000002
100
AcDbArc
 50
0.0
 51
69.44395478040509
  0
ARC
  5
42E
100
AcDbEntity
  8
0
  6
CONTINUOUS
 62
             7
100
AcDbCircle
 10
160.28615612366929
 20
30.28860009363285
 40
0.19999999999999
100
AcDbArc
 50
-69.44395478040188
 51
0.0
  0
ARC
  5
42D
100
AcDbEntity
  8
0
  6
CONTINUOUS
 62
             7
100
AcDbCircle
 10
160.28615612366929
 20
28.51139990636699
 40
0.20000000000002
100
AcDbArc
 50
0.0
 51
69.44395478040474
  0
ARC
  5
42C
100
AcDbEntity
  8
0
  6
CONTINUOUS
 62
             7
100
AcDbCircle
 10
161.28615612366929
 20
30.28860009363285
 40
0.19999999999999
100
AcDbArc
 50
-69.44395478040188
 51
0.0
  0
ARC
  5
42B
100
AcDbEntity
  8
0
  6
CONTINUOUS
 62
             7
100
AcDbCircle
 10
161.28615612366929
 20
28.51139990636699
 40
0.20000000000002
100
AcDbArc
 50
0.0
 51
69.44395478040474
  0
ARC
  5
42A
100
AcDbEntity
  8
0
  6
CONTINUOUS
 62
             7
100
AcDbCircle
 10
160.28615612366929
 20
21.88860009363285
 40
0.19999999999997
100
AcDbArc
 50
-69.44395478039975
 51
0.0
  0
ARC
  5
429
100
AcDbEntity
  8
0
  6
CONTINUOUS
 62
             7
100
AcDbCircle
 10
160.28615612366929
 20
20.11139990636701
 40
0.20000000000002
100
AcDbArc
 50
0.0
 51
69.44395478040509
  0
ARC
  5
428
100
AcDbEntity
  8
0
  6
CONTINUOUS
 62
             7
100
AcDbCircle
 10
161.28615612366929
 20
21.88860009363285
 40
0.19999999999997
100
AcDbArc
 50
-69.44395478039975
 51
0.0
  0
ARC
  5
427
100
AcDbEntity
  8
0
  6
CONTINUOUS
 62
             7
100
AcDbCircle
 10
161.28615612366929
 20
20.11139990636701
 40
0.20000000000002
100
AcDbArc
 50
0.0
 51
69.44395478040509
  0
ARC
  5
426
100
AcDbEntity
  8
0
  6
CONTINUOUS
 62
             7
100
AcDbCircle
 10
160.28615612366929
 20
13.48860009363287
 40
0.19999999999997
100
AcDbArc
 50
-69.44395478039975
 51
0.0
  0
ARC
  5
425
100
AcDbEntity
  8
0
  6
CONTINUOUS
 62
             7
100
AcDbCircle
 10
160.28615612366929
 20
11.71139990636703
 40
0.20000000000002
100
AcDbArc
 50
0.0
 51
69.44395478040278
  0
ARC
  5
424
100
AcDbEntity
  8
0
  6
CONTINUOUS
 62
             7
100
AcDbCircle
 10
161.28615612366929
 20
13.48860009363287
 40
0.19999999999997
100
AcDbArc
 50
-69.44395478039975
 51
0.0
  0
ARC
  5
423
100
AcDbEntity
  8
0
  6
CONTINUOUS
 62
             7
100
AcDbCircle
 10
161.28615612366929
 20
11.71139990636703
 40
0.20000000000002
100
AcDbArc
 50
0.0
 51
69.44395478040278
  0
ARC
  5
422
100
AcDbEntity
  8
0
  6
CONTINUOUS
 62
             7
100
AcDbCircle
 10
160.28615612366929
 20
-36.911399906367
 40
0.19999999999999
100
AcDbArc
 50
-69.44395478040153
 51
0.0
  0
ARC
  5
421
100
AcDbEntity
  8
0
  6
CONTINUOUS
 62
             7
100
AcDbCircle
 10
160.28615612366929
 20
-38.68860009363283
 40
0.20000000000002
100
AcDbArc
 50
0.0
 51
69.44395478040296
  0
ARC
  5
420
100
AcDbEntity
  8
0
  6
CONTINUOUS
 62
             7
100
AcDbCircle
 10
161.28615612366929
 20
-36.911399906367
 40
0.19999999999999
100
AcDbArc
 50
-69.44395478040153
 51
0.0
  0
ARC
  5
41F
100
AcDbEntity
  8
0
  6
CONTINUOUS
 62
             7
100
AcDbCircle
 10
161.28615612366929
 20
-38.68860009363283
 40
0.20000000000002
100
AcDbArc
 50
0.0
 51
69.44395478040296
  0
ARC
  5
41E
100
AcDbEntity
  8
1
  6
CONTINUOUS
 62
             7
100
AcDbCircle
 10
162.5
 20
-47.25
 40
1.0
100
AcDbArc
 50
0.0
 51
90.0
  0
ARC
  5
41D
100
AcDbEntity
  8
1
  6
CONTINUOUS
 62
             7
100
AcDbCircle
 10
162.5
 20
-50.75
 40
1.0
100
AcDbArc
 50
-90.0
 51
0.0
  0
ARC
  5
41C
100
AcDbEntity
  8
1
  6
CONTINUOUS
 62
             7
100
AcDbCircle
 10
153.59999999999999
 20
-51.89999999999998
 40
1.2
100
AcDbArc
 50
-90.0
 51
0.0
  0
ARC
  5
41B
100
AcDbEntity
  8
1
  6
CONTINUOUS
 62
             7
100
AcDbCircle
 10
130.0
 20
-51.89999999999998
 40
1.19999999999999
100
AcDbArc
 50
180.0
 51
-90.0
  0
ARC
  5
41A
100
AcDbEntity
  8
1
  6
CONTINUOUS
 62
             7
100
AcDbCircle
 10
162.5
 20
47.25000000000001
 40
1.0
100
AcDbArc
 50
-90.0
 51
0.0
  0
ARC
  5
419
100
AcDbEntity
  8
1
  6
CONTINUOUS
 62
             7
100
AcDbCircle
 10
162.5
 20
50.75000000000001
 40
1.0
100
AcDbArc
 50
0.0
 51
90.0
  0
ARC
  5
418
100
AcDbEntity
  8
1
  6
CONTINUOUS
 62
             7
100
AcDbCircle
 10
153.59999999999999
 20
51.90000000000001
 40
1.20000000000002
100
AcDbArc
 50
0.0
 51
90.0
  0
ARC
  5
417
100
AcDbEntity
  8
1
  6
CONTINUOUS
 62
             7
100
AcDbCircle
 10
130.0
 20
51.90000000000001
 40
1.2
100
AcDbArc
 50
90.0
 51
180.0
  0
CIRCLE
  5
416
100
AcDbEntity
  8
1
  6
CONTINUOUS
 62
             7
100
AcDbCircle
 10
150.49999999999989
 20
32.33499999999998
 40
0.24500000000012
  0
CIRCLE
  5
415
100
AcDbEntity
  8
1
  6
CONTINUOUS
 62
             7
100
AcDbCircle
 10
-14.25000000000006
 20
7.0
 40
4.0
  0
CIRCLE
  5
414
100
AcDbEntity
  8
1
  6
CONTINUOUS
 62
             7
100
AcDbCircle
 10
4.75000000000006
 20
7.0
 40
4.0
  0
CIRCLE
  5
413
100
AcDbEntity
  8
1
  6
CONTINUOUS
 62
             7
100
AcDbCircle
 10
14.25000000000006
 20
7.0
 40
4.0
  0
CIRCLE
  5
412
100
AcDbEntity
  8
1
  6
CONTINUOUS
 62
             7
100
AcDbCircle
 10
14.25000000000006
 20
-33.0
 40
4.0
  0
CIRCLE
  5
411
100
AcDbEntity
  8
1
  6
CONTINUOUS
 62
             7
100
AcDbCircle
 10
4.75000000000006
 20
-33.0
 40
4.0
  0
CIRCLE
  5
410
100
AcDbEntity
  8
1
  6
CONTINUOUS
 62
             7
100
AcDbCircle
 10
-14.25000000000006
 20
-33.0
 40
4.0
  0
CIRCLE
  5
40F
100
AcDbEntity
  8
0
  6
CONTINUOUS
 62
             7
100
AcDbCircle
 10
-5.00000000000006
 20
-11.6
 40
0.5499999999999
  0
CIRCLE
  5
40E
100
AcDbEntity
  8
0
  6
CONTINUOUS
 62
             7
100
AcDbCircle
 10
2.49999999999994
 20
-11.6
 40
0.5499999999999
  0
CIRCLE
  5
40D
100
AcDbEntity
  8
0
  6
CONTINUOUS
 62
             7
100
AcDbCircle
 10
9.99999999999994
 20
-11.6
 40
0.55000000000002
  0
CIRCLE
  5
40C
100
AcDbEntity
  8
0
  6
CONTINUOUS
 62
             7
100
AcDbCircle
 10
9.99999999999994
 20
28.40000000000001
 40
0.55000000000002
  0
CIRCLE
  5
40B
100
AcDbEntity
  8
0
  6
CONTINUOUS
 62
             7
100
AcDbCircle
 10
2.49999999999994
 20
28.40000000000001
 40
0.5499999999999
  0
CIRCLE
  5
40A
100
AcDbEntity
  8
0
  6
CONTINUOUS
 62
             7
100
AcDbCircle
 10
-5.00000000000006
 20
28.40000000000001
 40
0.5499999999999
  0
ARC
  5
409
100
AcDbEntity
  8
1
  6
CONTINUOUS
 62
             7
100
AcDbCircle
 10
106.0
 20
-40.50000000000006
 40
1.0
100
AcDbArc
 50
90.0
 51
-90.0
  0
ARC
  5
408
100
AcDbEntity
  8
1
  6
CONTINUOUS
 62
             7
100
AcDbCircle
 10
118.5
 20
-40.50000000000006
 40
1.0
100
AcDbArc
 50
-90.0
 51
90.0
  0
ARC
  5
407
100
AcDbEntity
  8
1
  6
CONTINUOUS
 62
             7
100
AcDbCircle
 10
80.99999999999999
 20
-30.50000000000006
 40
1.0
100
AcDbArc
 50
90.0
 51
-90.0
  0
ARC
  5
406
100
AcDbEntity
  8
1
  6
CONTINUOUS
 62
             7
100
AcDbCircle
 10
93.49999999999999
 20
-30.50000000000006
 40
1.0
100
AcDbArc
 50
-90.0
 51
90.0
  0
ARC
  5
405
100
AcDbEntity
  8
1
  6
CONTINUOUS
 62
             7
100
AcDbCircle
 10
150.49999999999989
 20
35.4235244785437
 40
0.20999999999944
100
AcDbArc
 50
30.00000000007563
 51
150.00000000001745
  0
ARC
  5
404
100
AcDbEntity
  8
1
  6
CONTINUOUS
 62
             7
100
AcDbCircle
 10
148.41373066958889
 20
31.80999999999978
 40
0.21000000000022
100
AcDbArc
 50
149.99999999997704
 51
-90.0
  0
ARC
  5
403
100
AcDbEntity
  8
1
  6
CONTINUOUS
 62
             7
100
AcDbCircle
 10
152.58626933040961
 20
31.80999999999978
 40
0.20999999999993
100
AcDbArc
 50
-90.0
 51
30.00000000005012
  0
ARC
  5
402
100
AcDbEntity
  8
1
  6
CONTINUOUS
 62
             7
100
AcDbCircle
 10
150.49999999999989
 20
34.18999999999977
 40
0.27999999999966
100
AcDbArc
 50
-6.75632703055482
 51
-173.24367296946571
  0
ARC
  5
401
100
AcDbEntity
  8
1
  6
CONTINUOUS
 62
             7
100
AcDbCircle
 10
150.49999999999989
 20
32.99999999999989
 40
0.14000000000077
100
AcDbArc
 50
-173.24367296947301
 51
-6.75632703059815
  0
ARC
  5
400
100
AcDbEntity
  8
1
  6
CONTINUOUS
 62
             7
100
AcDbCircle
 10
93.49999999999999
 20
-20.00000000000006
 40
1.0
100
AcDbArc
 50
-90.0
 51
90.0
  0
ARC
  5
3FF
100
AcDbEntity
  8
1
  6
CONTINUOUS
 62
             7
100
AcDbCircle
 10
80.99999999999999
 20
-20.00000000000006
 40
1.0
100
AcDbArc
 50
90.0
 51
-90.0
  0
ARC
  5
3FE
100
AcDbEntity
  8
1
  6
CONTINUOUS
 62
             7
100
AcDbCircle
 10
80.99999999999999
 20
-23.50000000000006
 40
1.0
100
AcDbArc
 50
90.0
 51
-90.0
  0
ARC
  5
3FD
100
AcDbEntity
  8
1
  6
CONTINUOUS
 62
             7
100
AcDbCircle
 10
93.49999999999999
 20
-23.50000000000006
 40
1.0
100
AcDbArc
 50
-90.0
 51
90.0
  0
ARC
  5
3FC
100
AcDbEntity
  8
1
  6
CONTINUOUS
 62
             7
100
AcDbCircle
 10
93.49999999999999
 20
-27.00000000000006
 40
1.0
100
AcDbArc
 50
-90.0
 51
90.0
  0
ARC
  5
3FB
100
AcDbEntity
  8
1
  6
CONTINUOUS
 62
             7
100
AcDbCircle
 10
80.99999999999999
 20
-27.00000000000006
 40
1.0
100
AcDbArc
 50
90.0
 51
-90.0
  0
ARC
  5
3FA
100
AcDbEntity
  8
1
  6
CONTINUOUS
 62
             7
100
AcDbCircle
 10
106.0
 20
-37.00000000000006
 40
1.0
100
AcDbArc
 50
90.0
 51
-90.0
  0
ARC
  5
3F9
100
AcDbEntity
  8
1
  6
CONTINUOUS
 62
             7
100
AcDbCircle
 10
118.5
 20
-37.00000000000006
 40
1.0
100
AcDbArc
 50
-90.0
 51
90.0
  0
ARC
  5
3F8
100
AcDbEntity
  8
1
  6
CONTINUOUS
 62
             7
100
AcDbCircle
 10
138.0
 20
-37.00000000000006
 40
1.0
100
AcDbArc
 50
-90.0
 51
90.0
  0
ARC
  5
3F7
100
AcDbEntity
  8
1
  6
CONTINUOUS
 62
             7
100
AcDbCircle
 10
125.5
 20
-37.00000000000006
 40
1.0
100
AcDbArc
 50
90.0
 51
-90.0
  0
ARC
  5
3F6
100
AcDbEntity
  8
1
  6
CONTINUOUS
 62
             7
100
AcDbCircle
 10
125.5
 20
-40.50000000000006
 40
1.0
100
AcDbArc
 50
90.0
 51
-90.0
  0
ARC
  5
3F5
100
AcDbEntity
  8
1
  6
CONTINUOUS
 62
             7
100
AcDbCircle
 10
138.0
 20
-40.50000000000006
 40
1.0
100
AcDbArc
 50
-90.0
 51
90.0
  0
ARC
  5
3F4
100
AcDbEntity
  8
1
  6
CONTINUOUS
 62
             7
100
AcDbCircle
 10
22.99999999999999
 20
-47.0
 40
1.0
100
AcDbArc
 50
-90.0
 51
0.0
  0
ARC
  5
3F3
100
AcDbEntity
  8
1
  6
CONTINUOUS
 62
             7
100
AcDbCircle
 10
-23.00000000000012
 20
-47.0
 40
0.99999999999988
100
AcDbArc
 50
180.0
 51
-90.0
  0
ARC
  5
3F2
100
AcDbEntity
  8
1
  6
CONTINUOUS
 62
             7
100
AcDbCircle
 10
-23.00000000000012
 20
47.0
 40
1.0
100
AcDbArc
 50
89.99999999999308
 51
180.0
  0
ARC
  5
3F1
100
AcDbEntity
  8
1
  6
CONTINUOUS
 62
             7
100
AcDbCircle
 10
22.99999999999999
 20
47.0
 40
1.0
100
AcDbArc
 50
0.0
 51
90.0
  0
ARC
  5
3F0
100
AcDbEntity
  8
1
  6
CONTINUOUS
 62
             7
100
AcDbCircle
 10
57.5
 20
47.19809375960232
 40
0.49999999999999
100
AcDbArc
 50
93.99999999999658
 51
180.0
  0
ARC
  5
3EF
100
AcDbEntity
  8
1
  6
CONTINUOUS
 62
             7
100
AcDbCircle
 10
57.5
 20
-47.1980937596023
 40
0.5
100
AcDbArc
 50
180.0
 51
-93.99999999999658
  0
ARC
  5
3EE
100
AcDbEntity
  8
0
  6
CONTINUOUS
 62
             7
100
AcDbCircle
 10
162.22527626529379
 20
39.5499999999999
 40
1.00000000000004
100
AcDbArc
 50
16.95776330000249
 51
90.0
  0
ARC
  5
3ED
100
AcDbEntity
  8
0
  6
CONTINUOUS
 62
             7
100
AcDbCircle
 10
156.4861561236693
 20
37.7999999999999
 40
7.00000000000003
100
AcDbArc
 50
-16.957763300004
 51
16.95776330000394
  0
ARC
  5
3EC
100
AcDbEntity
  8
0
  6
CONTINUOUS
 62
             7
100
AcDbCircle
 10
162.22527626529379
 20
36.0499999999999
 40
1.0
100
AcDbArc
 50
-90.0
 51
-16.95776330000288
  0
ARC
  5
3EB
100
AcDbEntity
  8
0
  6
CONTINUOUS
 62
             7
100
AcDbCircle
 10
162.22527626529379
 20
31.14999999999992
 40
1.00000000000004
100
AcDbArc
 50
16.95776330000307
 51
90.0
  0
ARC
  5
3EA
100
AcDbEntity
  8
0
  6
CONTINUOUS
 62
             7
100
AcDbCircle
 10
156.4861561236693
 20
29.39999999999992
 40
7.00000000000003
100
AcDbArc
 50
-16.95776330000403
 51
16.95776330000403
  0
ARC
  5
3E9
100
AcDbEntity
  8
0
  6
CONTINUOUS
 62
             7
100
AcDbCircle
 10
162.22527626529379
 20
27.64999999999992
 40
1.0
100
AcDbArc
 50
-90.0
 51
-16.95776330000307
  0
ARC
  5
3E8
100
AcDbEntity
  8
0
  6
CONTINUOUS
 62
             7
100
AcDbCircle
 10
162.22527626529379
 20
22.74999999999991
 40
1.00000000000005
100
AcDbArc
 50
16.95776330000463
 51
90.0
  0
ARC
  5
3E7
100
AcDbEntity
  8
0
  6
CONTINUOUS
 62
             7
100
AcDbCircle
 10
156.4861561236693
 20
20.99999999999991
 40
7.00000000000002
100
AcDbArc
 50
-16.95776330000372
 51
16.95776330000425
  0
ARC
  5
3E6
100
AcDbEntity
  8
0
  6
CONTINUOUS
 62
             7
100
AcDbCircle
 10
162.22527626529379
 20
19.24999999999991
 40
0.99999999999997
100
AcDbArc
 50
-90.0
 51
-16.95776330000093
  0
ARC
  5
3E5
100
AcDbEntity
  8
0
  6
CONTINUOUS
 62
             7
100
AcDbCircle
 10
162.22527626529379
 20
14.34999999999993
 40
1.00000000000005
100
AcDbArc
 50
16.95776330000463
 51
90.0
  0
ARC
  5
3E4
100
AcDbEntity
  8
0
  6
CONTINUOUS
 62
             7
100
AcDbCircle
 10
156.4861561236693
 20
12.59999999999996
 40
7.00000000000003
100
AcDbArc
 50
-16.95776330000419
 51
16.95776330000401
  0
ARC
  5
3E3
100
AcDbEntity
  8
0
  6
CONTINUOUS
 62
             7
100
AcDbCircle
 10
162.22527626529379
 20
10.84999999999996
 40
1.00000000000002
100
AcDbArc
 50
-90.0
 51
-16.95776330000415
  0
ARC
  5
3E2
100
AcDbEntity
  8
0
  6
CONTINUOUS
 62
             7
100
AcDbCircle
 10
162.22527626529379
 20
-36.0499999999999
 40
1.00000000000003
100
AcDbArc
 50
16.95776330000132
 51
90.0
  0
ARC
  5
3E1
100
AcDbEntity
  8
0
  6
CONTINUOUS
 62
             7
100
AcDbCircle
 10
156.4861561236693
 20
-37.7999999999999
 40
7.00000000000002
100
AcDbArc
 50
-16.95776330000394
 51
16.95776330000378
  0
ARC
  5
3E0
100
AcDbEntity
  8
0
  6
CONTINUOUS
 62
             7
100
AcDbCircle
 10
162.22527626529379
 20
-39.5499999999999
 40
1.0
100
AcDbArc
 50
-90.0
 51
-16.95776330000249
  0
ARC
  5
3DF
100
AcDbEntity
  8
1
  6
CONTINUOUS
 62
             7
100
AcDbCircle
 10
160.90000000000001
 20
-46.09999999999998
 40
0.59999999999999
100
AcDbArc
 50
0.00000000000068
 51
90.0
  0
ARC
  5
3DE
100
AcDbEntity
  8
1
  6
CONTINUOUS
 62
             7
100
AcDbCircle
 10
160.90000000000001
 20
46.09999999999999
 40
0.59999999999998
100
AcDbArc
 50
-90.0
 51
0.0
  0
LINE
  5
3DD
100
AcDbEntity
  8
1
  6
CONTINUOUS
 62
             7
100
AcDbLine
 10
95.49999999999999
 20
35.0
 11
95.49999999999999
 21
-33.50000000000006
  0
LINE
  5
3DC
100
AcDbEntity
  8
1
  6
CONTINUOUS
 62
             7
100
AcDbLine
 10
159.5
 20
44.0
 11
157.0
 21
44.0
  0
LINE
  5
3DB
100
AcDbEntity
  8
1
  6
CONTINUOUS
 62
             7
100
AcDbLine
 10
159.5
 20
-44.00000000000006
 11
157.0
 21
-44.00000000000006
  0
LINE
  5
3DA
100
AcDbEntity
  8
1
  6
CONTINUOUS
 62
             7
100
AcDbLine
 10
155.5
 20
45.5
 11
155.5
 21
-45.50000000000006
  0
LINE
  5
3D9
100
AcDbEntity
  8
1
  6
CONTINUOUS
 62
             7
100
AcDbLine
 10
106.0
 20
-39.50000000000006
 11
118.5
 21
-39.50000000000006
  0
LINE
  5
3D8
100
AcDbEntity
  8
1
  6
CONTINUOUS
 62
             7
100
AcDbLine
 10
118.5
 20
-41.50000000000006
 11
106.0
 21
-41.50000000000006
  0
LINE
  5
3D7
100
AcDbEntity
  8
1
  6
CONTINUOUS
 62
             7
100
AcDbLine
 10
150.31813466520509
 20
35.52852447854366
 11
148.23186533479401
 21
31.91499999999996
  0
LINE
  5
3D6
100
AcDbEntity
  8
1
  6
CONTINUOUS
 62
             7
100
AcDbLine
 10
148.41373066958889
 20
31.59999999999985
 11
152.58626933040961
 21
31.59999999999985
  0
LINE
  5
3D5
100
AcDbEntity
  8
1
  6
CONTINUOUS
 62
             7
100
AcDbLine
 10
152.76813466520429
 20
31.91499999999996
 11
150.681865334794
 21
35.52852447854366
  0
LINE
  5
3D4
100
AcDbEntity
  8
1
  6
CONTINUOUS
 62
             7
100
AcDbLine
 10
150.49999999999989
 20
35.3535244785437
 11
148.4743524478539
 21
31.84499999999986
  0
LINE
  5
3D3
100
AcDbEntity
  8
1
  6
CONTINUOUS
 62
             7
100
AcDbLine
 10
148.4743524478539
 20
31.84499999999986
 11
152.5256475521449
 21
31.84499999999986
  0
LINE
  5
3D2
100
AcDbEntity
  8
1
  6
CONTINUOUS
 62
             7
100
AcDbLine
 10
152.5256475521449
 20
31.84499999999986
 11
150.49999999999989
 21
35.3535244785437
  0
LINE
  5
3D1
100
AcDbEntity
  8
1
  6
CONTINUOUS
 62
             7
100
AcDbLine
 10
150.77805553203001
 20
34.15705882352938
 11
150.63902776601441
 21
32.98352941176466
  0
LINE
  5
3D0
100
AcDbEntity
  8
1
  6
CONTINUOUS
 62
             7
100
AcDbLine
 10
150.36097223398389
 20
32.98352941176466
 11
150.22194446796891
 21
34.15705882352938
  0
LINE
  5
3CF
100
AcDbEntity
  8
1
  6
CONTINUOUS
 62
             7
100
AcDbLine
 10
153.5
 20
36.59999999999985
 11
147.5
 21
36.59999999999985
  0
LINE
  5
3CE
100
AcDbEntity
  8
1
  6
CONTINUOUS
 62
             7
100
AcDbLine
 10
147.5
 20
36.59999999999985
 11
147.5
 21
30.59999999999985
  0
LINE
  5
3CD
100
AcDbEntity
  8
1
  6
CONTINUOUS
 62
             7
100
AcDbLine
 10
147.5
 20
30.59999999999985
 11
153.5
 21
30.59999999999985
  0
LINE
  5
3CC
100
AcDbEntity
  8
1
  6
CONTINUOUS
 62
             7
100
AcDbLine
 10
153.5
 20
30.59999999999985
 11
153.5
 21
36.59999999999985
  0
LINE
  5
3CB
100
AcDbEntity
  8
1
  6
CONTINUOUS
 62
             7
100
AcDbLine
 10
79.99999999999999
 20
45.5
 11
155.5
 21
45.5
  0
LINE
  5
3CA
100
AcDbEntity
  8
1
  6
CONTINUOUS
 62
             7
100
AcDbLine
 10
79.99999999999999
 20
45.0
 11
79.99999999999999
 21
45.5
  0
LINE
  5
3C9
100
AcDbEntity
  8
1
  6
CONTINUOUS
 62
             7
100
AcDbLine
 10
68.99999999999999
 20
45.0
 11
79.99999999999999
 21
45.0
  0
LINE
  5
3C8
100
AcDbEntity
  8
1
  6
CONTINUOUS
 62
             7
100
AcDbLine
 10
68.99999999999999
 20
45.5
 11
79.99999999999999
 21
45.5
  0
LINE
  5
3C7
100
AcDbEntity
  8
1
  6
CONTINUOUS
 62
             7
100
AcDbLine
 10
68.99999999999999
 20
45.0
 11
68.99999999999999
 21
45.5
  0
LINE
  5
3C6
100
AcDbEntity
  8
1
  6
CONTINUOUS
 62
             7
100
AcDbLine
 10
159.5
 20
-41.31982025971297
 11
160.0861561236693
 21
-41.33005165290967
  0
LINE
  5
3C5
100
AcDbEntity
  8
1
  6
CONTINUOUS
 62
             7
100
AcDbLine
 10
159.5
 20
-34.28017974028717
 11
159.5
 21
-41.31982025971297
  0
LINE
  5
3C4
100
AcDbEntity
  8
1
  6
CONTINUOUS
 62
             7
100
AcDbLine
 10
159.5
 20
-32.91982025971294
 11
160.0861561236693
 21
-32.9300516529097
  0
LINE
  5
3C3
100
AcDbEntity
  8
1
  6
CONTINUOUS
 62
             7
100
AcDbLine
 10
159.5
 20
-25.88017974028719
 11
159.5
 21
-32.91982025971294
  0
LINE
  5
3C2
100
AcDbEntity
  8
1
  6
CONTINUOUS
 62
             7
100
AcDbLine
 10
159.5
 20
-24.51982025971296
 11
160.0861561236693
 21
-24.53005165290966
  0
LINE
  5
3C1
100
AcDbEntity
  8
1
  6
CONTINUOUS
 62
             7
100
AcDbLine
 10
159.5
 20
-17.48017974028721
 11
159.5
 21
-24.51982025971296
  0
LINE
  5
3C0
100
AcDbEntity
  8
1
  6
CONTINUOUS
 62
             7
100
AcDbLine
 10
159.5
 20
-16.11982025971298
 11
160.0861561236693
 21
-16.13005165290969
  0
LINE
  5
3BF
100
AcDbEntity
  8
1
  6
CONTINUOUS
 62
             7
100
AcDbLine
 10
159.5
 20
-9.08017974028718
 11
159.5
 21
-16.11982025971298
  0
LINE
  5
3BE
100
AcDbEntity
  8
1
  6
CONTINUOUS
 62
             7
100
AcDbLine
 10
159.5
 20
-7.71982025971295
 11
160.0861561236693
 21
-7.73005165290971
  0
LINE
  5
3BD
100
AcDbEntity
  8
1
  6
CONTINUOUS
 62
             7
100
AcDbLine
 10
159.5
 20
-0.6801797402872
 11
159.5
 21
-7.71982025971295
  0
LINE
  5
3BC
100
AcDbEntity
  8
1
  6
CONTINUOUS
 62
             7
100
AcDbLine
 10
159.5
 20
0.68017974028703
 11
160.0861561236693
 21
0.66994834709032
  0
LINE
  5
3BB
100
AcDbEntity
  8
1
  6
CONTINUOUS
 62
             7
100
AcDbLine
 10
159.5
 20
7.71982025971277
 11
159.5
 21
0.68017974028703
  0
LINE
  5
3BA
100
AcDbEntity
  8
1
  6
CONTINUOUS
 62
             7
100
AcDbLine
 10
159.5
 20
9.08017974028695
 11
160.0861561236693
 21
9.06994834709024
  0
LINE
  5
3B9
100
AcDbEntity
  8
1
  6
CONTINUOUS
 62
             7
100
AcDbLine
 10
159.5
 20
16.11982025971275
 11
159.5
 21
9.08017974028695
  0
LINE
  5
3B8
100
AcDbEntity
  8
1
  6
CONTINUOUS
 62
             7
100
AcDbLine
 10
159.5
 20
17.4801797402871
 11
160.0861561236693
 21
17.46994834709028
  0
LINE
  5
3B7
100
AcDbEntity
  8
1
  6
CONTINUOUS
 62
             7
100
AcDbLine
 10
159.5
 20
24.51982025971279
 11
159.5
 21
17.4801797402871
  0
LINE
  5
3B6
100
AcDbEntity
  8
1
  6
CONTINUOUS
 62
             7
100
AcDbLine
 10
159.5
 20
25.88017974028708
 11
160.0861561236693
 21
25.86994834709026
  0
LINE
  5
3B5
100
AcDbEntity
  8
1
  6
CONTINUOUS
 62
             7
100
AcDbLine
 10
159.5
 20
32.91982025971277
 11
159.5
 21
25.88017974028708
  0
LINE
  5
3B4
100
AcDbEntity
  8
1
  6
CONTINUOUS
 62
             7
100
AcDbLine
 10
159.5
 20
34.280179740287
 11
160.0861561236693
 21
34.26994834709029
  0
LINE
  5
3B3
100
AcDbEntity
  8
1
  6
CONTINUOUS
 62
             7
100
AcDbLine
 10
159.5
 20
41.3198202597128
 11
159.5
 21
34.280179740287
  0
LINE
  5
3B2
100
AcDbEntity
  8
1
  6
CONTINUOUS
 62
             7
100
AcDbLine
 10
61.99999999999999
 20
48.0
 11
66.99999999999999
 21
48.0
  0
LINE
  5
3B1
100
AcDbEntity
  8
1
  6
CONTINUOUS
 62
             7
100
AcDbLine
 10
56.69999999999992
 20
47.0
 11
56.69999999999992
 21
48.0
  0
LINE
  5
3B0
100
AcDbEntity
  8
1
  6
CONTINUOUS
 62
             7
100
AcDbLine
 10
61.99999999999999
 20
-48.00000000000006
 11
66.99999999999999
 21
-48.00000000000006
  0
LINE
  5
3AF
100
AcDbEntity
  8
1
  6
CONTINUOUS
 62
             7
100
AcDbLine
 10
56.69999999999992
 20
-47.00000000000006
 11
56.69999999999992
 21
-48.00000000000006
  0
LINE
  5
3AE
100
AcDbEntity
  8
1
  6
CONTINUOUS
 62
             7
100
AcDbLine
 10
61.99999999999999
 20
-48.00000000000006
 11
61.99999999999999
 21
48.0
  0
LINE
  5
3AD
100
AcDbEntity
  8
1
  6
CONTINUOUS
 62
             7
100
AcDbLine
 10
56.69999999999992
 20
48.0
 11
61.99999999999999
 21
48.0
  0
LINE
  5
3AC
100
AcDbEntity
  8
1
  6
CONTINUOUS
 62
             7
100
AcDbLine
 10
56.69999999999992
 20
-48.00000000000006
 11
61.99999999999999
 21
-48.00000000000006
  0
LINE
  5
3AB
100
AcDbEntity
  8
1
  6
CONTINUOUS
 62
             7
100
AcDbLine
 10
56.69999999999992
 20
-47.00000000000006
 11
56.99999999999999
 21
-46.70000000000005
  0
LINE
  5
3AA
100
AcDbEntity
  8
1
  6
CONTINUOUS
 62
             7
100
AcDbLine
 10
56.69999999999992
 20
47.0
 11
56.99999999999999
 21
46.69999999999999
  0
LINE
  5
3A9
100
AcDbEntity
  8
1
  6
CONTINUOUS
 62
             7
100
AcDbLine
 10
66.99999999999999
 20
-45.80000000000007
 11
66.99999999999999
 21
48.0
  0
LINE
  5
3A8
100
AcDbEntity
  8
1
  6
CONTINUOUS
 62
             7
100
AcDbLine
 10
66.99999999999999
 20
-48.00000000000006
 11
66.99999999999999
 21
-45.80000000000007
  0
LINE
  5
3A7
100
AcDbEntity
  8
1
  6
CONTINUOUS
 62
             7
100
AcDbLine
 10
68.49999999999999
 20
45.5
 11
68.99999999999999
 21
45.5
  0
LINE
  5
3A6
100
AcDbEntity
  8
1
  6
CONTINUOUS
 62
             7
100
AcDbLine
 10
155.5
 20
-45.50000000000006
 11
68.49999999999999
 21
-45.50000000000006
  0
LINE
  5
3A5
100
AcDbEntity
  8
1
  6
CONTINUOUS
 62
             7
100
AcDbLine
 10
157.0
 20
44.0
 11
155.5
 21
45.5
  0
LINE
  5
3A4
100
AcDbEntity
  8
1
  6
CONTINUOUS
 62
             7
100
AcDbLine
 10
155.5
 20
-45.50000000000006
 11
157.0
 21
-44.00000000000006
  0
LINE
  5
3A3
100
AcDbEntity
  8
1
  6
CONTINUOUS
 62
             7
100
AcDbLine
 10
167.0
 20
-43.50000000000006
 11
166.5
 21
-44.00000000000006
  0
LINE
  5
3A2
100
AcDbEntity
  8
1
  6
CONTINUOUS
 62
             7
100
AcDbLine
 10
167.0
 20
43.5
 11
166.5
 21
44.0
  0
LINE
  5
3A1
100
AcDbEntity
  8
1
  6
CONTINUOUS
 62
             7
100
AcDbLine
 10
93.49999999999999
 20
-21.00000000000006
 11
80.99999999999999
 21
-21.00000000000006
  0
LINE
  5
3A0
100
AcDbEntity
  8
1
  6
CONTINUOUS
 62
             7
100
AcDbLine
 10
80.99999999999999
 20
-19.00000000000006
 11
93.49999999999999
 21
-19.00000000000006
  0
LINE
  5
39F
100
AcDbEntity
  8
1
  6
CONTINUOUS
 62
             7
100
AcDbLine
 10
80.99999999999999
 20
-22.50000000000006
 11
93.49999999999999
 21
-22.50000000000006
  0
LINE
  5
39E
100
AcDbEntity
  8
1
  6
CONTINUOUS
 62
             7
100
AcDbLine
 10
93.49999999999999
 20
-24.50000000000006
 11
80.99999999999999
 21
-24.50000000000006
  0
LINE
  5
39D
100
AcDbEntity
  8
1
  6
CONTINUOUS
 62
             7
100
AcDbLine
 10
93.49999999999999
 20
-28.00000000000006
 11
80.99999999999999
 21
-28.00000000000006
  0
LINE
  5
39C
100
AcDbEntity
  8
1
  6
CONTINUOUS
 62
             7
100
AcDbLine
 10
80.99999999999999
 20
-26.00000000000006
 11
93.49999999999999
 21
-26.00000000000006
  0
LINE
  5
39B
100
AcDbEntity
  8
1
  6
CONTINUOUS
 62
             7
100
AcDbLine
 10
106.0
 20
-36.00000000000006
 11
118.5
 21
-36.00000000000006
  0
LINE
  5
39A
100
AcDbEntity
  8
1
  6
CONTINUOUS
 62
             7
100
AcDbLine
 10
118.5
 20
-38.00000000000006
 11
106.0
 21
-38.00000000000006
  0
LINE
  5
399
100
AcDbEntity
  8
1
  6
CONTINUOUS
 62
             7
100
AcDbLine
 10
138.0
 20
-38.00000000000006
 11
125.5
 21
-38.00000000000006
  0
LINE
  5
398
100
AcDbEntity
  8
1
  6
CONTINUOUS
 62
             7
100
AcDbLine
 10
125.5
 20
-36.00000000000006
 11
138.0
 21
-36.00000000000006
  0
LINE
  5
397
100
AcDbEntity
  8
1
  6
CONTINUOUS
 62
             7
100
AcDbLine
 10
80.99999999999999
 20
-29.50000000000006
 11
93.49999999999999
 21
-29.50000000000006
  0
LINE
  5
396
100
AcDbEntity
  8
1
  6
CONTINUOUS
 62
             7
100
AcDbLine
 10
93.49999999999999
 20
-31.50000000000006
 11
80.99999999999999
 21
-31.50000000000006
  0
LINE
  5
395
100
AcDbEntity
  8
1
  6
CONTINUOUS
 62
             7
100
AcDbLine
 10
125.5
 20
-39.50000000000006
 11
138.0
 21
-39.50000000000006
  0
LINE
  5
394
100
AcDbEntity
  8
1
  6
CONTINUOUS
 62
             7
100
AcDbLine
 10
138.0
 20
-41.50000000000006
 11
125.5
 21
-41.50000000000006
  0
LINE
  5
393
100
AcDbEntity
  8
1
  6
CONTINUOUS
 62
             7
100
AcDbLine
 10
95.49999999999999
 20
35.0
 11
143.5
 21
35.0
  0
LINE
  5
392
100
AcDbEntity
  8
1
  6
CONTINUOUS
 62
             7
100
AcDbLine
 10
96.99999999999999
 20
-35.00000000000006
 11
143.5
 21
-35.00000000000006
  0
LINE
  5
391
100
AcDbEntity
  8
1
  6
CONTINUOUS
 62
             7
100
AcDbLine
 10
143.5
 20
-35.00000000000006
 11
143.5
 21
35.0
  0
LINE
  5
390
100
AcDbEntity
  8
1
  6
CONTINUOUS
 62
             7
100
AcDbLine
 10
160.0861561236693
 20
-34.26994834709046
 11
159.5
 21
-34.28017974028717
  0
LINE
  5
38F
100
AcDbEntity
  8
1
  6
CONTINUOUS
 62
             7
100
AcDbLine
 10
165.0
 20
44.0
 11
159.5
 21
44.0
  0
LINE
  5
38E
100
AcDbEntity
  8
1
  6
CONTINUOUS
 62
             7
100
AcDbLine
 10
167.0
 20
-34.14926675332555
 11
165.5
 21
-34.17544935071788
  0
LINE
  5
38D
100
AcDbEntity
  8
1
  6
CONTINUOUS
 62
             7
100
AcDbLine
 10
165.0
 20
-44.00000000000006
 11
159.5
 21
-44.00000000000006
  0
LINE
  5
38C
100
AcDbEntity
  8
1
  6
CONTINUOUS
 62
             7
100
AcDbLine
 10
165.0
 20
-41.41582311681816
 11
165.5
 21
-41.42455064928225
  0
LINE
  5
38B
100
AcDbEntity
  8
1
  6
CONTINUOUS
 62
             7
100
AcDbLine
 10
166.5
 20
45.5
 11
155.5
 21
45.5
  0
LINE
  5
38A
100
AcDbEntity
  8
1
  6
CONTINUOUS
 62
             7
100
AcDbLine
 10
167.0
 20
45.0
 11
166.5
 21
45.5
  0
LINE
  5
389
100
AcDbEntity
  8
1
  6
CONTINUOUS
 62
             7
100
AcDbLine
 10
167.0
 20
43.5
 11
167.0
 21
45.0
  0
LINE
  5
388
100
AcDbEntity
  8
1
  6
CONTINUOUS
 62
             7
100
AcDbLine
 10
167.0
 20
-45.00000000000006
 11
167.0
 21
-43.50000000000006
  0
LINE
  5
387
100
AcDbEntity
  8
1
  6
CONTINUOUS
 62
             7
100
AcDbLine
 10
166.5
 20
-45.50000000000006
 11
167.0
 21
-45.00000000000006
  0
LINE
  5
386
100
AcDbEntity
  8
1
  6
CONTINUOUS
 62
             7
100
AcDbLine
 10
155.5
 20
-45.50000000000006
 11
166.5
 21
-45.50000000000006
  0
LINE
  5
385
100
AcDbEntity
  8
1
  6
CONTINUOUS
 62
             7
100
AcDbLine
 10
160.0861561236693
 20
-41.33005165290967
 11
160.0861561236693
 21
-34.26994834709046
  0
LINE
  5
384
100
AcDbEntity
  8
1
  6
CONTINUOUS
 62
             7
100
AcDbLine
 10
165.0
 20
-34.18417688318203
 11
160.0861561236693
 21
-34.26994834709046
  0
LINE
  5
383
100
AcDbEntity
  8
1
  6
CONTINUOUS
 62
             7
100
AcDbLine
 10
165.5
 20
-41.42455064928225
 11
167.0
 21
-41.45073324667459
  0
LINE
  5
382
100
AcDbEntity
  8
1
  6
CONTINUOUS
 62
             7
100
AcDbLine
 10
165.5
 20
-33.02455064928228
 11
167.0
 21
-33.05073324667461
  0
LINE
  5
381
100
AcDbEntity
  8
1
  6
CONTINUOUS
 62
             7
100
AcDbLine
 10
165.0
 20
-25.784176883182
 11
160.0861561236693
 21
-25.86994834709049
  0
LINE
  5
380
100
AcDbEntity
  8
1
  6
CONTINUOUS
 62
             7
100
AcDbLine
 10
160.0861561236693
 20
-32.9300516529097
 11
160.0861561236693
 21
-25.86994834709049
  0
LINE
  5
37F
100
AcDbEntity
  8
1
  6
CONTINUOUS
 62
             7
100
AcDbLine
 10
160.0861561236693
 20
-25.86994834709049
 11
159.5
 21
-25.88017974028719
  0
LINE
  5
37E
100
AcDbEntity
  8
1
  6
CONTINUOUS
 62
             7
100
AcDbLine
 10
165.0
 20
-33.01582311681813
 11
165.5
 21
-33.02455064928228
  0
LINE
  5
37D
100
AcDbEntity
  8
1
  6
CONTINUOUS
 62
             7
100
AcDbLine
 10
167.0
 20
-25.74926675332557
 11
165.5
 21
-25.77544935071791
  0
LINE
  5
37C
100
AcDbEntity
  8
1
  6
CONTINUOUS
 62
             7
100
AcDbLine
 10
160.0861561236693
 20
-17.46994834709045
 11
159.5
 21
-17.48017974028721
  0
LINE
  5
37B
100
AcDbEntity
  8
1
  6
CONTINUOUS
 62
             7
100
AcDbLine
 10
167.0
 20
-17.34926675332559
 11
165.5
 21
-17.37544935071787
  0
LINE
  5
37A
100
AcDbEntity
  8
1
  6
CONTINUOUS
 62
             7
100
AcDbLine
 10
165.0
 20
-24.61582311681815
 11
165.5
 21
-24.62455064928224
  0
LINE
  5
379
100
AcDbEntity
  8
1
  6
CONTINUOUS
 62
             7
100
AcDbLine
 10
160.0861561236693
 20
-24.53005165290966
 11
160.0861561236693
 21
-17.46994834709045
  0
LINE
  5
378
100
AcDbEntity
  8
1
  6
CONTINUOUS
 62
             7
100
AcDbLine
 10
165.0
 20
-17.38417688318202
 11
160.0861561236693
 21
-17.46994834709045
  0
LINE
  5
377
100
AcDbEntity
  8
1
  6
CONTINUOUS
 62
             7
100
AcDbLine
 10
165.5
 20
-24.62455064928224
 11
167.0
 21
-24.65073324667458
  0
LINE
  5
376
100
AcDbEntity
  8
1
  6
CONTINUOUS
 62
             7
100
AcDbLine
 10
165.5
 20
-16.22455064928226
 11
167.0
 21
-16.2507332466746
  0
LINE
  5
375
100
AcDbEntity
  8
1
  6
CONTINUOUS
 62
             7
100
AcDbLine
 10
165.0
 20
-8.98417688318199
 11
160.0861561236693
 21
-9.06994834709047
  0
LINE
  5
374
100
AcDbEntity
  8
1
  6
CONTINUOUS
 62
             7
100
AcDbLine
 10
160.0861561236693
 20
-16.13005165290969
 11
160.0861561236693
 21
-9.06994834709047
  0
LINE
  5
373
100
AcDbEntity
  8
1
  6
CONTINUOUS
 62
             7
100
AcDbLine
 10
160.0861561236693
 20
-9.06994834709047
 11
159.5
 21
-9.08017974028718
  0
LINE
  5
372
100
AcDbEntity
  8
1
  6
CONTINUOUS
 62
             7
100
AcDbLine
 10
165.0
 20
-16.21582311681817
 11
165.5
 21
-16.22455064928226
  0
LINE
  5
371
100
AcDbEntity
  8
1
  6
CONTINUOUS
 62
             7
100
AcDbLine
 10
167.0
 20
-8.94926675332556
 11
165.5
 21
-8.9754493507179
  0
LINE
  5
370
100
AcDbEntity
  8
1
  6
CONTINUOUS
 62
             7
100
AcDbLine
 10
160.0861561236693
 20
-0.6699483470905
 11
159.5
 21
-0.6801797402872
  0
LINE
  5
36F
100
AcDbEntity
  8
1
  6
CONTINUOUS
 62
             7
100
AcDbLine
 10
167.0
 20
-0.54926675332558
 11
165.5
 21
-0.57544935071792
  0
LINE
  5
36E
100
AcDbEntity
  8
1
  6
CONTINUOUS
 62
             7
100
AcDbLine
 10
165.0
 20
-7.81582311681814
 11
165.5
 21
-7.82455064928223
  0
LINE
  5
36D
100
AcDbEntity
  8
1
  6
CONTINUOUS
 62
             7
100
AcDbLine
 10
160.0861561236693
 20
-7.73005165290971
 11
160.0861561236693
 21
-0.6699483470905
  0
LINE
  5
36C
100
AcDbEntity
  8
1
  6
CONTINUOUS
 62
             7
100
AcDbLine
 10
165.0
 20
-0.58417688318201
 11
160.0861561236693
 21
-0.6699483470905
  0
LINE
  5
36B
100
AcDbEntity
  8
1
  6
CONTINUOUS
 62
             7
100
AcDbLine
 10
165.5
 20
-7.82455064928223
 11
167.0
 21
-7.85073324667457
  0
LINE
  5
36A
100
AcDbEntity
  8
1
  6
CONTINUOUS
 62
             7
100
AcDbLine
 10
165.5
 20
0.57544935071775
 11
167.0
 21
0.54926675332541
  0
LINE
  5
369
100
AcDbEntity
  8
1
  6
CONTINUOUS
 62
             7
100
AcDbLine
 10
165.0
 20
7.81582311681797
 11
160.0861561236693
 21
7.73005165290948
  0
LINE
  5
368
100
AcDbEntity
  8
1
  6
CONTINUOUS
 62
             7
100
AcDbLine
 10
160.0861561236693
 20
0.66994834709032
 11
160.0861561236693
 21
7.73005165290948
  0
LINE
  5
367
100
AcDbEntity
  8
1
  6
CONTINUOUS
 62
             7
100
AcDbLine
 10
160.0861561236693
 20
7.73005165290948
 11
159.5
 21
7.71982025971277
  0
LINE
  5
366
100
AcDbEntity
  8
1
  6
CONTINUOUS
 62
             7
100
AcDbLine
 10
165.0
 20
0.58417688318184
 11
165.5
 21
0.57544935071775
  0
LINE
  5
365
100
AcDbEntity
  8
1
  6
CONTINUOUS
 62
             7
100
AcDbLine
 10
167.0
 20
7.85073324667439
 11
165.5
 21
7.82455064928206
  0
LINE
  5
364
100
AcDbEntity
  8
1
  6
CONTINUOUS
 62
             7
100
AcDbLine
 10
160.0861561236693
 20
16.13005165290957
 11
159.5
 21
16.11982025971275
  0
LINE
  5
363
100
AcDbEntity
  8
1
  6
CONTINUOUS
 62
             7
100
AcDbLine
 10
167.0
 20
16.25073324667437
 11
165.5
 21
16.22455064928209
  0
LINE
  5
362
100
AcDbEntity
  8
1
  6
CONTINUOUS
 62
             7
100
AcDbLine
 10
165.0
 20
8.98417688318187
 11
165.5
 21
8.97544935071778
  0
LINE
  5
361
100
AcDbEntity
  8
1
  6
CONTINUOUS
 62
             7
100
AcDbLine
 10
160.0861561236693
 20
9.06994834709024
 11
160.0861561236693
 21
16.13005165290957
  0
LINE
  5
360
100
AcDbEntity
  8
1
  6
CONTINUOUS
 62
             7
100
AcDbLine
 10
165.0
 20
16.21582311681794
 11
160.0861561236693
 21
16.13005165290957
  0
LINE
  5
35F
100
AcDbEntity
  8
1
  6
CONTINUOUS
 62
             7
100
AcDbLine
 10
165.5
 20
8.97544935071778
 11
167.0
 21
8.94926675332539
  0
LINE
  5
35E
100
AcDbEntity
  8
1
  6
CONTINUOUS
 62
             7
100
AcDbLine
 10
165.5
 20
17.37544935071776
 11
167.0
 21
17.34926675332537
  0
LINE
  5
35D
100
AcDbEntity
  8
1
  6
CONTINUOUS
 62
             7
100
AcDbLine
 10
165.0
 20
24.61582311681798
 11
160.0861561236693
 21
24.53005165290949
  0
LINE
  5
35C
100
AcDbEntity
  8
1
  6
CONTINUOUS
 62
             7
100
AcDbLine
 10
160.0861561236693
 20
17.46994834709028
 11
160.0861561236693
 21
24.53005165290949
  0
LINE
  5
35B
100
AcDbEntity
  8
1
  6
CONTINUOUS
 62
             7
100
AcDbLine
 10
160.0861561236693
 20
24.53005165290949
 11
159.5
 21
24.51982025971279
  0
LINE
  5
35A
100
AcDbEntity
  8
1
  6
CONTINUOUS
 62
             7
100
AcDbLine
 10
165.0
 20
17.38417688318185
 11
165.5
 21
17.37544935071776
  0
LINE
  5
359
100
AcDbEntity
  8
1
  6
CONTINUOUS
 62
             7
100
AcDbLine
 10
167.0
 20
24.65073324667441
 11
165.5
 21
24.62455064928207
  0
LINE
  5
358
100
AcDbEntity
  8
1
  6
CONTINUOUS
 62
             7
100
AcDbLine
 10
160.0861561236693
 20
32.93005165290947
 11
159.5
 21
32.91982025971277
  0
LINE
  5
357
100
AcDbEntity
  8
1
  6
CONTINUOUS
 62
             7
100
AcDbLine
 10
167.0
 20
33.0507332466745
 11
165.5
 21
33.02455064928211
  0
LINE
  5
356
100
AcDbEntity
  8
1
  6
CONTINUOUS
 62
             7
100
AcDbLine
 10
165.0
 20
25.78417688318189
 11
165.5
 21
25.77544935071779
  0
LINE
  5
355
100
AcDbEntity
  8
1
  6
CONTINUOUS
 62
             7
100
AcDbLine
 10
160.0861561236693
 20
25.86994834709026
 11
160.0861561236693
 21
32.93005165290947
  0
LINE
  5
354
100
AcDbEntity
  8
1
  6
CONTINUOUS
 62
             7
100
AcDbLine
 10
165.0
 20
33.01582311681796
 11
160.0861561236693
 21
32.93005165290947
  0
LINE
  5
353
100
AcDbEntity
  8
1
  6
CONTINUOUS
 62
             7
100
AcDbLine
 10
165.5
 20
25.77544935071779
 11
167.0
 21
25.74926675332534
  0
LINE
  5
352
100
AcDbEntity
  8
1
  6
CONTINUOUS
 62
             7
100
AcDbLine
 10
165.5
 20
34.17544935071777
 11
167.0
 21
34.14926675332538
  0
LINE
  5
351
100
AcDbEntity
  8
1
  6
CONTINUOUS
 62
             7
100
AcDbLine
 10
165.0
 20
41.41582311681799
 11
160.0861561236693
 21
41.3300516529095
  0
LINE
  5
350
100
AcDbEntity
  8
1
  6
CONTINUOUS
 62
             7
100
AcDbLine
 10
160.0861561236693
 20
34.26994834709029
 11
160.0861561236693
 21
41.3300516529095
  0
LINE
  5
34F
100
AcDbEntity
  8
1
  6
CONTINUOUS
 62
             7
100
AcDbLine
 10
160.0861561236693
 20
41.3300516529095
 11
159.5
 21
41.3198202597128
  0
LINE
  5
34E
100
AcDbEntity
  8
1
  6
CONTINUOUS
 62
             7
100
AcDbLine
 10
165.0
 20
34.18417688318186
 11
165.5
 21
34.17544935071777
  0
LINE
  5
34D
100
AcDbEntity
  8
1
  6
CONTINUOUS
 62
             7
100
AcDbLine
 10
167.0
 20
41.45073324667447
 11
165.5
 21
41.4245506492822
  0
LINE
  5
34C
100
AcDbEntity
  8
1
  6
CONTINUOUS
 62
             7
100
AcDbLine
 10
167.0
 20
41.45073324667447
 11
167.0
 21
43.5
  0
LINE
  5
34B
100
AcDbEntity
  8
1
  6
CONTINUOUS
 62
             7
100
AcDbLine
 10
165.0
 20
41.41582311681799
 11
165.0
 21
44.0
  0
LINE
  5
34A
100
AcDbEntity
  8
1
  6
CONTINUOUS
 62
             7
100
AcDbLine
 10
166.5
 20
44.0
 11
165.0
 21
44.0
  0
LINE
  5
349
100
AcDbEntity
  8
1
  6
CONTINUOUS
 62
             7
100
AcDbLine
 10
165.5
 20
41.4245506492822
 11
165.0
 21
41.41582311681799
  0
LINE
  5
348
100
AcDbEntity
  8
1
  6
CONTINUOUS
 62
             7
100
AcDbLine
 10
167.0
 20
33.0507332466745
 11
167.0
 21
34.14926675332538
  0
LINE
  5
347
100
AcDbEntity
  8
1
  6
CONTINUOUS
 62
             7
100
AcDbLine
 10
165.0
 20
33.01582311681796
 11
165.0
 21
34.18417688318186
  0
LINE
  5
346
100
AcDbEntity
  8
1
  6
CONTINUOUS
 62
             7
100
AcDbLine
 10
165.5
 20
33.02455064928211
 11
165.0
 21
33.01582311681796
  0
LINE
  5
345
100
AcDbEntity
  8
1
  6
CONTINUOUS
 62
             7
100
AcDbLine
 10
160.0861561236693
 20
34.26994834709029
 11
165.0
 21
34.18417688318186
  0
LINE
  5
344
100
AcDbEntity
  8
1
  6
CONTINUOUS
 62
             7
100
AcDbLine
 10
167.0
 20
24.65073324667441
 11
167.0
 21
25.74926675332534
  0
LINE
  5
343
100
AcDbEntity
  8
1
  6
CONTINUOUS
 62
             7
100
AcDbLine
 10
165.0
 20
24.61582311681798
 11
165.0
 21
25.78417688318189
  0
LINE
  5
342
100
AcDbEntity
  8
1
  6
CONTINUOUS
 62
             7
100
AcDbLine
 10
165.5
 20
24.62455064928207
 11
165.0
 21
24.61582311681798
  0
LINE
  5
341
100
AcDbEntity
  8
1
  6
CONTINUOUS
 62
             7
100
AcDbLine
 10
160.0861561236693
 20
25.86994834709026
 11
165.0
 21
25.78417688318189
  0
LINE
  5
340
100
AcDbEntity
  8
1
  6
CONTINUOUS
 62
             7
100
AcDbLine
 10
167.0
 20
16.25073324667437
 11
167.0
 21
17.34926675332537
  0
LINE
  5
33F
100
AcDbEntity
  8
1
  6
CONTINUOUS
 62
             7
100
AcDbLine
 10
165.0
 20
16.21582311681794
 11
165.0
 21
17.38417688318185
  0
LINE
  5
33E
100
AcDbEntity
  8
1
  6
CONTINUOUS
 62
             7
100
AcDbLine
 10
165.5
 20
16.22455064928209
 11
165.0
 21
16.21582311681794
  0
LINE
  5
33D
100
AcDbEntity
  8
1
  6
CONTINUOUS
 62
             7
100
AcDbLine
 10
160.0861561236693
 20
17.46994834709028
 11
165.0
 21
17.38417688318185
  0
LINE
  5
33C
100
AcDbEntity
  8
1
  6
CONTINUOUS
 62
             7
100
AcDbLine
 10
167.0
 20
7.85073324667439
 11
167.0
 21
8.94926675332539
  0
LINE
  5
33B
100
AcDbEntity
  8
1
  6
CONTINUOUS
 62
             7
100
AcDbLine
 10
165.0
 20
7.81582311681797
 11
165.0
 21
8.98417688318187
  0
LINE
  5
33A
100
AcDbEntity
  8
1
  6
CONTINUOUS
 62
             7
100
AcDbLine
 10
165.5
 20
7.82455064928206
 11
165.0
 21
7.81582311681797
  0
LINE
  5
339
100
AcDbEntity
  8
1
  6
CONTINUOUS
 62
             7
100
AcDbLine
 10
160.0861561236693
 20
9.06994834709024
 11
165.0
 21
8.98417688318187
  0
LINE
  5
338
100
AcDbEntity
  8
1
  6
CONTINUOUS
 62
             7
100
AcDbLine
 10
167.0
 20
-0.54926675332558
 11
167.0
 21
0.54926675332541
  0
LINE
  5
337
100
AcDbEntity
  8
1
  6
CONTINUOUS
 62
             7
100
AcDbLine
 10
165.0
 20
-0.58417688318201
 11
165.0
 21
0.58417688318184
  0
LINE
  5
336
100
AcDbEntity
  8
1
  6
CONTINUOUS
 62
             7
100
AcDbLine
 10
165.5
 20
-0.57544935071792
 11
165.0
 21
-0.58417688318201
  0
LINE
  5
335
100
AcDbEntity
  8
1
  6
CONTINUOUS
 62
             7
100
AcDbLine
 10
160.0861561236693
 20
0.66994834709032
 11
165.0
 21
0.58417688318184
  0
LINE
  5
334
100
AcDbEntity
  8
1
  6
CONTINUOUS
 62
             7
100
AcDbLine
 10
167.0
 20
-8.94926675332556
 11
167.0
 21
-7.85073324667457
  0
LINE
  5
333
100
AcDbEntity
  8
1
  6
CONTINUOUS
 62
             7
100
AcDbLine
 10
165.0
 20
-8.98417688318199
 11
165.0
 21
-7.81582311681814
  0
LINE
  5
332
100
AcDbEntity
  8
1
  6
CONTINUOUS
 62
             7
100
AcDbLine
 10
165.5
 20
-8.9754493507179
 11
165.0
 21
-8.98417688318199
  0
LINE
  5
331
100
AcDbEntity
  8
1
  6
CONTINUOUS
 62
             7
100
AcDbLine
 10
160.0861561236693
 20
-7.73005165290971
 11
165.0
 21
-7.81582311681814
  0
LINE
  5
330
100
AcDbEntity
  8
1
  6
CONTINUOUS
 62
             7
100
AcDbLine
 10
167.0
 20
-17.34926675332559
 11
167.0
 21
-16.2507332466746
  0
LINE
  5
32F
100
AcDbEntity
  8
1
  6
CONTINUOUS
 62
             7
100
AcDbLine
 10
165.0
 20
-17.38417688318202
 11
165.0
 21
-16.21582311681817
  0
LINE
  5
32E
100
AcDbEntity
  8
1
  6
CONTINUOUS
 62
             7
100
AcDbLine
 10
165.5
 20
-17.37544935071787
 11
165.0
 21
-17.38417688318202
  0
LINE
  5
32D
100
AcDbEntity
  8
1
  6
CONTINUOUS
 62
             7
100
AcDbLine
 10
160.0861561236693
 20
-16.13005165290969
 11
165.0
 21
-16.21582311681817
  0
LINE
  5
32C
100
AcDbEntity
  8
1
  6
CONTINUOUS
 62
             7
100
AcDbLine
 10
167.0
 20
-25.74926675332557
 11
167.0
 21
-24.65073324667458
  0
LINE
  5
32B
100
AcDbEntity
  8
1
  6
CONTINUOUS
 62
             7
100
AcDbLine
 10
165.0
 20
-25.784176883182
 11
165.0
 21
-24.61582311681815
  0
LINE
  5
32A
100
AcDbEntity
  8
1
  6
CONTINUOUS
 62
             7
100
AcDbLine
 10
165.5
 20
-25.77544935071791
 11
165.0
 21
-25.784176883182
  0
LINE
  5
329
100
AcDbEntity
  8
1
  6
CONTINUOUS
 62
             7
100
AcDbLine
 10
160.0861561236693
 20
-24.53005165290966
 11
165.0
 21
-24.61582311681815
  0
LINE
  5
328
100
AcDbEntity
  8
1
  6
CONTINUOUS
 62
             7
100
AcDbLine
 10
167.0
 20
-34.14926675332555
 11
167.0
 21
-33.05073324667461
  0
LINE
  5
327
100
AcDbEntity
  8
1
  6
CONTINUOUS
 62
             7
100
AcDbLine
 10
165.0
 20
-34.18417688318203
 11
165.0
 21
-33.01582311681813
  0
LINE
  5
326
100
AcDbEntity
  8
1
  6
CONTINUOUS
 62
             7
100
AcDbLine
 10
165.5
 20
-34.17544935071788
 11
165.0
 21
-34.18417688318203
  0
LINE
  5
325
100
AcDbEntity
  8
1
  6
CONTINUOUS
 62
             7
100
AcDbLine
 10
160.0861561236693
 20
-32.9300516529097
 11
165.0
 21
-33.01582311681813
  0
LINE
  5
324
100
AcDbEntity
  8
1
  6
CONTINUOUS
 62
             7
100
AcDbLine
 10
167.0
 20
-43.50000000000006
 11
167.0
 21
-41.45073324667459
  0
LINE
  5
323
100
AcDbEntity
  8
1
  6
CONTINUOUS
 62
             7
100
AcDbLine
 10
165.0
 20
-44.00000000000006
 11
165.0
 21
-41.41582311681816
  0
LINE
  5
322
100
AcDbEntity
  8
1
  6
CONTINUOUS
 62
             7
100
AcDbLine
 10
166.5
 20
-44.00000000000006
 11
165.0
 21
-44.00000000000006
  0
LINE
  5
321
100
AcDbEntity
  8
1
  6
CONTINUOUS
 62
             7
100
AcDbLine
 10
160.0861561236693
 20
-41.33005165290967
 11
165.0
 21
-41.41582311681816
  0
LINE
  5
320
100
AcDbEntity
  8
1
  6
CONTINUOUS
 62
             7
100
AcDbLine
 10
95.49999999999999
 20
-33.50000000000006
 11
96.99999999999999
 21
-35.00000000000006
  0
LINE
  5
31F
100
AcDbEntity
  8
1
  6
CONTINUOUS
 62
             7
100
AcDbLine
 10
-5.50000000000012
 20
-48.0
 11
5.49999999999988
 21
-48.0
  0
LINE
  5
31E
100
AcDbEntity
  8
1
  6
CONTINUOUS
 62
             7
100
AcDbLine
 10
-5.50000000000012
 20
-46.59999999999999
 11
5.49999999999988
 21
-46.59999999999999
  0
LINE
  5
31D
100
AcDbEntity
  8
1
  6
CONTINUOUS
 62
             7
100
AcDbLine
 10
5.49999999999988
 20
48.0
 11
-5.50000000000012
 21
48.0
  0
LINE
  5
31C
100
AcDbEntity
  8
1
  6
CONTINUOUS
 62
             7
100
AcDbLine
 10
-5.50000000000012
 20
46.59999999999999
 11
5.49999999999988
 21
46.59999999999999
  0
LINE
  5
31B
100
AcDbEntity
  8
1
  6
CONTINUOUS
 62
             7
100
AcDbLine
 10
61.80000000000005
 20
-47.99999999999999
 11
61.80000000000005
 21
48.0
  0
LINE
  5
31A
100
AcDbEntity
  8
1
  6
CONTINUOUS
 62
             7
100
AcDbLine
 10
23.99999999999999
 20
-47.0
 11
23.99999999999999
 21
47.0
  0
LINE
  5
319
100
AcDbEntity
  8
1
  6
CONTINUOUS
 62
             7
100
AcDbLine
 10
-24.00000000000012
 20
47.0
 11
-24.0
 21
-47.0
  0
LINE
  5
318
100
AcDbEntity
  8
1
  6
CONTINUOUS
 62
             7
100
AcDbLine
 10
-23.0
 20
48.0
 11
-5.50000000000012
 21
48.0
  0
LINE
  5
317
100
AcDbEntity
  8
1
  6
CONTINUOUS
 62
             7
100
AcDbLine
 10
5.49999999999988
 20
46.59999999999999
 11
5.49999999999988
 21
48.0
  0
LINE
  5
316
100
AcDbEntity
  8
1
  6
CONTINUOUS
 62
             7
100
AcDbLine
 10
5.49999999999988
 20
48.0
 11
22.99999999999999
 21
48.0
  0
LINE
  5
315
100
AcDbEntity
  8
1
  6
CONTINUOUS
 62
             7
100
AcDbLine
 10
-5.50000000000012
 20
46.59999999999999
 11
-5.50000000000012
 21
48.0
  0
LINE
  5
314
100
AcDbEntity
  8
1
  6
CONTINUOUS
 62
             7
100
AcDbLine
 10
-5.50000000000012
 20
-48.0
 11
-5.50000000000012
 21
-46.59999999999999
  0
LINE
  5
313
100
AcDbEntity
  8
1
  6
CONTINUOUS
 62
             7
100
AcDbLine
 10
5.49999999999988
 20
-48.0
 11
5.49999999999988
 21
-46.59999999999999
  0
LINE
  5
312
100
AcDbEntity
  8
1
  6
CONTINUOUS
 62
             7
100
AcDbLine
 10
22.99999999999999
 20
-48.0
 11
5.49999999999988
 21
-48.0
  0
LINE
  5
311
100
AcDbEntity
  8
1
  6
CONTINUOUS
 62
             7
100
AcDbLine
 10
-5.50000000000012
 20
-48.0
 11
-23.00000000000012
 21
-48.0
  0
LINE
  5
310
100
AcDbEntity
  8
1
  6
CONTINUOUS
 62
             7
100
AcDbLine
 10
57.46512176312797
 20
47.69687578473223
 11
61.80000000000005
 21
48.0
  0
LINE
  5
30F
100
AcDbEntity
  8
1
  6
CONTINUOUS
 62
             7
100
AcDbLine
 10
61.80000000000005
 20
-47.99999999999999
 11
57.46512176312797
 21
-47.69687578473221
  0
LINE
  5
30E
100
AcDbEntity
  8
1
  6
CONTINUOUS
 62
             7
100
AcDbLine
 10
57.0
 20
47.19809375960232
 11
57.0
 21
-47.1980937596023
  0
LINE
  5
30D
100
AcDbEntity
  8
1
  6
CONTINUOUS
 62
             7
100
AcDbLine
 10
66.99999999999999
 20
48.0
 11
68.49999999999999
 21
48.0
  0
LINE
  5
30C
100
AcDbEntity
  8
1
  6
CONTINUOUS
 62
             7
100
AcDbLine
 10
66.99999999999999
 20
-48.00000000000006
 11
68.49999999999999
 21
-48.00000000000006
  0
LINE
  5
30B
100
AcDbEntity
  8
1
  6
CONTINUOUS
 62
             7
100
AcDbLine
 10
68.49999999999999
 20
-48.00000000000006
 11
68.49999999999999
 21
48.0
  0
LINE
  5
30A
100
AcDbEntity
  8
1
  6
CONTINUOUS
 62
             7
100
AcDbLine
 10
14.25000000000017
 20
8.38350718518839
 11
12.25000000000017
 21
6.0
  0
LINE
  5
309
100
AcDbEntity
  8
1
  6
CONTINUOUS
 62
             7
100
AcDbLine
 10
16.25000000000017
 20
6.0
 11
14.25000000000017
 21
8.38350718518839
  0
LINE
  5
308
100
AcDbEntity
  8
1
  6
CONTINUOUS
 62
             7
100
AcDbLine
 10
12.25000000000017
 20
6.0
 11
16.25000000000017
 21
6.0
  0
LINE
  5
307
100
AcDbEntity
  8
1
  6
CONTINUOUS
 62
             7
100
AcDbLine
 10
6.74999999999994
 20
8.0
 11
2.74999999999994
 21
8.0
  0
LINE
  5
306
100
AcDbEntity
  8
1
  6
CONTINUOUS
 62
             7
100
AcDbLine
 10
2.74999999999994
 20
8.0
 11
4.74999999999994
 21
5.61649281481161
  0
LINE
  5
305
100
AcDbEntity
  8
1
  6
CONTINUOUS
 62
             7
100
AcDbLine
 10
4.74999999999994
 20
5.61649281481161
 11
6.74999999999994
 21
8.0
  0
LINE
  5
304
100
AcDbEntity
  8
1
  6
CONTINUOUS
 62
             7
100
AcDbLine
 10
4.74999999999994
 20
-34.38350718518839
 11
6.74999999999994
 21
-32.0
  0
LINE
  5
303
100
AcDbEntity
  8
1
  6
CONTINUOUS
 62
             7
100
AcDbLine
 10
2.74999999999994
 20
-32.0
 11
4.74999999999994
 21
-34.38350718518839
  0
LINE
  5
302
100
AcDbEntity
  8
1
  6
CONTINUOUS
 62
             7
100
AcDbLine
 10
6.74999999999994
 20
-32.0
 11
2.74999999999994
 21
-32.0
  0
LINE
  5
301
100
AcDbEntity
  8
1
  6
CONTINUOUS
 62
             7
100
AcDbLine
 10
19.74999999999994
 20
-33.0
 11
19.75000000000006
 21
36.0
  0
LINE
  5
300
100
AcDbEntity
  8
1
  6
CONTINUOUS
 62
             7
100
AcDbLine
 10
14.25000000000006
 20
41.5
 11
-14.25000000000006
 21
41.5
  0
LINE
  5
2FF
100
AcDbEntity
  8
1
  6
CONTINUOUS
 62
             7
100
AcDbLine
 10
-19.75000000000006
 20
36.0
 11
-19.75000000000006
 21
-33.0
  0
LINE
  5
2FE
100
AcDbEntity
  8
1
  6
CONTINUOUS
 62
             7
100
AcDbLine
 10
-14.25000000000006
 20
-38.5
 11
14.25000000000006
 21
-38.5
  0
LINE
  5
2FD
100
AcDbEntity
  8
1
  6
CONTINUOUS
 62
             7
100
AcDbLine
 10
-19.25000000000006
 20
36.0
 11
-19.25000000000006
 21
-33.0
  0
LINE
  5
2FC
100
AcDbEntity
  8
1
  6
CONTINUOUS
 62
             7
100
AcDbLine
 10
14.25000000000006
 20
41.0
 11
-14.25000000000006
 21
41.0
  0
LINE
  5
2FB
100
AcDbEntity
  8
1
  6
CONTINUOUS
 62
             7
100
AcDbLine
 10
19.25000000000006
 20
-33.0
 11
19.25000000000006
 21
36.0
  0
LINE
  5
2FA
100
AcDbEntity
  8
1
  6
CONTINUOUS
 62
             7
100
AcDbLine
 10
-14.25000000000006
 20
-38.0
 11
14.25000000000006
 21
-38.0
  0
LINE
  5
2F9
100
AcDbEntity
  8
1
  6
CONTINUOUS
 62
             7
100
AcDbLine
 10
12.25000000000017
 20
-34.0
 11
16.25000000000017
 21
-34.0
  0
LINE
  5
2F8
100
AcDbEntity
  8
1
  6
CONTINUOUS
 62
             7
100
AcDbLine
 10
16.25000000000017
 20
-34.0
 11
14.25000000000017
 21
-31.61649281481161
  0
LINE
  5
2F7
100
AcDbEntity
  8
1
  6
CONTINUOUS
 62
             7
100
AcDbLine
 10
14.25000000000017
 20
-31.61649281481161
 11
12.25000000000017
 21
-34.0
  0
LINE
  5
2F6
100
AcDbEntity
  8
1
  6
CONTINUOUS
 62
             7
100
AcDbLine
 10
-14.25000000000006
 20
-27.0
 11
14.25000000000006
 21
-27.0
  0
LINE
  5
2F5
100
AcDbEntity
  8
1
  6
CONTINUOUS
 62
             7
100
AcDbLine
 10
18.25000000000006
 20
-23.0
 11
18.25000000000006
 21
-4.0
  0
LINE
  5
2F4
100
AcDbEntity
  8
1
  6
CONTINUOUS
 62
             7
100
AcDbLine
 10
-14.25000000000006
 20
0.0
 11
14.25000000000006
 21
0.0
  0
LINE
  5
2F3
100
AcDbEntity
  8
1
  6
CONTINUOUS
 62
             7
100
AcDbLine
 10
-18.25000000000006
 20
-4.0
 11
-18.25000000000006
 21
-23.0
  0
LINE
  5
2F2
100
AcDbEntity
  8
1
  6
CONTINUOUS
 62
             7
100
AcDbLine
 10
18.25
 20
17.0
 11
18.25000000000006
 21
36.0
  0
LINE
  5
2F1
100
AcDbEntity
  8
1
  6
CONTINUOUS
 62
             7
100
AcDbLine
 10
-14.25000000000006
 20
13.0
 11
14.25000000000006
 21
13.0
  0
LINE
  5
2F0
100
AcDbEntity
  8
1
  6
CONTINUOUS
 62
             7
100
AcDbLine
 10
-14.25000000000006
 20
40.0
 11
14.25000000000006
 21
40.0
  0
LINE
  5
2EF
100
AcDbEntity
  8
1
  6
CONTINUOUS
 62
             7
100
AcDbLine
 10
-18.25000000000006
 20
36.0
 11
-18.25000000000006
 21
17.0
  0
LINE
  5
2EE
100
AcDbEntity
  8
0
  6
CONTINUOUS
 62
             7
100
AcDbLine
 10
-6.98679598857103
 20
-12.0
 11
-9.42381985709687
 21
-12.0
  0
LINE
  5
2ED
100
AcDbEntity
  8
0
  6
CONTINUOUS
 62
             7
100
AcDbLine
 10
-9.42381985709687
 20
-12.0
 11
-9.63090218763034
 21
-11.75320888862379
  0
LINE
  5
2EC
100
AcDbEntity
  8
0
  6
CONTINUOUS
 62
             7
100
AcDbLine
 10
-10.09509956203868
 20
-11.19999999999999
 11
-9.60138401605496
 21
-8.40000000000001
  0
LINE
  5
2EB
100
AcDbEntity
  8
0
  6
CONTINUOUS
 62
             7
100
AcDbLine
 10
-9.60138401605496
 20
-8.40000000000001
 11
-9.27789146764104
 21
-8.1285575219373
  0
LINE
  5
2EA
100
AcDbEntity
  8
0
  6
CONTINUOUS
 62
             7
100
AcDbLine
 10
-5.53038449397565
 20
-8.3472963553339
 11
-6.01072197812857
 21
-11.07142559649131
  0
LINE
  5
2E9
100
AcDbEntity
  8
0
  6
CONTINUOUS
 62
             7
100
AcDbLine
 10
-6.01072197812857
 20
-11.07142559649131
 11
-6.37182216255127
 21
-11.45364185095389
  0
LINE
  5
2E8
100
AcDbEntity
  8
0
  6
CONTINUOUS
 62
             7
100
AcDbLine
 10
-5.39861598394515
 20
-7.6
 11
-4.90490043796143
 21
-4.80000000000001
  0
LINE
  5
2E7
100
AcDbEntity
  8
0
  6
CONTINUOUS
 62
             7
100
AcDbLine
 10
-4.90490043796143
 20
-4.80000000000001
 11
-5.11198276849507
 21
-4.5532088886238
  0
LINE
  5
2E6
100
AcDbEntity
  8
0
  6
CONTINUOUS
 62
             7
100
AcDbLine
 10
-5.57618014290324
 20
-4.0
 11
-8.01320401142908
 21
-4.0
  0
LINE
  5
2E5
100
AcDbEntity
  8
0
  6
CONTINUOUS
 62
             7
100
AcDbLine
 10
-8.01320401142908
 20
-4.0
 11
-8.33669655984306
 21
-4.27144247806271
  0
LINE
  5
2E4
100
AcDbEntity
  8
0
  6
CONTINUOUS
 62
             7
100
AcDbLine
 10
-8.96660688550446
 20
-4.80000000000001
 11
-9.46032243148818
 21
-7.6
  0
LINE
  5
2E3
100
AcDbEntity
  8
0
  6
CONTINUOUS
 62
             7
100
AcDbLine
 10
-9.46032243148818
 20
-7.6
 11
-9.25324010095454
 21
-7.84679111137621
  0
LINE
  5
2E2
100
AcDbEntity
  8
0
  6
CONTINUOUS
 62
             7
100
AcDbLine
 10
-6.80039808462317
 20
-10.9428849561254
 11
-6.37182216255127
 21
-11.45364185095389
  0
LINE
  5
2E1
100
AcDbEntity
  8
0
  6
CONTINUOUS
 62
             7
100
AcDbLine
 10
-6.80039808462317
 20
-10.9428849561254
 11
-6.40604857951809
 21
-8.7064177772476
  0
LINE
  5
2E0
100
AcDbEntity
  8
0
  6
CONTINUOUS
 62
             7
100
AcDbLine
 10
-6.66330344015716
 20
-11.72855752193729
 11
-7.10681586187064
 21
-11.19999999999999
  0
LINE
  5
2DF
100
AcDbEntity
  8
0
  6
CONTINUOUS
 62
             7
100
AcDbLine
 10
-6.66330344015716
 20
-11.72855752193729
 11
-6.98679598857103
 21
-12.0
  0
LINE
  5
2DE
100
AcDbEntity
  8
0
  6
CONTINUOUS
 62
             7
100
AcDbLine
 10
-9.88801723150505
 20
-11.4467911113762
 11
-9.22872855103253
 21
-10.8935822227524
  0
LINE
  5
2DD
100
AcDbEntity
  8
0
  6
CONTINUOUS
 62
             7
100
AcDbLine
 10
-9.88801723150505
 20
-11.4467911113762
 11
-10.09509956203868
 21
-11.19999999999999
  0
LINE
  5
2DC
100
AcDbEntity
  8
0
  6
CONTINUOUS
 62
             7
100
AcDbLine
 10
-9.63090218763034
 20
-11.75320888862379
 11
-8.97161350715794
 21
-11.19999999999999
  0
LINE
  5
2DB
100
AcDbEntity
  8
0
  6
CONTINUOUS
 62
             7
100
AcDbLine
 10
-8.97161350715794
 20
-11.19999999999999
 11
-7.10681586187064
 21
-11.19999999999999
  0
LINE
  5
2DA
100
AcDbEntity
  8
0
  6
CONTINUOUS
 62
             7
100
AcDbLine
 10
-9.25324010095454
 20
-7.84679111137621
 11
-8.59395142048197
 21
-7.29358222275241
  0
LINE
  5
2D9
100
AcDbEntity
  8
0
  6
CONTINUOUS
 62
             7
100
AcDbLine
 10
-8.59395142048197
 20
-7.29358222275241
 11
-8.19960191537706
 21
-5.0571150438746
  0
LINE
  5
2D8
100
AcDbEntity
  8
0
  6
CONTINUOUS
 62
             7
100
AcDbLine
 10
-8.81353781364516
 20
-8.0
 11
-8.33683637660744
 21
-7.6
  0
LINE
  5
2D7
100
AcDbEntity
  8
0
  6
CONTINUOUS
 62
             7
100
AcDbLine
 10
-8.81353781364516
 20
-8.0
 11
-8.52796126867986
 21
-8.40000000000001
  0
LINE
  5
2D6
100
AcDbEntity
  8
0
  6
CONTINUOUS
 62
             7
100
AcDbLine
 10
-9.27789146764104
 20
-8.1285575219373
 11
-8.83437904592756
 21
-8.6571150438746
  0
LINE
  5
2D5
100
AcDbEntity
  8
0
  6
CONTINUOUS
 62
             7
100
AcDbLine
 10
-8.83437904592756
 20
-8.6571150438746
 11
-9.22872855103253
 21
-10.8935822227524
  0
LINE
  5
2D4
100
AcDbEntity
  8
0
  6
CONTINUOUS
 62
             7
100
AcDbLine
 10
-6.66316362339268
 20
-8.40000000000001
 11
-6.18646218635496
 21
-8.0
  0
LINE
  5
2D3
100
AcDbEntity
  8
0
  6
CONTINUOUS
 62
             7
100
AcDbLine
 10
-6.66316362339268
 20
-8.40000000000001
 11
-8.52796126867986
 21
-8.40000000000001
  0
LINE
  5
2D2
100
AcDbEntity
  8
0
  6
CONTINUOUS
 62
             7
100
AcDbLine
 10
-6.18646218635496
 20
-8.0
 11
-6.47203873132025
 21
-7.6
  0
LINE
  5
2D1
100
AcDbEntity
  8
0
  6
CONTINUOUS
 62
             7
100
AcDbLine
 10
-6.47203873132025
 20
-7.6
 11
-8.33683637660744
 21
-7.6
  0
LINE
  5
2D0
100
AcDbEntity
  8
0
  6
CONTINUOUS
 62
             7
100
AcDbLine
 10
-6.16562095407267
 20
-7.3428849561254
 11
-5.72210853235907
 21
-7.87144247806271
  0
LINE
  5
2CF
100
AcDbEntity
  8
0
  6
CONTINUOUS
 62
             7
100
AcDbLine
 10
-5.72210853235907
 20
-7.87144247806271
 11
-5.39861598394515
 21
-7.6
  0
LINE
  5
2CE
100
AcDbEntity
  8
0
  6
CONTINUOUS
 62
             7
100
AcDbLine
 10
-5.53038449397565
 20
-8.3472963553339
 11
-5.73388279462796
 21
-8.14240371505631
  0
LINE
  5
2CD
100
AcDbEntity
  8
0
  6
CONTINUOUS
 62
             7
100
AcDbLine
 10
-5.73388279462796
 20
-8.14240371505631
 11
-6.40604857951809
 21
-8.7064177772476
  0
LINE
  5
2CC
100
AcDbEntity
  8
0
  6
CONTINUOUS
 62
             7
100
AcDbLine
 10
-8.64311433709054
 20
-4.5285575219373
 11
-8.19960191537706
 21
-5.0571150438746
  0
LINE
  5
2CB
100
AcDbEntity
  8
0
  6
CONTINUOUS
 62
             7
100
AcDbLine
 10
-8.64311433709054
 20
-4.5285575219373
 11
-8.96660688550446
 21
-4.80000000000001
  0
LINE
  5
2CA
100
AcDbEntity
  8
0
  6
CONTINUOUS
 62
             7
100
AcDbLine
 10
-7.89318413812947
 20
-4.80000000000001
 11
-8.33669655984306
 21
-4.27144247806271
  0
LINE
  5
2C9
100
AcDbEntity
  8
0
  6
CONTINUOUS
 62
             7
100
AcDbLine
 10
-7.89318413812947
 20
-4.80000000000001
 11
-6.02838649284217
 21
-4.80000000000001
  0
LINE
  5
2C8
100
AcDbEntity
  8
0
  6
CONTINUOUS
 62
             7
100
AcDbLine
 10
-6.02838649284217
 20
-4.80000000000001
 11
-5.36909781236977
 21
-4.24679111137621
  0
LINE
  5
2C7
100
AcDbEntity
  8
0
  6
CONTINUOUS
 62
             7
100
AcDbLine
 10
-5.36909781236977
 20
-4.24679111137621
 11
-5.57618014290324
 21
-4.0
  0
LINE
  5
2C6
100
AcDbEntity
  8
0
  6
CONTINUOUS
 62
             7
100
AcDbLine
 10
-5.11198276849507
 20
-4.5532088886238
 11
-5.77127144896758
 21
-5.1064177772476
  0
LINE
  5
2C5
100
AcDbEntity
  8
0
  6
CONTINUOUS
 62
             7
100
AcDbLine
 10
-5.77127144896758
 20
-5.1064177772476
 11
-6.16562095407267
 21
-7.3428849561254
  0
LINE
  5
2C4
100
AcDbEntity
  8
0
  6
CONTINUOUS
 62
             7
100
AcDbLine
 10
1.72872855103242
 20
-5.1064177772476
 11
1.33437904592734
 21
-7.3428849561254
  0
LINE
  5
2C3
100
AcDbEntity
  8
0
  6
CONTINUOUS
 62
             7
100
AcDbLine
 10
2.38801723150493
 20
-4.5532088886238
 11
1.72872855103242
 21
-5.1064177772476
  0
LINE
  5
2C2
100
AcDbEntity
  8
0
  6
CONTINUOUS
 62
             7
100
AcDbLine
 10
2.13090218763023
 20
-4.24679111137621
 11
1.92381985709676
 21
-4.0
  0
LINE
  5
2C1
100
AcDbEntity
  8
0
  6
CONTINUOUS
 62
             7
100
AcDbLine
 10
1.47161350715783
 20
-4.80000000000001
 11
2.13090218763023
 21
-4.24679111137621
  0
LINE
  5
2C0
100
AcDbEntity
  8
0
  6
CONTINUOUS
 62
             7
100
AcDbLine
 10
-0.39318413812947
 20
-4.80000000000001
 11
1.47161350715783
 21
-4.80000000000001
  0
LINE
  5
2BF
100
AcDbEntity
  8
0
  6
CONTINUOUS
 62
             7
100
AcDbLine
 10
-0.39318413812947
 20
-4.80000000000001
 11
-0.83669655984306
 21
-4.27144247806271
  0
LINE
  5
2BE
100
AcDbEntity
  8
0
  6
CONTINUOUS
 62
             7
100
AcDbLine
 10
-1.14311433709054
 20
-4.5285575219373
 11
-1.46660688550446
 21
-4.80000000000001
  0
LINE
  5
2BD
100
AcDbEntity
  8
0
  6
CONTINUOUS
 62
             7
100
AcDbLine
 10
-1.14311433709054
 20
-4.5285575219373
 11
-0.69960191537706
 21
-5.0571150438746
  0
LINE
  5
2BC
100
AcDbEntity
  8
0
  6
CONTINUOUS
 62
             7
100
AcDbLine
 10
1.76611720537204
 20
-8.14240371505631
 11
1.09395142048192
 21
-8.7064177772476
  0
LINE
  5
2BB
100
AcDbEntity
  8
0
  6
CONTINUOUS
 62
             7
100
AcDbLine
 10
1.96961550602435
 20
-8.3472963553339
 11
1.76611720537204
 21
-8.14240371505631
  0
LINE
  5
2BA
100
AcDbEntity
  8
0
  6
CONTINUOUS
 62
             7
100
AcDbLine
 10
1.77789146764093
 20
-7.87144247806271
 11
2.10138401605485
 21
-7.6
  0
LINE
  5
2B9
100
AcDbEntity
  8
0
  6
CONTINUOUS
 62
             7
100
AcDbLine
 10
1.33437904592734
 20
-7.3428849561254
 11
1.77789146764093
 21
-7.87144247806271
  0
LINE
  5
2B8
100
AcDbEntity
  8
0
  6
CONTINUOUS
 62
             7
100
AcDbLine
 10
1.02796126867975
 20
-7.6
 11
-0.83683637660744
 21
-7.6
  0
LINE
  5
2B7
100
AcDbEntity
  8
0
  6
CONTINUOUS
 62
             7
100
AcDbLine
 10
1.31353781364504
 20
-8.0
 11
1.02796126867975
 21
-7.6
  0
LINE
  5
2B6
100
AcDbEntity
  8
0
  6
CONTINUOUS
 62
             7
100
AcDbLine
 10
0.83683637660732
 20
-8.40000000000001
 11
-1.02796126867986
 21
-8.40000000000001
  0
LINE
  5
2B5
100
AcDbEntity
  8
0
  6
CONTINUOUS
 62
             7
100
AcDbLine
 10
0.83683637660732
 20
-8.40000000000001
 11
1.31353781364504
 21
-8.0
  0
LINE
  5
2B4
100
AcDbEntity
  8
0
  6
CONTINUOUS
 62
             7
100
AcDbLine
 10
-1.33437904592756
 20
-8.6571150438746
 11
-1.72872855103253
 21
-10.8935822227524
  0
LINE
  5
2B3
100
AcDbEntity
  8
0
  6
CONTINUOUS
 62
             7
100
AcDbLine
 10
-1.77789146764104
 20
-8.1285575219373
 11
-1.33437904592756
 21
-8.6571150438746
  0
LINE
  5
2B2
100
AcDbEntity
  8
0
  6
CONTINUOUS
 62
             7
100
AcDbLine
 10
-1.31353781364516
 20
-8.0
 11
-1.02796126867986
 21
-8.40000000000001
  0
LINE
  5
2B1
100
AcDbEntity
  8
0
  6
CONTINUOUS
 62
             7
100
AcDbLine
 10
-1.31353781364516
 20
-8.0
 11
-0.83683637660744
 21
-7.6
  0
LINE
  5
2B0
100
AcDbEntity
  8
0
  6
CONTINUOUS
 62
             7
100
AcDbLine
 10
-1.09395142048197
 20
-7.29358222275241
 11
-0.69960191537706
 21
-5.0571150438746
  0
LINE
  5
2AF
100
AcDbEntity
  8
0
  6
CONTINUOUS
 62
             7
100
AcDbLine
 10
-1.75324010095454
 20
-7.84679111137621
 11
-1.09395142048197
 21
-7.29358222275241
  0
LINE
  5
2AE
100
AcDbEntity
  8
0
  6
CONTINUOUS
 62
             7
100
AcDbLine
 10
-1.47161350715794
 20
-11.19999999999999
 11
0.39318413812936
 21
-11.19999999999999
  0
LINE
  5
2AD
100
AcDbEntity
  8
0
  6
CONTINUOUS
 62
             7
100
AcDbLine
 10
-2.13090218763034
 20
-11.75320888862379
 11
-1.47161350715794
 21
-11.19999999999999
  0
LINE
  5
2AC
100
AcDbEntity
  8
0
  6
CONTINUOUS
 62
             7
100
AcDbLine
 10
-2.38801723150505
 20
-11.4467911113762
 11
-2.59509956203868
 21
-11.19999999999999
  0
LINE
  5
2AB
100
AcDbEntity
  8
0
  6
CONTINUOUS
 62
             7
100
AcDbLine
 10
-2.38801723150505
 20
-11.4467911113762
 11
-1.72872855103253
 21
-10.8935822227524
  0
LINE
  5
2AA
100
AcDbEntity
  8
0
  6
CONTINUOUS
 62
             7
100
AcDbLine
 10
0.83669655984284
 20
-11.72855752193729
 11
0.51320401142897
 21
-12.0
  0
LINE
  5
2A9
100
AcDbEntity
  8
0
  6
CONTINUOUS
 62
             7
100
AcDbLine
 10
0.83669655984284
 20
-11.72855752193729
 11
0.39318413812936
 21
-11.19999999999999
  0
LINE
  5
2A8
100
AcDbEntity
  8
0
  6
CONTINUOUS
 62
             7
100
AcDbLine
 10
0.69960191537683
 20
-10.9428849561254
 11
1.09395142048192
 21
-8.7064177772476
  0
LINE
  5
2A7
100
AcDbEntity
  8
0
  6
CONTINUOUS
 62
             7
100
AcDbLine
 10
0.69960191537683
 20
-10.9428849561254
 11
1.12817783744873
 21
-11.45364185095389
  0
LINE
  5
2A6
100
AcDbEntity
  8
0
  6
CONTINUOUS
 62
             7
100
AcDbLine
 10
-1.96032243148818
 20
-7.6
 11
-1.75324010095454
 21
-7.84679111137621
  0
LINE
  5
2A5
100
AcDbEntity
  8
0
  6
CONTINUOUS
 62
             7
100
AcDbLine
 10
-1.46660688550446
 20
-4.80000000000001
 11
-1.96032243148818
 21
-7.6
  0
LINE
  5
2A4
100
AcDbEntity
  8
0
  6
CONTINUOUS
 62
             7
100
AcDbLine
 10
-0.51320401142908
 20
-4.0
 11
-0.83669655984306
 21
-4.27144247806271
  0
LINE
  5
2A3
100
AcDbEntity
  8
0
  6
CONTINUOUS
 62
             7
100
AcDbLine
 10
1.92381985709676
 20
-4.0
 11
-0.51320401142908
 21
-4.0
  0
LINE
  5
2A2
100
AcDbEntity
  8
0
  6
CONTINUOUS
 62
             7
100
AcDbLine
 10
2.59509956203857
 20
-4.80000000000001
 11
2.38801723150493
 21
-4.5532088886238
  0
LINE
  5
2A1
100
AcDbEntity
  8
0
  6
CONTINUOUS
 62
             7
100
AcDbLine
 10
2.10138401605485
 20
-7.6
 11
2.59509956203857
 21
-4.80000000000001
  0
LINE
  5
2A0
100
AcDbEntity
  8
0
  6
CONTINUOUS
 62
             7
100
AcDbLine
 10
1.48927802187143
 20
-11.07142559649131
 11
1.12817783744873
 21
-11.45364185095389
  0
LINE
  5
29F
100
AcDbEntity
  8
0
  6
CONTINUOUS
 62
             7
100
AcDbLine
 10
1.96961550602435
 20
-8.3472963553339
 11
1.48927802187143
 21
-11.07142559649131
  0
LINE
  5
29E
100
AcDbEntity
  8
0
  6
CONTINUOUS
 62
             7
100
AcDbLine
 10
-2.10138401605496
 20
-8.40000000000001
 11
-1.77789146764104
 21
-8.1285575219373
  0
LINE
  5
29D
100
AcDbEntity
  8
0
  6
CONTINUOUS
 62
             7
100
AcDbLine
 10
-2.59509956203868
 20
-11.19999999999999
 11
-2.10138401605496
 21
-8.40000000000001
  0
LINE
  5
29C
100
AcDbEntity
  8
0
  6
CONTINUOUS
 62
             7
100
AcDbLine
 10
-1.92381985709687
 20
-12.0
 11
-2.13090218763034
 21
-11.75320888862379
  0
LINE
  5
29B
100
AcDbEntity
  8
0
  6
CONTINUOUS
 62
             7
100
AcDbLine
 10
0.51320401142897
 20
-12.0
 11
-1.92381985709687
 21
-12.0
  0
LINE
  5
29A
100
AcDbEntity
  8
0
  6
CONTINUOUS
 62
             7
100
AcDbLine
 10
8.01320401142897
 20
-12.0
 11
5.57618014290313
 21
-12.0
  0
LINE
  5
299
100
AcDbEntity
  8
0
  6
CONTINUOUS
 62
             7
100
AcDbLine
 10
5.57618014290313
 20
-12.0
 11
5.36909781236966
 21
-11.75320888862379
  0
LINE
  5
298
100
AcDbEntity
  8
0
  6
CONTINUOUS
 62
             7
100
AcDbLine
 10
4.90490043796132
 20
-11.19999999999999
 11
5.39861598394504
 21
-8.40000000000001
  0
LINE
  5
297
100
AcDbEntity
  8
0
  6
CONTINUOUS
 62
             7
100
AcDbLine
 10
5.39861598394504
 20
-8.40000000000001
 11
5.72210853235896
 21
-8.1285575219373
  0
LINE
  5
296
100
AcDbEntity
  8
0
  6
CONTINUOUS
 62
             7
100
AcDbLine
 10
9.46961550602435
 20
-8.3472963553339
 11
8.98927802187143
 21
-11.07142559649131
  0
LINE
  5
295
100
AcDbEntity
  8
0
  6
CONTINUOUS
 62
             7
100
AcDbLine
 10
8.98927802187143
 20
-11.07142559649131
 11
8.62817783744873
 21
-11.45364185095389
  0
LINE
  5
294
100
AcDbEntity
  8
0
  6
CONTINUOUS
 62
             7
100
AcDbLine
 10
9.60138401605485
 20
-7.6
 11
10.09509956203857
 21
-4.80000000000001
  0
LINE
  5
293
100
AcDbEntity
  8
0
  6
CONTINUOUS
 62
             7
100
AcDbLine
 10
10.09509956203857
 20
-4.80000000000001
 11
9.88801723150493
 21
-4.5532088886238
  0
LINE
  5
292
100
AcDbEntity
  8
0
  6
CONTINUOUS
 62
             7
100
AcDbLine
 10
9.42381985709676
 20
-4.0
 11
6.98679598857092
 21
-4.0
  0
LINE
  5
291
100
AcDbEntity
  8
0
  6
CONTINUOUS
 62
             7
100
AcDbLine
 10
6.98679598857092
 20
-4.0
 11
6.66330344015694
 21
-4.27144247806271
  0
LINE
  5
290
100
AcDbEntity
  8
0
  6
CONTINUOUS
 62
             7
100
AcDbLine
 10
6.03339311449554
 20
-4.80000000000001
 11
5.53967756851182
 21
-7.6
  0
LINE
  5
28F
100
AcDbEntity
  8
0
  6
CONTINUOUS
 62
             7
100
AcDbLine
 10
5.53967756851182
 20
-7.6
 11
5.74675989904546
 21
-7.84679111137621
  0
LINE
  5
28E
100
AcDbEntity
  8
0
  6
CONTINUOUS
 62
             7
100
AcDbLine
 10
8.19960191537683
 20
-10.9428849561254
 11
8.62817783744873
 21
-11.45364185095389
  0
LINE
  5
28D
100
AcDbEntity
  8
0
  6
CONTINUOUS
 62
             7
100
AcDbLine
 10
8.19960191537683
 20
-10.9428849561254
 11
8.59395142048191
 21
-8.7064177772476
  0
LINE
  5
28C
100
AcDbEntity
  8
0
  6
CONTINUOUS
 62
             7
100
AcDbLine
 10
8.33669655984284
 20
-11.72855752193729
 11
7.89318413812936
 21
-11.19999999999999
  0
LINE
  5
28B
100
AcDbEntity
  8
0
  6
CONTINUOUS
 62
             7
100
AcDbLine
 10
8.33669655984284
 20
-11.72855752193729
 11
8.01320401142897
 21
-12.0
  0
LINE
  5
28A
100
AcDbEntity
  8
0
  6
CONTINUOUS
 62
             7
100
AcDbLine
 10
5.11198276849495
 20
-11.4467911113762
 11
5.77127144896747
 21
-10.8935822227524
  0
LINE
  5
289
100
AcDbEntity
  8
0
  6
CONTINUOUS
 62
             7
100
AcDbLine
 10
5.11198276849495
 20
-11.4467911113762
 11
4.90490043796132
 21
-11.19999999999999
  0
LINE
  5
288
100
AcDbEntity
  8
0
  6
CONTINUOUS
 62
             7
100
AcDbLine
 10
5.36909781236966
 20
-11.75320888862379
 11
6.02838649284206
 21
-11.19999999999999
  0
LINE
  5
287
100
AcDbEntity
  8
0
  6
CONTINUOUS
 62
             7
100
AcDbLine
 10
6.02838649284206
 20
-11.19999999999999
 11
7.89318413812936
 21
-11.19999999999999
  0
LINE
  5
286
100
AcDbEntity
  8
0
  6
CONTINUOUS
 62
             7
100
AcDbLine
 10
5.74675989904546
 20
-7.84679111137621
 11
6.40604857951803
 21
-7.29358222275241
  0
LINE
  5
285
100
AcDbEntity
  8
0
  6
CONTINUOUS
 62
             7
100
AcDbLine
 10
6.40604857951803
 20
-7.29358222275241
 11
6.80039808462294
 21
-5.0571150438746
  0
LINE
  5
284
100
AcDbEntity
  8
0
  6
CONTINUOUS
 62
             7
100
AcDbLine
 10
6.18646218635485
 20
-8.0
 11
6.66316362339256
 21
-7.6
  0
LINE
  5
283
100
AcDbEntity
  8
0
  6
CONTINUOUS
 62
             7
100
AcDbLine
 10
6.18646218635485
 20
-8.0
 11
6.47203873132014
 21
-8.40000000000001
  0
LINE
  5
282
100
AcDbEntity
  8
0
  6
CONTINUOUS
 62
             7
100
AcDbLine
 10
5.72210853235896
 20
-8.1285575219373
 11
6.16562095407244
 21
-8.6571150438746
  0
LINE
  5
281
100
AcDbEntity
  8
0
  6
CONTINUOUS
 62
             7
100
AcDbLine
 10
6.16562095407244
 20
-8.6571150438746
 11
5.77127144896747
 21
-10.8935822227524
  0
LINE
  5
280
100
AcDbEntity
  8
0
  6
CONTINUOUS
 62
             7
100
AcDbLine
 10
8.33683637660732
 20
-8.40000000000001
 11
8.81353781364504
 21
-8.0
  0
LINE
  5
27F
100
AcDbEntity
  8
0
  6
CONTINUOUS
 62
             7
100
AcDbLine
 10
8.33683637660732
 20
-8.40000000000001
 11
6.47203873132014
 21
-8.40000000000001
  0
LINE
  5
27E
100
AcDbEntity
  8
0
  6
CONTINUOUS
 62
             7
100
AcDbLine
 10
8.81353781364504
 20
-8.0
 11
8.52796126867975
 21
-7.6
  0
LINE
  5
27D
100
AcDbEntity
  8
0
  6
CONTINUOUS
 62
             7
100
AcDbLine
 10
8.52796126867975
 20
-7.6
 11
6.66316362339256
 21
-7.6
  0
LINE
  5
27C
100
AcDbEntity
  8
0
  6
CONTINUOUS
 62
             7
100
AcDbLine
 10
8.83437904592734
 20
-7.3428849561254
 11
9.27789146764093
 21
-7.87144247806271
  0
LINE
  5
27B
100
AcDbEntity
  8
0
  6
CONTINUOUS
 62
             7
100
AcDbLine
 10
9.27789146764093
 20
-7.87144247806271
 11
9.60138401605485
 21
-7.6
  0
LINE
  5
27A
100
AcDbEntity
  8
0
  6
CONTINUOUS
 62
             7
100
AcDbLine
 10
9.46961550602435
 20
-8.3472963553339
 11
9.26611720537204
 21
-8.14240371505631
  0
LINE
  5
279
100
AcDbEntity
  8
0
  6
CONTINUOUS
 62
             7
100
AcDbLine
 10
9.26611720537204
 20
-8.14240371505631
 11
8.59395142048191
 21
-8.7064177772476
  0
LINE
  5
278
100
AcDbEntity
  8
0
  6
CONTINUOUS
 62
             7
100
AcDbLine
 10
6.35688566290946
 20
-4.5285575219373
 11
6.80039808462294
 21
-5.0571150438746
  0
LINE
  5
277
100
AcDbEntity
  8
0
  6
CONTINUOUS
 62
             7
100
AcDbLine
 10
6.35688566290946
 20
-4.5285575219373
 11
6.03339311449554
 21
-4.80000000000001
  0
LINE
  5
276
100
AcDbEntity
  8
0
  6
CONTINUOUS
 62
             7
100
AcDbLine
 10
7.10681586187053
 20
-4.80000000000001
 11
6.66330344015694
 21
-4.27144247806271
  0
LINE
  5
275
100
AcDbEntity
  8
0
  6
CONTINUOUS
 62
             7
100
AcDbLine
 10
7.10681586187053
 20
-4.80000000000001
 11
8.97161350715783
 21
-4.80000000000001
  0
LINE
  5
274
100
AcDbEntity
  8
0
  6
CONTINUOUS
 62
             7
100
AcDbLine
 10
8.97161350715783
 20
-4.80000000000001
 11
9.63090218763023
 21
-4.24679111137621
  0
LINE
  5
273
100
AcDbEntity
  8
0
  6
CONTINUOUS
 62
             7
100
AcDbLine
 10
9.63090218763023
 20
-4.24679111137621
 11
9.42381985709676
 21
-4.0
  0
LINE
  5
272
100
AcDbEntity
  8
0
  6
CONTINUOUS
 62
             7
100
AcDbLine
 10
9.88801723150493
 20
-4.5532088886238
 11
9.22872855103242
 21
-5.1064177772476
  0
LINE
  5
271
100
AcDbEntity
  8
0
  6
CONTINUOUS
 62
             7
100
AcDbLine
 10
9.22872855103242
 20
-5.1064177772476
 11
8.83437904592734
 21
-7.3428849561254
  0
LINE
  5
270
100
AcDbEntity
  8
0
  6
CONTINUOUS
 62
             7
100
AcDbLine
 10
9.22872855103242
 20
34.8935822227524
 11
8.83437904592734
 21
32.6571150438746
  0
LINE
  5
26F
100
AcDbEntity
  8
0
  6
CONTINUOUS
 62
             7
100
AcDbLine
 10
9.88801723150493
 20
35.4467911113762
 11
9.22872855103242
 21
34.8935822227524
  0
LINE
  5
26E
100
AcDbEntity
  8
0
  6
CONTINUOUS
 62
             7
100
AcDbLine
 10
9.63090218763023
 20
35.7532088886238
 11
9.42381985709676
 21
36.0
  0
LINE
  5
26D
100
AcDbEntity
  8
0
  6
CONTINUOUS
 62
             7
100
AcDbLine
 10
8.97161350715783
 20
35.2
 11
9.63090218763023
 21
35.7532088886238
  0
LINE
  5
26C
100
AcDbEntity
  8
0
  6
CONTINUOUS
 62
             7
100
AcDbLine
 10
7.10681586187053
 20
35.2
 11
8.97161350715783
 21
35.2
  0
LINE
  5
26B
100
AcDbEntity
  8
0
  6
CONTINUOUS
 62
             7
100
AcDbLine
 10
7.10681586187053
 20
35.2
 11
6.66330344015694
 21
35.7285575219373
  0
LINE
  5
26A
100
AcDbEntity
  8
0
  6
CONTINUOUS
 62
             7
100
AcDbLine
 10
6.35688566290946
 20
35.4714424780627
 11
6.03339311449554
 21
35.2
  0
LINE
  5
269
100
AcDbEntity
  8
0
  6
CONTINUOUS
 62
             7
100
AcDbLine
 10
6.35688566290946
 20
35.4714424780627
 11
6.80039808462294
 21
34.9428849561254
  0
LINE
  5
268
100
AcDbEntity
  8
0
  6
CONTINUOUS
 62
             7
100
AcDbLine
 10
9.26611720537204
 20
31.8575962849437
 11
8.59395142048191
 21
31.29358222275241
  0
LINE
  5
267
100
AcDbEntity
  8
0
  6
CONTINUOUS
 62
             7
100
AcDbLine
 10
9.46961550602435
 20
31.6527036446661
 11
9.26611720537204
 21
31.8575962849437
  0
LINE
  5
266
100
AcDbEntity
  8
0
  6
CONTINUOUS
 62
             7
100
AcDbLine
 10
9.27789146764093
 20
32.1285575219373
 11
9.60138401605485
 21
32.40000000000001
  0
LINE
  5
265
100
AcDbEntity
  8
0
  6
CONTINUOUS
 62
             7
100
AcDbLine
 10
8.83437904592734
 20
32.6571150438746
 11
9.27789146764093
 21
32.1285575219373
  0
LINE
  5
264
100
AcDbEntity
  8
0
  6
CONTINUOUS
 62
             7
100
AcDbLine
 10
8.52796126867975
 20
32.40000000000001
 11
6.66316362339256
 21
32.40000000000001
  0
LINE
  5
263
100
AcDbEntity
  8
0
  6
CONTINUOUS
 62
             7
100
AcDbLine
 10
8.81353781364504
 20
32.0
 11
8.52796126867975
 21
32.40000000000001
  0
LINE
  5
262
100
AcDbEntity
  8
0
  6
CONTINUOUS
 62
             7
100
AcDbLine
 10
8.33683637660732
 20
31.59999999999999
 11
6.47203873132014
 21
31.59999999999999
  0
LINE
  5
261
100
AcDbEntity
  8
0
  6
CONTINUOUS
 62
             7
100
AcDbLine
 10
8.33683637660732
 20
31.59999999999999
 11
8.81353781364504
 21
32.0
  0
LINE
  5
260
100
AcDbEntity
  8
0
  6
CONTINUOUS
 62
             7
100
AcDbLine
 10
6.16562095407244
 20
31.3428849561254
 11
5.77127144896747
 21
29.1064177772476
  0
LINE
  5
25F
100
AcDbEntity
  8
0
  6
CONTINUOUS
 62
             7
100
AcDbLine
 10
5.72210853235896
 20
31.8714424780627
 11
6.16562095407244
 21
31.3428849561254
  0
LINE
  5
25E
100
AcDbEntity
  8
0
  6
CONTINUOUS
 62
             7
100
AcDbLine
 10
6.18646218635485
 20
32.0
 11
6.47203873132014
 21
31.59999999999999
  0
LINE
  5
25D
100
AcDbEntity
  8
0
  6
CONTINUOUS
 62
             7
100
AcDbLine
 10
6.18646218635485
 20
32.0
 11
6.66316362339256
 21
32.40000000000001
  0
LINE
  5
25C
100
AcDbEntity
  8
0
  6
CONTINUOUS
 62
             7
100
AcDbLine
 10
6.40604857951803
 20
32.70641777724759
 11
6.80039808462294
 21
34.9428849561254
  0
LINE
  5
25B
100
AcDbEntity
  8
0
  6
CONTINUOUS
 62
             7
100
AcDbLine
 10
5.74675989904546
 20
32.15320888862379
 11
6.40604857951803
 21
32.70641777724759
  0
LINE
  5
25A
100
AcDbEntity
  8
0
  6
CONTINUOUS
 62
             7
100
AcDbLine
 10
6.02838649284206
 20
28.8
 11
7.89318413812936
 21
28.8
  0
LINE
  5
259
100
AcDbEntity
  8
0
  6
CONTINUOUS
 62
             7
100
AcDbLine
 10
5.36909781236966
 20
28.2467911113762
 11
6.02838649284206
 21
28.8
  0
LINE
  5
258
100
AcDbEntity
  8
0
  6
CONTINUOUS
 62
             7
100
AcDbLine
 10
5.11198276849495
 20
28.5532088886238
 11
4.90490043796132
 21
28.8
  0
LINE
  5
257
100
AcDbEntity
  8
0
  6
CONTINUOUS
 62
             7
100
AcDbLine
 10
5.11198276849495
 20
28.5532088886238
 11
5.77127144896747
 21
29.1064177772476
  0
LINE
  5
256
100
AcDbEntity
  8
0
  6
CONTINUOUS
 62
             7
100
AcDbLine
 10
8.33669655984284
 20
28.2714424780627
 11
8.01320401142897
 21
28.0
  0
LINE
  5
255
100
AcDbEntity
  8
0
  6
CONTINUOUS
 62
             7
100
AcDbLine
 10
8.33669655984284
 20
28.2714424780627
 11
7.89318413812936
 21
28.8
  0
LINE
  5
254
100
AcDbEntity
  8
0
  6
CONTINUOUS
 62
             7
100
AcDbLine
 10
8.19960191537683
 20
29.0571150438746
 11
8.59395142048191
 21
31.29358222275241
  0
LINE
  5
253
100
AcDbEntity
  8
0
  6
CONTINUOUS
 62
             7
100
AcDbLine
 10
8.19960191537683
 20
29.0571150438746
 11
8.62817783744873
 21
28.5463581490461
  0
LINE
  5
252
100
AcDbEntity
  8
0
  6
CONTINUOUS
 62
             7
100
AcDbLine
 10
5.53967756851182
 20
32.40000000000001
 11
5.74675989904546
 21
32.15320888862379
  0
LINE
  5
251
100
AcDbEntity
  8
0
  6
CONTINUOUS
 62
             7
100
AcDbLine
 10
6.03339311449554
 20
35.2
 11
5.53967756851182
 21
32.40000000000001
  0
LINE
  5
250
100
AcDbEntity
  8
0
  6
CONTINUOUS
 62
             7
100
AcDbLine
 10
6.98679598857092
 20
36.0
 11
6.66330344015694
 21
35.7285575219373
  0
LINE
  5
24F
100
AcDbEntity
  8
0
  6
CONTINUOUS
 62
             7
100
AcDbLine
 10
9.42381985709676
 20
36.0
 11
6.98679598857092
 21
36.0
  0
LINE
  5
24E
100
AcDbEntity
  8
0
  6
CONTINUOUS
 62
             7
100
AcDbLine
 10
10.09509956203857
 20
35.2
 11
9.88801723150493
 21
35.4467911113762
  0
LINE
  5
24D
100
AcDbEntity
  8
0
  6
CONTINUOUS
 62
             7
100
AcDbLine
 10
9.60138401605485
 20
32.40000000000001
 11
10.09509956203857
 21
35.2
  0
LINE
  5
24C
100
AcDbEntity
  8
0
  6
CONTINUOUS
 62
             7
100
AcDbLine
 10
8.98927802187143
 20
28.92857440350871
 11
8.62817783744873
 21
28.5463581490461
  0
LINE
  5
24B
100
AcDbEntity
  8
0
  6
CONTINUOUS
 62
             7
100
AcDbLine
 10
9.46961550602435
 20
31.6527036446661
 11
8.98927802187143
 21
28.92857440350871
  0
LINE
  5
24A
100
AcDbEntity
  8
0
  6
CONTINUOUS
 62
             7
100
AcDbLine
 10
5.39861598394504
 20
31.59999999999999
 11
5.72210853235896
 21
31.8714424780627
  0
LINE
  5
249
100
AcDbEntity
  8
0
  6
CONTINUOUS
 62
             7
100
AcDbLine
 10
4.90490043796132
 20
28.8
 11
5.39861598394504
 21
31.59999999999999
  0
LINE
  5
248
100
AcDbEntity
  8
0
  6
CONTINUOUS
 62
             7
100
AcDbLine
 10
5.57618014290313
 20
28.0
 11
5.36909781236966
 21
28.2467911113762
  0
LINE
  5
247
100
AcDbEntity
  8
0
  6
CONTINUOUS
 62
             7
100
AcDbLine
 10
8.01320401142897
 20
28.0
 11
5.57618014290313
 21
28.0
  0
LINE
  5
246
100
AcDbEntity
  8
0
  6
CONTINUOUS
 62
             7
100
AcDbLine
 10
0.51320401142897
 20
28.0
 11
-1.92381985709687
 21
28.0
  0
LINE
  5
245
100
AcDbEntity
  8
0
  6
CONTINUOUS
 62
             7
100
AcDbLine
 10
-1.92381985709687
 20
28.0
 11
-2.13090218763034
 21
28.2467911113762
  0
LINE
  5
244
100
AcDbEntity
  8
0
  6
CONTINUOUS
 62
             7
100
AcDbLine
 10
-2.59509956203868
 20
28.8
 11
-2.10138401605496
 21
31.59999999999999
  0
LINE
  5
243
100
AcDbEntity
  8
0
  6
CONTINUOUS
 62
             7
100
AcDbLine
 10
-2.10138401605496
 20
31.59999999999999
 11
-1.77789146764104
 21
31.8714424780627
  0
LINE
  5
242
100
AcDbEntity
  8
0
  6
CONTINUOUS
 62
             7
100
AcDbLine
 10
1.96961550602435
 20
31.6527036446661
 11
1.48927802187143
 21
28.92857440350871
  0
LINE
  5
241
100
AcDbEntity
  8
0
  6
CONTINUOUS
 62
             7
100
AcDbLine
 10
1.48927802187143
 20
28.92857440350871
 11
1.12817783744873
 21
28.5463581490461
  0
LINE
  5
240
100
AcDbEntity
  8
0
  6
CONTINUOUS
 62
             7
100
AcDbLine
 10
2.10138401605485
 20
32.40000000000001
 11
2.59509956203857
 21
35.2
  0
LINE
  5
23F
100
AcDbEntity
  8
0
  6
CONTINUOUS
 62
             7
100
AcDbLine
 10
2.59509956203857
 20
35.2
 11
2.38801723150493
 21
35.4467911113762
  0
LINE
  5
23E
100
AcDbEntity
  8
0
  6
CONTINUOUS
 62
             7
100
AcDbLine
 10
1.92381985709676
 20
36.0
 11
-0.51320401142908
 21
36.0
  0
LINE
  5
23D
100
AcDbEntity
  8
0
  6
CONTINUOUS
 62
             7
100
AcDbLine
 10
-0.51320401142908
 20
36.0
 11
-0.83669655984306
 21
35.7285575219373
  0
LINE
  5
23C
100
AcDbEntity
  8
0
  6
CONTINUOUS
 62
             7
100
AcDbLine
 10
-1.46660688550446
 20
35.2
 11
-1.96032243148818
 21
32.40000000000001
  0
LINE
  5
23B
100
AcDbEntity
  8
0
  6
CONTINUOUS
 62
             7
100
AcDbLine
 10
-1.96032243148818
 20
32.40000000000001
 11
-1.75324010095454
 21
32.15320888862379
  0
LINE
  5
23A
100
AcDbEntity
  8
0
  6
CONTINUOUS
 62
             7
100
AcDbLine
 10
0.69960191537683
 20
29.0571150438746
 11
1.12817783744873
 21
28.5463581490461
  0
LINE
  5
239
100
AcDbEntity
  8
0
  6
CONTINUOUS
 62
             7
100
AcDbLine
 10
0.69960191537683
 20
29.0571150438746
 11
1.09395142048192
 21
31.29358222275241
  0
LINE
  5
238
100
AcDbEntity
  8
0
  6
CONTINUOUS
 62
             7
100
AcDbLine
 10
0.83669655984284
 20
28.2714424780627
 11
0.39318413812936
 21
28.8
  0
LINE
  5
237
100
AcDbEntity
  8
0
  6
CONTINUOUS
 62
             7
100
AcDbLine
 10
0.83669655984284
 20
28.2714424780627
 11
0.51320401142897
 21
28.0
  0
LINE
  5
236
100
AcDbEntity
  8
0
  6
CONTINUOUS
 62
             7
100
AcDbLine
 10
-2.38801723150505
 20
28.5532088886238
 11
-1.72872855103253
 21
29.1064177772476
  0
LINE
  5
235
100
AcDbEntity
  8
0
  6
CONTINUOUS
 62
             7
100
AcDbLine
 10
-2.38801723150505
 20
28.5532088886238
 11
-2.59509956203868
 21
28.8
  0
LINE
  5
234
100
AcDbEntity
  8
0
  6
CONTINUOUS
 62
             7
100
AcDbLine
 10
-2.13090218763034
 20
28.2467911113762
 11
-1.47161350715794
 21
28.8
  0
LINE
  5
233
100
AcDbEntity
  8
0
  6
CONTINUOUS
 62
             7
100
AcDbLine
 10
-1.47161350715794
 20
28.8
 11
0.39318413812936
 21
28.8
  0
LINE
  5
232
100
AcDbEntity
  8
0
  6
CONTINUOUS
 62
             7
100
AcDbLine
 10
-1.75324010095454
 20
32.15320888862379
 11
-1.09395142048197
 21
32.70641777724759
  0
LINE
  5
231
100
AcDbEntity
  8
0
  6
CONTINUOUS
 62
             7
100
AcDbLine
 10
-1.09395142048197
 20
32.70641777724759
 11
-0.69960191537706
 21
34.9428849561254
  0
LINE
  5
230
100
AcDbEntity
  8
0
  6
CONTINUOUS
 62
             7
100
AcDbLine
 10
-1.31353781364516
 20
32.0
 11
-0.83683637660744
 21
32.40000000000001
  0
LINE
  5
22F
100
AcDbEntity
  8
0
  6
CONTINUOUS
 62
             7
100
AcDbLine
 10
-1.31353781364516
 20
32.0
 11
-1.02796126867986
 21
31.59999999999999
  0
LINE
  5
22E
100
AcDbEntity
  8
0
  6
CONTINUOUS
 62
             7
100
AcDbLine
 10
-1.77789146764104
 20
31.8714424780627
 11
-1.33437904592756
 21
31.3428849561254
  0
LINE
  5
22D
100
AcDbEntity
  8
0
  6
CONTINUOUS
 62
             7
100
AcDbLine
 10
-1.33437904592756
 20
31.3428849561254
 11
-1.72872855103253
 21
29.1064177772476
  0
LINE
  5
22C
100
AcDbEntity
  8
0
  6
CONTINUOUS
 62
             7
100
AcDbLine
 10
0.83683637660732
 20
31.59999999999999
 11
1.31353781364504
 21
32.0
  0
LINE
  5
22B
100
AcDbEntity
  8
0
  6
CONTINUOUS
 62
             7
100
AcDbLine
 10
0.83683637660732
 20
31.59999999999999
 11
-1.02796126867986
 21
31.59999999999999
  0
LINE
  5
22A
100
AcDbEntity
  8
0
  6
CONTINUOUS
 62
             7
100
AcDbLine
 10
1.31353781364504
 20
32.0
 11
1.02796126867975
 21
32.40000000000001
  0
LINE
  5
229
100
AcDbEntity
  8
0
  6
CONTINUOUS
 62
             7
100
AcDbLine
 10
1.02796126867975
 20
32.40000000000001
 11
-0.83683637660744
 21
32.40000000000001
  0
LINE
  5
228
100
AcDbEntity
  8
0
  6
CONTINUOUS
 62
             7
100
AcDbLine
 10
1.33437904592734
 20
32.6571150438746
 11
1.77789146764093
 21
32.1285575219373
  0
LINE
  5
227
100
AcDbEntity
  8
0
  6
CONTINUOUS
 62
             7
100
AcDbLine
 10
1.77789146764093
 20
32.1285575219373
 11
2.10138401605485
 21
32.40000000000001
  0
LINE
  5
226
100
AcDbEntity
  8
0
  6
CONTINUOUS
 62
             7
100
AcDbLine
 10
1.96961550602435
 20
31.6527036446661
 11
1.76611720537204
 21
31.8575962849437
  0
LINE
  5
225
100
AcDbEntity
  8
0
  6
CONTINUOUS
 62
             7
100
AcDbLine
 10
1.76611720537204
 20
31.8575962849437
 11
1.09395142048192
 21
31.29358222275241
  0
LINE
  5
224
100
AcDbEntity
  8
0
  6
CONTINUOUS
 62
             7
100
AcDbLine
 10
-1.14311433709054
 20
35.4714424780627
 11
-0.69960191537706
 21
34.9428849561254
  0
LINE
  5
223
100
AcDbEntity
  8
0
  6
CONTINUOUS
 62
             7
100
AcDbLine
 10
-1.14311433709054
 20
35.4714424780627
 11
-1.46660688550446
 21
35.2
  0
LINE
  5
222
100
AcDbEntity
  8
0
  6
CONTINUOUS
 62
             7
100
AcDbLine
 10
-0.39318413812947
 20
35.2
 11
-0.83669655984306
 21
35.7285575219373
  0
LINE
  5
221
100
AcDbEntity
  8
0
  6
CONTINUOUS
 62
             7
100
AcDbLine
 10
-0.39318413812947
 20
35.2
 11
1.47161350715783
 21
35.2
  0
LINE
  5
220
100
AcDbEntity
  8
0
  6
CONTINUOUS
 62
             7
100
AcDbLine
 10
1.47161350715783
 20
35.2
 11
2.13090218763023
 21
35.7532088886238
  0
LINE
  5
21F
100
AcDbEntity
  8
0
  6
CONTINUOUS
 62
             7
100
AcDbLine
 10
2.13090218763023
 20
35.7532088886238
 11
1.92381985709676
 21
36.0
  0
LINE
  5
21E
100
AcDbEntity
  8
0
  6
CONTINUOUS
 62
             7
100
AcDbLine
 10
2.38801723150493
 20
35.4467911113762
 11
1.72872855103242
 21
34.8935822227524
  0
LINE
  5
21D
100
AcDbEntity
  8
0
  6
CONTINUOUS
 62
             7
100
AcDbLine
 10
1.72872855103242
 20
34.8935822227524
 11
1.33437904592734
 21
32.6571150438746
  0
LINE
  5
21C
100
AcDbEntity
  8
0
  6
CONTINUOUS
 62
             7
100
AcDbLine
 10
-5.77127144896758
 20
34.8935822227524
 11
-6.16562095407267
 21
32.6571150438746
  0
LINE
  5
21B
100
AcDbEntity
  8
0
  6
CONTINUOUS
 62
             7
100
AcDbLine
 10
-5.11198276849507
 20
35.4467911113762
 11
-5.77127144896758
 21
34.8935822227524
  0
LINE
  5
21A
100
AcDbEntity
  8
0
  6
CONTINUOUS
 62
             7
100
AcDbLine
 10
-5.36909781236977
 20
35.7532088886238
 11
-5.57618014290324
 21
36.0
  0
LINE
  5
219
100
AcDbEntity
  8
0
  6
CONTINUOUS
 62
             7
100
AcDbLine
 10
-6.02838649284217
 20
35.2
 11
-5.36909781236977
 21
35.7532088886238
  0
LINE
  5
218
100
AcDbEntity
  8
0
  6
CONTINUOUS
 62
             7
100
AcDbLine
 10
-7.89318413812947
 20
35.2
 11
-6.02838649284217
 21
35.2
  0
LINE
  5
217
100
AcDbEntity
  8
0
  6
CONTINUOUS
 62
             7
100
AcDbLine
 10
-7.89318413812947
 20
35.2
 11
-8.33669655984306
 21
35.7285575219373
  0
LINE
  5
216
100
AcDbEntity
  8
0
  6
CONTINUOUS
 62
             7
100
AcDbLine
 10
-8.64311433709054
 20
35.4714424780627
 11
-8.96660688550446
 21
35.2
  0
LINE
  5
215
100
AcDbEntity
  8
0
  6
CONTINUOUS
 62
             7
100
AcDbLine
 10
-8.64311433709054
 20
35.4714424780627
 11
-8.19960191537706
 21
34.9428849561254
  0
LINE
  5
214
100
AcDbEntity
  8
0
  6
CONTINUOUS
 62
             7
100
AcDbLine
 10
-5.73388279462796
 20
31.8575962849437
 11
-6.40604857951809
 21
31.29358222275241
  0
LINE
  5
213
100
AcDbEntity
  8
0
  6
CONTINUOUS
 62
             7
100
AcDbLine
 10
-5.53038449397565
 20
31.6527036446661
 11
-5.73388279462796
 21
31.8575962849437
  0
LINE
  5
212
100
AcDbEntity
  8
0
  6
CONTINUOUS
 62
             7
100
AcDbLine
 10
-5.72210853235907
 20
32.1285575219373
 11
-5.39861598394515
 21
32.40000000000001
  0
LINE
  5
211
100
AcDbEntity
  8
0
  6
CONTINUOUS
 62
             7
100
AcDbLine
 10
-6.16562095407267
 20
32.6571150438746
 11
-5.72210853235907
 21
32.1285575219373
  0
LINE
  5
210
100
AcDbEntity
  8
0
  6
CONTINUOUS
 62
             7
100
AcDbLine
 10
-6.47203873132025
 20
32.40000000000001
 11
-8.33683637660744
 21
32.40000000000001
  0
LINE
  5
20F
100
AcDbEntity
  8
0
  6
CONTINUOUS
 62
             7
100
AcDbLine
 10
-6.18646218635496
 20
32.0
 11
-6.47203873132025
 21
32.40000000000001
  0
LINE
  5
20E
100
AcDbEntity
  8
0
  6
CONTINUOUS
 62
             7
100
AcDbLine
 10
-6.66316362339268
 20
31.59999999999999
 11
-8.52796126867986
 21
31.59999999999999
  0
LINE
  5
20D
100
AcDbEntity
  8
0
  6
CONTINUOUS
 62
             7
100
AcDbLine
 10
-6.66316362339268
 20
31.59999999999999
 11
-6.18646218635496
 21
32.0
  0
LINE
  5
20C
100
AcDbEntity
  8
0
  6
CONTINUOUS
 62
             7
100
AcDbLine
 10
-8.83437904592756
 20
31.3428849561254
 11
-9.22872855103253
 21
29.1064177772476
  0
LINE
  5
20B
100
AcDbEntity
  8
0
  6
CONTINUOUS
 62
             7
100
AcDbLine
 10
-9.27789146764104
 20
31.8714424780627
 11
-8.83437904592756
 21
31.3428849561254
  0
LINE
  5
20A
100
AcDbEntity
  8
0
  6
CONTINUOUS
 62
             7
100
AcDbLine
 10
-8.81353781364516
 20
32.0
 11
-8.52796126867986
 21
31.59999999999999
  0
LINE
  5
209
100
AcDbEntity
  8
0
  6
CONTINUOUS
 62
             7
100
AcDbLine
 10
-8.81353781364516
 20
32.0
 11
-8.33683637660744
 21
32.40000000000001
  0
LINE
  5
208
100
AcDbEntity
  8
0
  6
CONTINUOUS
 62
             7
100
AcDbLine
 10
-8.59395142048197
 20
32.70641777724759
 11
-8.19960191537706
 21
34.9428849561254
  0
LINE
  5
207
100
AcDbEntity
  8
0
  6
CONTINUOUS
 62
             7
100
AcDbLine
 10
-9.25324010095454
 20
32.15320888862379
 11
-8.59395142048197
 21
32.70641777724759
  0
LINE
  5
206
100
AcDbEntity
  8
0
  6
CONTINUOUS
 62
             7
100
AcDbLine
 10
-8.97161350715794
 20
28.8
 11
-7.10681586187064
 21
28.8
  0
LINE
  5
205
100
AcDbEntity
  8
0
  6
CONTINUOUS
 62
             7
100
AcDbLine
 10
-9.63090218763034
 20
28.2467911113762
 11
-8.97161350715794
 21
28.8
  0
LINE
  5
204
100
AcDbEntity
  8
0
  6
CONTINUOUS
 62
             7
100
AcDbLine
 10
-9.88801723150505
 20
28.5532088886238
 11
-10.09509956203868
 21
28.8
  0
LINE
  5
203
100
AcDbEntity
  8
0
  6
CONTINUOUS
 62
             7
100
AcDbLine
 10
-9.88801723150505
 20
28.5532088886238
 11
-9.22872855103253
 21
29.1064177772476
  0
LINE
  5
202
100
AcDbEntity
  8
0
  6
CONTINUOUS
 62
             7
100
AcDbLine
 10
-6.66330344015716
 20
28.2714424780627
 11
-6.98679598857103
 21
28.0
  0
LINE
  5
201
100
AcDbEntity
  8
0
  6
CONTINUOUS
 62
             7
100
AcDbLine
 10
-6.66330344015716
 20
28.2714424780627
 11
-7.10681586187064
 21
28.8
  0
LINE
  5
200
100
AcDbEntity
  8
0
  6
CONTINUOUS
 62
             7
100
AcDbLine
 10
-6.80039808462317
 20
29.0571150438746
 11
-6.40604857951809
 21
31.29358222275241
  0
LINE
  5
1FF
100
AcDbEntity
  8
0
  6
CONTINUOUS
 62
             7
100
AcDbLine
 10
-6.80039808462317
 20
29.0571150438746
 11
-6.37182216255127
 21
28.5463581490461
  0
LINE
  5
1FE
100
AcDbEntity
  8
0
  6
CONTINUOUS
 62
             7
100
AcDbLine
 10
-9.46032243148818
 20
32.40000000000001
 11
-9.25324010095454
 21
32.15320888862379
  0
LINE
  5
1FD
100
AcDbEntity
  8
0
  6
CONTINUOUS
 62
             7
100
AcDbLine
 10
-8.96660688550446
 20
35.2
 11
-9.46032243148818
 21
32.40000000000001
  0
LINE
  5
1FC
100
AcDbEntity
  8
0
  6
CONTINUOUS
 62
             7
100
AcDbLine
 10
-8.01320401142908
 20
36.0
 11
-8.33669655984306
 21
35.7285575219373
  0
LINE
  5
1FB
100
AcDbEntity
  8
0
  6
CONTINUOUS
 62
             7
100
AcDbLine
 10
-5.57618014290324
 20
36.0
 11
-8.01320401142908
 21
36.0
  0
LINE
  5
1FA
100
AcDbEntity
  8
0
  6
CONTINUOUS
 62
             7
100
AcDbLine
 10
-4.90490043796143
 20
35.2
 11
-5.11198276849507
 21
35.4467911113762
  0
LINE
  5
1F9
100
AcDbEntity
  8
0
  6
CONTINUOUS
 62
             7
100
AcDbLine
 10
-5.39861598394515
 20
32.40000000000001
 11
-4.90490043796143
 21
35.2
  0
LINE
  5
1F8
100
AcDbEntity
  8
0
  6
CONTINUOUS
 62
             7
100
AcDbLine
 10
-6.01072197812857
 20
28.92857440350871
 11
-6.37182216255127
 21
28.5463581490461
  0
LINE
  5
1F7
100
AcDbEntity
  8
0
  6
CONTINUOUS
 62
             7
100
AcDbLine
 10
-5.53038449397565
 20
31.6527036446661
 11
-6.01072197812857
 21
28.92857440350871
  0
LINE
  5
1F6
100
AcDbEntity
  8
0
  6
CONTINUOUS
 62
             7
100
AcDbLine
 10
-9.60138401605496
 20
31.59999999999999
 11
-9.27789146764104
 21
31.8714424780627
  0
LINE
  5
1F5
100
AcDbEntity
  8
0
  6
CONTINUOUS
 62
             7
100
AcDbLine
 10
-10.09509956203868
 20
28.8
 11
-9.60138401605496
 21
31.59999999999999
  0
LINE
  5
1F4
100
AcDbEntity
  8
0
  6
CONTINUOUS
 62
             7
100
AcDbLine
 10
-9.42381985709687
 20
28.0
 11
-9.63090218763034
 21
28.2467911113762
  0
LINE
  5
1F3
100
AcDbEntity
  8
0
  6
CONTINUOUS
 62
             7
100
AcDbLine
 10
-6.98679598857103
 20
28.0
 11
-9.42381985709687
 21
28.0
  0
LINE
  5
1F2
100
AcDbEntity
  8
1
  6
CONTINUOUS
 62
             7
100
AcDbLine
 10
-11.50000000000006
 20
26.0
 11
11.49999999999994
 21
26.0
  0
LINE
  5
1F1
100
AcDbEntity
  8
1
  6
CONTINUOUS
 62
             7
100
AcDbLine
 10
11.99999999999994
 20
26.5
 11
11.99999999999994
 21
37.5
  0
LINE
  5
1F0
100
AcDbEntity
  8
1
  6
CONTINUOUS
 62
             7
100
AcDbLine
 10
11.49999999999994
 20
38.0
 11
-11.50000000000006
 21
38.0
  0
LINE
  5
1EF
100
AcDbEntity
  8
1
  6
CONTINUOUS
 62
             7
100
AcDbLine
 10
-12.00000000000006
 20
37.5
 11
-12.00000000000006
 21
26.5
  0
LINE
  5
1EE
100
AcDbEntity
  8
1
  6
CONTINUOUS
 62
             7
100
AcDbLine
 10
-12.00000000000006
 20
-2.5
 11
-12.00000000000006
 21
-13.5
  0
LINE
  5
1ED
100
AcDbEntity
  8
1
  6
CONTINUOUS
 62
             7
100
AcDbLine
 10
11.49999999999994
 20
-2.0
 11
-11.50000000000006
 21
-2.0
  0
LINE
  5
1EC
100
AcDbEntity
  8
1
  6
CONTINUOUS
 62
             7
100
AcDbLine
 10
11.99999999999994
 20
-13.5
 11
11.99999999999994
 21
-2.5
  0
LINE
  5
1EB
100
AcDbEntity
  8
1
  6
CONTINUOUS
 62
             7
100
AcDbLine
 10
-11.50000000000006
 20
-14.0
 11
11.49999999999994
 21
-14.0
  0
LINE
  5
1EA
100
AcDbEntity
  8
0
  6
CONTINUOUS
 62
             7
100
AcDbLine
 10
-6.98679598857103
 20
-12.0
 11
-9.42381985709687
 21
-12.0
  0
LINE
  5
1E9
100
AcDbEntity
  8
0
  6
CONTINUOUS
 62
             7
100
AcDbLine
 10
-9.42381985709687
 20
-12.0
 11
-9.63090218763034
 21
-11.75320888862379
  0
LINE
  5
1E8
100
AcDbEntity
  8
0
  6
CONTINUOUS
 62
             7
100
AcDbLine
 10
-10.09509956203868
 20
-11.19999999999999
 11
-9.60138401605496
 21
-8.40000000000001
  0
LINE
  5
1E7
100
AcDbEntity
  8
0
  6
CONTINUOUS
 62
             7
100
AcDbLine
 10
-9.60138401605496
 20
-8.40000000000001
 11
-9.27789146764104
 21
-8.1285575219373
  0
LINE
  5
1E6
100
AcDbEntity
  8
0
  6
CONTINUOUS
 62
             7
100
AcDbLine
 10
-5.53038449397565
 20
-8.3472963553339
 11
-6.01072197812857
 21
-11.07142559649131
  0
LINE
  5
1E5
100
AcDbEntity
  8
0
  6
CONTINUOUS
 62
             7
100
AcDbLine
 10
-6.01072197812857
 20
-11.07142559649131
 11
-6.37182216255127
 21
-11.45364185095389
  0
LINE
  5
1E4
100
AcDbEntity
  8
0
  6
CONTINUOUS
 62
             7
100
AcDbLine
 10
-5.39861598394515
 20
-7.6
 11
-4.90490043796143
 21
-4.80000000000001
  0
LINE
  5
1E3
100
AcDbEntity
  8
0
  6
CONTINUOUS
 62
             7
100
AcDbLine
 10
-4.90490043796143
 20
-4.80000000000001
 11
-5.11198276849507
 21
-4.5532088886238
  0
LINE
  5
1E2
100
AcDbEntity
  8
0
  6
CONTINUOUS
 62
             7
100
AcDbLine
 10
-5.57618014290324
 20
-4.0
 11
-8.01320401142908
 21
-4.0
  0
LINE
  5
1E1
100
AcDbEntity
  8
0
  6
CONTINUOUS
 62
             7
100
AcDbLine
 10
-8.01320401142908
 20
-4.0
 11
-8.33669655984306
 21
-4.27144247806271
  0
LINE
  5
1E0
100
AcDbEntity
  8
0
  6
CONTINUOUS
 62
             7
100
AcDbLine
 10
-8.96660688550446
 20
-4.80000000000001
 11
-9.46032243148818
 21
-7.6
  0
LINE
  5
1DF
100
AcDbEntity
  8
0
  6
CONTINUOUS
 62
             7
100
AcDbLine
 10
-9.46032243148818
 20
-7.6
 11
-9.25324010095454
 21
-7.84679111137621
  0
LINE
  5
1DE
100
AcDbEntity
  8
0
  6
CONTINUOUS
 62
             7
100
AcDbLine
 10
-6.80039808462317
 20
-10.9428849561254
 11
-6.37182216255127
 21
-11.45364185095389
  0
LINE
  5
1DD
100
AcDbEntity
  8
0
  6
CONTINUOUS
 62
             7
100
AcDbLine
 10
-6.80039808462317
 20
-10.9428849561254
 11
-6.40604857951809
 21
-8.7064177772476
  0
LINE
  5
1DC
100
AcDbEntity
  8
0
  6
CONTINUOUS
 62
             7
100
AcDbLine
 10
-6.66330344015716
 20
-11.72855752193729
 11
-7.10681586187064
 21
-11.19999999999999
  0
LINE
  5
1DB
100
AcDbEntity
  8
0
  6
CONTINUOUS
 62
             7
100
AcDbLine
 10
-6.66330344015716
 20
-11.72855752193729
 11
-6.98679598857103
 21
-12.0
  0
LINE
  5
1DA
100
AcDbEntity
  8
0
  6
CONTINUOUS
 62
             7
100
AcDbLine
 10
-9.88801723150505
 20
-11.4467911113762
 11
-9.22872855103253
 21
-10.8935822227524
  0
LINE
  5
1D9
100
AcDbEntity
  8
0
  6
CONTINUOUS
 62
             7
100
AcDbLine
 10
-9.88801723150505
 20
-11.4467911113762
 11
-10.09509956203868
 21
-11.19999999999999
  0
LINE
  5
1D8
100
AcDbEntity
  8
0
  6
CONTINUOUS
 62
             7
100
AcDbLine
 10
-9.63090218763034
 20
-11.75320888862379
 11
-8.97161350715794
 21
-11.19999999999999
  0
LINE
  5
1D7
100
AcDbEntity
  8
0
  6
CONTINUOUS
 62
             7
100
AcDbLine
 10
-8.97161350715794
 20
-11.19999999999999
 11
-7.10681586187064
 21
-11.19999999999999
  0
LINE
  5
1D6
100
AcDbEntity
  8
0
  6
CONTINUOUS
 62
             7
100
AcDbLine
 10
-9.25324010095454
 20
-7.84679111137621
 11
-8.59395142048197
 21
-7.29358222275241
  0
LINE
  5
1D5
100
AcDbEntity
  8
0
  6
CONTINUOUS
 62
             7
100
AcDbLine
 10
-8.59395142048197
 20
-7.29358222275241
 11
-8.19960191537706
 21
-5.0571150438746
  0
LINE
  5
1D4
100
AcDbEntity
  8
0
  6
CONTINUOUS
 62
             7
100
AcDbLine
 10
-8.81353781364516
 20
-8.0
 11
-8.33683637660744
 21
-7.6
  0
LINE
  5
1D3
100
AcDbEntity
  8
0
  6
CONTINUOUS
 62
             7
100
AcDbLine
 10
-8.81353781364516
 20
-8.0
 11
-8.52796126867986
 21
-8.40000000000001
  0
LINE
  5
1D2
100
AcDbEntity
  8
0
  6
CONTINUOUS
 62
             7
100
AcDbLine
 10
-9.27789146764104
 20
-8.1285575219373
 11
-8.83437904592756
 21
-8.6571150438746
  0
LINE
  5
1D1
100
AcDbEntity
  8
0
  6
CONTINUOUS
 62
             7
100
AcDbLine
 10
-8.83437904592756
 20
-8.6571150438746
 11
-9.22872855103253
 21
-10.8935822227524
  0
LINE
  5
1D0
100
AcDbEntity
  8
0
  6
CONTINUOUS
 62
             7
100
AcDbLine
 10
-6.66316362339268
 20
-8.40000000000001
 11
-6.18646218635496
 21
-8.0
  0
LINE
  5
1CF
100
AcDbEntity
  8
0
  6
CONTINUOUS
 62
             7
100
AcDbLine
 10
-6.66316362339268
 20
-8.40000000000001
 11
-8.52796126867986
 21
-8.40000000000001
  0
LINE
  5
1CE
100
AcDbEntity
  8
0
  6
CONTINUOUS
 62
             7
100
AcDbLine
 10
-6.18646218635496
 20
-8.0
 11
-6.47203873132025
 21
-7.6
  0
LINE
  5
1CD
100
AcDbEntity
  8
0
  6
CONTINUOUS
 62
             7
100
AcDbLine
 10
-6.47203873132025
 20
-7.6
 11
-8.33683637660744
 21
-7.6
  0
LINE
  5
1CC
100
AcDbEntity
  8
0
  6
CONTINUOUS
 62
             7
100
AcDbLine
 10
-6.16562095407267
 20
-7.3428849561254
 11
-5.72210853235907
 21
-7.87144247806271
  0
LINE
  5
1CB
100
AcDbEntity
  8
0
  6
CONTINUOUS
 62
             7
100
AcDbLine
 10
-5.72210853235907
 20
-7.87144247806271
 11
-5.39861598394515
 21
-7.6
  0
LINE
  5
1CA
100
AcDbEntity
  8
0
  6
CONTINUOUS
 62
             7
100
AcDbLine
 10
-5.53038449397565
 20
-8.3472963553339
 11
-5.73388279462796
 21
-8.14240371505631
  0
LINE
  5
1C9
100
AcDbEntity
  8
0
  6
CONTINUOUS
 62
             7
100
AcDbLine
 10
-5.73388279462796
 20
-8.14240371505631
 11
-6.40604857951809
 21
-8.7064177772476
  0
LINE
  5
1C8
100
AcDbEntity
  8
0
  6
CONTINUOUS
 62
             7
100
AcDbLine
 10
-8.64311433709054
 20
-4.5285575219373
 11
-8.19960191537706
 21
-5.0571150438746
  0
LINE
  5
1C7
100
AcDbEntity
  8
0
  6
CONTINUOUS
 62
             7
100
AcDbLine
 10
-8.64311433709054
 20
-4.5285575219373
 11
-8.96660688550446
 21
-4.80000000000001
  0
LINE
  5
1C6
100
AcDbEntity
  8
0
  6
CONTINUOUS
 62
             7
100
AcDbLine
 10
-7.89318413812947
 20
-4.80000000000001
 11
-8.33669655984306
 21
-4.27144247806271
  0
LINE
  5
1C5
100
AcDbEntity
  8
0
  6
CONTINUOUS
 62
             7
100
AcDbLine
 10
-7.89318413812947
 20
-4.80000000000001
 11
-6.02838649284217
 21
-4.80000000000001
  0
LINE
  5
1C4
100
AcDbEntity
  8
0
  6
CONTINUOUS
 62
             7
100
AcDbLine
 10
-6.02838649284217
 20
-4.80000000000001
 11
-5.36909781236977
 21
-4.24679111137621
  0
LINE
  5
1C3
100
AcDbEntity
  8
0
  6
CONTINUOUS
 62
             7
100
AcDbLine
 10
-5.36909781236977
 20
-4.24679111137621
 11
-5.57618014290324
 21
-4.0
  0
LINE
  5
1C2
100
AcDbEntity
  8
0
  6
CONTINUOUS
 62
             7
100
AcDbLine
 10
-5.11198276849507
 20
-4.5532088886238
 11
-5.77127144896758
 21
-5.1064177772476
  0
LINE
  5
1C1
100
AcDbEntity
  8
0
  6
CONTINUOUS
 62
             7
100
AcDbLine
 10
-5.77127144896758
 20
-5.1064177772476
 11
-6.16562095407267
 21
-7.3428849561254
  0
LINE
  5
1C0
100
AcDbEntity
  8
0
  6
CONTINUOUS
 62
             7
100
AcDbLine
 10
1.72872855103242
 20
-5.1064177772476
 11
1.33437904592734
 21
-7.3428849561254
  0
LINE
  5
1BF
100
AcDbEntity
  8
0
  6
CONTINUOUS
 62
             7
100
AcDbLine
 10
2.38801723150493
 20
-4.5532088886238
 11
1.72872855103242
 21
-5.1064177772476
  0
LINE
  5
1BE
100
AcDbEntity
  8
0
  6
CONTINUOUS
 62
             7
100
AcDbLine
 10
2.13090218763023
 20
-4.24679111137621
 11
1.92381985709676
 21
-4.0
  0
LINE
  5
1BD
100
AcDbEntity
  8
0
  6
CONTINUOUS
 62
             7
100
AcDbLine
 10
1.47161350715783
 20
-4.80000000000001
 11
2.13090218763023
 21
-4.24679111137621
  0
LINE
  5
1BC
100
AcDbEntity
  8
0
  6
CONTINUOUS
 62
             7
100
AcDbLine
 10
-0.39318413812947
 20
-4.80000000000001
 11
1.47161350715783
 21
-4.80000000000001
  0
LINE
  5
1BB
100
AcDbEntity
  8
0
  6
CONTINUOUS
 62
             7
100
AcDbLine
 10
-0.39318413812947
 20
-4.80000000000001
 11
-0.83669655984306
 21
-4.27144247806271
  0
LINE
  5
1BA
100
AcDbEntity
  8
0
  6
CONTINUOUS
 62
             7
100
AcDbLine
 10
-1.14311433709054
 20
-4.5285575219373
 11
-1.46660688550446
 21
-4.80000000000001
  0
LINE
  5
1B9
100
AcDbEntity
  8
0
  6
CONTINUOUS
 62
             7
100
AcDbLine
 10
-1.14311433709054
 20
-4.5285575219373
 11
-0.69960191537706
 21
-5.0571150438746
  0
LINE
  5
1B8
100
AcDbEntity
  8
0
  6
CONTINUOUS
 62
             7
100
AcDbLine
 10
1.76611720537204
 20
-8.14240371505631
 11
1.09395142048192
 21
-8.7064177772476
  0
LINE
  5
1B7
100
AcDbEntity
  8
0
  6
CONTINUOUS
 62
             7
100
AcDbLine
 10
1.96961550602435
 20
-8.3472963553339
 11
1.76611720537204
 21
-8.14240371505631
  0
LINE
  5
1B6
100
AcDbEntity
  8
0
  6
CONTINUOUS
 62
             7
100
AcDbLine
 10
1.77789146764093
 20
-7.87144247806271
 11
2.10138401605485
 21
-7.6
  0
LINE
  5
1B5
100
AcDbEntity
  8
0
  6
CONTINUOUS
 62
             7
100
AcDbLine
 10
1.33437904592734
 20
-7.3428849561254
 11
1.77789146764093
 21
-7.87144247806271
  0
LINE
  5
1B4
100
AcDbEntity
  8
0
  6
CONTINUOUS
 62
             7
100
AcDbLine
 10
1.02796126867975
 20
-7.6
 11
-0.83683637660744
 21
-7.6
  0
LINE
  5
1B3
100
AcDbEntity
  8
0
  6
CONTINUOUS
 62
             7
100
AcDbLine
 10
1.31353781364504
 20
-8.0
 11
1.02796126867975
 21
-7.6
  0
LINE
  5
1B2
100
AcDbEntity
  8
0
  6
CONTINUOUS
 62
             7
100
AcDbLine
 10
0.83683637660732
 20
-8.40000000000001
 11
-1.02796126867986
 21
-8.40000000000001
  0
LINE
  5
1B1
100
AcDbEntity
  8
0
  6
CONTINUOUS
 62
             7
100
AcDbLine
 10
0.83683637660732
 20
-8.40000000000001
 11
1.31353781364504
 21
-8.0
  0
LINE
  5
1B0
100
AcDbEntity
  8
0
  6
CONTINUOUS
 62
             7
100
AcDbLine
 10
-1.33437904592756
 20
-8.6571150438746
 11
-1.72872855103253
 21
-10.8935822227524
  0
LINE
  5
1AF
100
AcDbEntity
  8
0
  6
CONTINUOUS
 62
             7
100
AcDbLine
 10
-1.77789146764104
 20
-8.1285575219373
 11
-1.33437904592756
 21
-8.6571150438746
  0
LINE
  5
1AE
100
AcDbEntity
  8
0
  6
CONTINUOUS
 62
             7
100
AcDbLine
 10
-1.31353781364516
 20
-8.0
 11
-1.02796126867986
 21
-8.40000000000001
  0
LINE
  5
1AD
100
AcDbEntity
  8
0
  6
CONTINUOUS
 62
             7
100
AcDbLine
 10
-1.31353781364516
 20
-8.0
 11
-0.83683637660744
 21
-7.6
  0
LINE
  5
1AC
100
AcDbEntity
  8
0
  6
CONTINUOUS
 62
             7
100
AcDbLine
 10
-1.09395142048197
 20
-7.29358222275241
 11
-0.69960191537706
 21
-5.0571150438746
  0
LINE
  5
1AB
100
AcDbEntity
  8
0
  6
CONTINUOUS
 62
             7
100
AcDbLine
 10
-1.75324010095454
 20
-7.84679111137621
 11
-1.09395142048197
 21
-7.29358222275241
  0
LINE
  5
1AA
100
AcDbEntity
  8
0
  6
CONTINUOUS
 62
             7
100
AcDbLine
 10
-1.47161350715794
 20
-11.19999999999999
 11
0.39318413812936
 21
-11.19999999999999
  0
LINE
  5
1A9
100
AcDbEntity
  8
0
  6
CONTINUOUS
 62
             7
100
AcDbLine
 10
-2.13090218763034
 20
-11.75320888862379
 11
-1.47161350715794
 21
-11.19999999999999
  0
LINE
  5
1A8
100
AcDbEntity
  8
0
  6
CONTINUOUS
 62
             7
100
AcDbLine
 10
-2.38801723150505
 20
-11.4467911113762
 11
-2.59509956203868
 21
-11.19999999999999
  0
LINE
  5
1A7
100
AcDbEntity
  8
0
  6
CONTINUOUS
 62
             7
100
AcDbLine
 10
-2.38801723150505
 20
-11.4467911113762
 11
-1.72872855103253
 21
-10.8935822227524
  0
LINE
  5
1A6
100
AcDbEntity
  8
0
  6
CONTINUOUS
 62
             7
100
AcDbLine
 10
0.83669655984284
 20
-11.72855752193729
 11
0.51320401142897
 21
-12.0
  0
LINE
  5
1A5
100
AcDbEntity
  8
0
  6
CONTINUOUS
 62
             7
100
AcDbLine
 10
0.83669655984284
 20
-11.72855752193729
 11
0.39318413812936
 21
-11.19999999999999
  0
LINE
  5
1A4
100
AcDbEntity
  8
0
  6
CONTINUOUS
 62
             7
100
AcDbLine
 10
0.69960191537683
 20
-10.9428849561254
 11
1.09395142048192
 21
-8.7064177772476
  0
LINE
  5
1A3
100
AcDbEntity
  8
0
  6
CONTINUOUS
 62
             7
100
AcDbLine
 10
0.69960191537683
 20
-10.9428849561254
 11
1.12817783744873
 21
-11.45364185095389
  0
LINE
  5
1A2
100
AcDbEntity
  8
0
  6
CONTINUOUS
 62
             7
100
AcDbLine
 10
-1.96032243148818
 20
-7.6
 11
-1.75324010095454
 21
-7.84679111137621
  0
LINE
  5
1A1
100
AcDbEntity
  8
0
  6
CONTINUOUS
 62
             7
100
AcDbLine
 10
-1.46660688550446
 20
-4.80000000000001
 11
-1.96032243148818
 21
-7.6
  0
LINE
  5
1A0
100
AcDbEntity
  8
0
  6
CONTINUOUS
 62
             7
100
AcDbLine
 10
-0.51320401142908
 20
-4.0
 11
-0.83669655984306
 21
-4.27144247806271
  0
LINE
  5
19F
100
AcDbEntity
  8
0
  6
CONTINUOUS
 62
             7
100
AcDbLine
 10
1.92381985709676
 20
-4.0
 11
-0.51320401142908
 21
-4.0
  0
LINE
  5
19E
100
AcDbEntity
  8
0
  6
CONTINUOUS
 62
             7
100
AcDbLine
 10
2.59509956203857
 20
-4.80000000000001
 11
2.38801723150493
 21
-4.5532088886238
  0
LINE
  5
19D
100
AcDbEntity
  8
0
  6
CONTINUOUS
 62
             7
100
AcDbLine
 10
2.10138401605485
 20
-7.6
 11
2.59509956203857
 21
-4.80000000000001
  0
LINE
  5
19C
100
AcDbEntity
  8
0
  6
CONTINUOUS
 62
             7
100
AcDbLine
 10
1.48927802187143
 20
-11.07142559649131
 11
1.12817783744873
 21
-11.45364185095389
  0
LINE
  5
19B
100
AcDbEntity
  8
0
  6
CONTINUOUS
 62
             7
100
AcDbLine
 10
1.96961550602435
 20
-8.3472963553339
 11
1.48927802187143
 21
-11.07142559649131
  0
LINE
  5
19A
100
AcDbEntity
  8
0
  6
CONTINUOUS
 62
             7
100
AcDbLine
 10
-2.10138401605496
 20
-8.40000000000001
 11
-1.77789146764104
 21
-8.1285575219373
  0
LINE
  5
199
100
AcDbEntity
  8
0
  6
CONTINUOUS
 62
             7
100
AcDbLine
 10
-2.59509956203868
 20
-11.19999999999999
 11
-2.10138401605496
 21
-8.40000000000001
  0
LINE
  5
198
100
AcDbEntity
  8
0
  6
CONTINUOUS
 62
             7
100
AcDbLine
 10
-1.92381985709687
 20
-12.0
 11
-2.13090218763034
 21
-11.75320888862379
  0
LINE
  5
197
100
AcDbEntity
  8
0
  6
CONTINUOUS
 62
             7
100
AcDbLine
 10
0.51320401142897
 20
-12.0
 11
-1.92381985709687
 21
-12.0
  0
LINE
  5
196
100
AcDbEntity
  8
0
  6
CONTINUOUS
 62
             7
100
AcDbLine
 10
8.01320401142897
 20
-12.0
 11
5.57618014290313
 21
-12.0
  0
LINE
  5
195
100
AcDbEntity
  8
0
  6
CONTINUOUS
 62
             7
100
AcDbLine
 10
5.57618014290313
 20
-12.0
 11
5.36909781236966
 21
-11.75320888862379
  0
LINE
  5
194
100
AcDbEntity
  8
0
  6
CONTINUOUS
 62
             7
100
AcDbLine
 10
4.90490043796132
 20
-11.19999999999999
 11
5.39861598394504
 21
-8.40000000000001
  0
LINE
  5
193
100
AcDbEntity
  8
0
  6
CONTINUOUS
 62
             7
100
AcDbLine
 10
5.39861598394504
 20
-8.40000000000001
 11
5.72210853235896
 21
-8.1285575219373
  0
LINE
  5
192
100
AcDbEntity
  8
0
  6
CONTINUOUS
 62
             7
100
AcDbLine
 10
9.46961550602435
 20
-8.3472963553339
 11
8.98927802187143
 21
-11.07142559649131
  0
LINE
  5
191
100
AcDbEntity
  8
0
  6
CONTINUOUS
 62
             7
100
AcDbLine
 10
8.98927802187143
 20
-11.07142559649131
 11
8.62817783744873
 21
-11.45364185095389
  0
LINE
  5
190
100
AcDbEntity
  8
0
  6
CONTINUOUS
 62
             7
100
AcDbLine
 10
9.60138401605485
 20
-7.6
 11
10.09509956203857
 21
-4.80000000000001
  0
LINE
  5
18F
100
AcDbEntity
  8
0
  6
CONTINUOUS
 62
             7
100
AcDbLine
 10
10.09509956203857
 20
-4.80000000000001
 11
9.88801723150493
 21
-4.5532088886238
  0
LINE
  5
18E
100
AcDbEntity
  8
0
  6
CONTINUOUS
 62
             7
100
AcDbLine
 10
9.42381985709676
 20
-4.0
 11
6.98679598857092
 21
-4.0
  0
LINE
  5
18D
100
AcDbEntity
  8
0
  6
CONTINUOUS
 62
             7
100
AcDbLine
 10
6.98679598857092
 20
-4.0
 11
6.66330344015694
 21
-4.27144247806271
  0
LINE
  5
18C
100
AcDbEntity
  8
0
  6
CONTINUOUS
 62
             7
100
AcDbLine
 10
6.03339311449554
 20
-4.80000000000001
 11
5.53967756851182
 21
-7.6
  0
LINE
  5
18B
100
AcDbEntity
  8
0
  6
CONTINUOUS
 62
             7
100
AcDbLine
 10
5.53967756851182
 20
-7.6
 11
5.74675989904546
 21
-7.84679111137621
  0
LINE
  5
18A
100
AcDbEntity
  8
0
  6
CONTINUOUS
 62
             7
100
AcDbLine
 10
8.19960191537683
 20
-10.9428849561254
 11
8.62817783744873
 21
-11.45364185095389
  0
LINE
  5
189
100
AcDbEntity
  8
0
  6
CONTINUOUS
 62
             7
100
AcDbLine
 10
8.19960191537683
 20
-10.9428849561254
 11
8.59395142048191
 21
-8.7064177772476
  0
LINE
  5
188
100
AcDbEntity
  8
0
  6
CONTINUOUS
 62
             7
100
AcDbLine
 10
8.33669655984284
 20
-11.72855752193729
 11
7.89318413812936
 21
-11.19999999999999
  0
LINE
  5
187
100
AcDbEntity
  8
0
  6
CONTINUOUS
 62
             7
100
AcDbLine
 10
8.33669655984284
 20
-11.72855752193729
 11
8.01320401142897
 21
-12.0
  0
LINE
  5
186
100
AcDbEntity
  8
0
  6
CONTINUOUS
 62
             7
100
AcDbLine
 10
5.11198276849495
 20
-11.4467911113762
 11
5.77127144896747
 21
-10.8935822227524
  0
LINE
  5
185
100
AcDbEntity
  8
0
  6
CONTINUOUS
 62
             7
100
AcDbLine
 10
5.11198276849495
 20
-11.4467911113762
 11
4.90490043796132
 21
-11.19999999999999
  0
LINE
  5
184
100
AcDbEntity
  8
0
  6
CONTINUOUS
 62
             7
100
AcDbLine
 10
5.36909781236966
 20
-11.75320888862379
 11
6.02838649284206
 21
-11.19999999999999
  0
LINE
  5
183
100
AcDbEntity
  8
0
  6
CONTINUOUS
 62
             7
100
AcDbLine
 10
6.02838649284206
 20
-11.19999999999999
 11
7.89318413812936
 21
-11.19999999999999
  0
LINE
  5
182
100
AcDbEntity
  8
0
  6
CONTINUOUS
 62
             7
100
AcDbLine
 10
5.74675989904546
 20
-7.84679111137621
 11
6.40604857951803
 21
-7.29358222275241
  0
LINE
  5
181
100
AcDbEntity
  8
0
  6
CONTINUOUS
 62
             7
100
AcDbLine
 10
6.40604857951803
 20
-7.29358222275241
 11
6.80039808462294
 21
-5.0571150438746
  0
LINE
  5
180
100
AcDbEntity
  8
0
  6
CONTINUOUS
 62
             7
100
AcDbLine
 10
6.18646218635485
 20
-8.0
 11
6.66316362339256
 21
-7.6
  0
LINE
  5
17F
100
AcDbEntity
  8
0
  6
CONTINUOUS
 62
             7
100
AcDbLine
 10
6.18646218635485
 20
-8.0
 11
6.47203873132014
 21
-8.40000000000001
  0
LINE
  5
17E
100
AcDbEntity
  8
0
  6
CONTINUOUS
 62
             7
100
AcDbLine
 10
5.72210853235896
 20
-8.1285575219373
 11
6.16562095407244
 21
-8.6571150438746
  0
LINE
  5
17D
100
AcDbEntity
  8
0
  6
CONTINUOUS
 62
             7
100
AcDbLine
 10
6.16562095407244
 20
-8.6571150438746
 11
5.77127144896747
 21
-10.8935822227524
  0
LINE
  5
17C
100
AcDbEntity
  8
0
  6
CONTINUOUS
 62
             7
100
AcDbLine
 10
8.33683637660732
 20
-8.40000000000001
 11
8.81353781364504
 21
-8.0
  0
LINE
  5
17B
100
AcDbEntity
  8
0
  6
CONTINUOUS
 62
             7
100
AcDbLine
 10
8.33683637660732
 20
-8.40000000000001
 11
6.47203873132014
 21
-8.40000000000001
  0
LINE
  5
17A
100
AcDbEntity
  8
0
  6
CONTINUOUS
 62
             7
100
AcDbLine
 10
8.81353781364504
 20
-8.0
 11
8.52796126867975
 21
-7.6
  0
LINE
  5
179
100
AcDbEntity
  8
0
  6
CONTINUOUS
 62
             7
100
AcDbLine
 10
8.52796126867975
 20
-7.6
 11
6.66316362339256
 21
-7.6
  0
LINE
  5
178
100
AcDbEntity
  8
0
  6
CONTINUOUS
 62
             7
100
AcDbLine
 10
8.83437904592734
 20
-7.3428849561254
 11
9.27789146764093
 21
-7.87144247806271
  0
LINE
  5
177
100
AcDbEntity
  8
0
  6
CONTINUOUS
 62
             7
100
AcDbLine
 10
9.27789146764093
 20
-7.87144247806271
 11
9.60138401605485
 21
-7.6
  0
LINE
  5
176
100
AcDbEntity
  8
0
  6
CONTINUOUS
 62
             7
100
AcDbLine
 10
9.46961550602435
 20
-8.3472963553339
 11
9.26611720537204
 21
-8.14240371505631
  0
LINE
  5
175
100
AcDbEntity
  8
0
  6
CONTINUOUS
 62
             7
100
AcDbLine
 10
9.26611720537204
 20
-8.14240371505631
 11
8.59395142048191
 21
-8.7064177772476
  0
LINE
  5
174
100
AcDbEntity
  8
0
  6
CONTINUOUS
 62
             7
100
AcDbLine
 10
6.35688566290946
 20
-4.5285575219373
 11
6.80039808462294
 21
-5.0571150438746
  0
LINE
  5
173
100
AcDbEntity
  8
0
  6
CONTINUOUS
 62
             7
100
AcDbLine
 10
6.35688566290946
 20
-4.5285575219373
 11
6.03339311449554
 21
-4.80000000000001
  0
LINE
  5
172
100
AcDbEntity
  8
0
  6
CONTINUOUS
 62
             7
100
AcDbLine
 10
7.10681586187053
 20
-4.80000000000001
 11
6.66330344015694
 21
-4.27144247806271
  0
LINE
  5
171
100
AcDbEntity
  8
0
  6
CONTINUOUS
 62
             7
100
AcDbLine
 10
7.10681586187053
 20
-4.80000000000001
 11
8.97161350715783
 21
-4.80000000000001
  0
LINE
  5
170
100
AcDbEntity
  8
0
  6
CONTINUOUS
 62
             7
100
AcDbLine
 10
8.97161350715783
 20
-4.80000000000001
 11
9.63090218763023
 21
-4.24679111137621
  0
LINE
  5
16F
100
AcDbEntity
  8
0
  6
CONTINUOUS
 62
             7
100
AcDbLine
 10
9.63090218763023
 20
-4.24679111137621
 11
9.42381985709676
 21
-4.0
  0
LINE
  5
16E
100
AcDbEntity
  8
0
  6
CONTINUOUS
 62
             7
100
AcDbLine
 10
9.88801723150493
 20
-4.5532088886238
 11
9.22872855103242
 21
-5.1064177772476
  0
LINE
  5
16D
100
AcDbEntity
  8
0
  6
CONTINUOUS
 62
             7
100
AcDbLine
 10
9.22872855103242
 20
-5.1064177772476
 11
8.83437904592734
 21
-7.3428849561254
  0
LINE
  5
16C
100
AcDbEntity
  8
0
  6
CONTINUOUS
 62
             7
100
AcDbLine
 10
9.22872855103242
 20
34.8935822227524
 11
8.83437904592734
 21
32.6571150438746
  0
LINE
  5
16B
100
AcDbEntity
  8
0
  6
CONTINUOUS
 62
             7
100
AcDbLine
 10
9.88801723150493
 20
35.4467911113762
 11
9.22872855103242
 21
34.8935822227524
  0
LINE
  5
16A
100
AcDbEntity
  8
0
  6
CONTINUOUS
 62
             7
100
AcDbLine
 10
9.63090218763023
 20
35.7532088886238
 11
9.42381985709676
 21
36.0
  0
LINE
  5
169
100
AcDbEntity
  8
0
  6
CONTINUOUS
 62
             7
100
AcDbLine
 10
8.97161350715783
 20
35.2
 11
9.63090218763023
 21
35.7532088886238
  0
LINE
  5
168
100
AcDbEntity
  8
0
  6
CONTINUOUS
 62
             7
100
AcDbLine
 10
7.10681586187053
 20
35.2
 11
8.97161350715783
 21
35.2
  0
LINE
  5
167
100
AcDbEntity
  8
0
  6
CONTINUOUS
 62
             7
100
AcDbLine
 10
7.10681586187053
 20
35.2
 11
6.66330344015694
 21
35.7285575219373
  0
LINE
  5
166
100
AcDbEntity
  8
0
  6
CONTINUOUS
 62
             7
100
AcDbLine
 10
6.35688566290946
 20
35.4714424780627
 11
6.03339311449554
 21
35.2
  0
LINE
  5
165
100
AcDbEntity
  8
0
  6
CONTINUOUS
 62
             7
100
AcDbLine
 10
6.35688566290946
 20
35.4714424780627
 11
6.80039808462294
 21
34.9428849561254
  0
LINE
  5
164
100
AcDbEntity
  8
0
  6
CONTINUOUS
 62
             7
100
AcDbLine
 10
9.26611720537204
 20
31.8575962849437
 11
8.59395142048191
 21
31.29358222275241
  0
LINE
  5
163
100
AcDbEntity
  8
0
  6
CONTINUOUS
 62
             7
100
AcDbLine
 10
9.46961550602435
 20
31.6527036446661
 11
9.26611720537204
 21
31.8575962849437
  0
LINE
  5
162
100
AcDbEntity
  8
0
  6
CONTINUOUS
 62
             7
100
AcDbLine
 10
9.27789146764093
 20
32.1285575219373
 11
9.60138401605485
 21
32.40000000000001
  0
LINE
  5
161
100
AcDbEntity
  8
0
  6
CONTINUOUS
 62
             7
100
AcDbLine
 10
8.83437904592734
 20
32.6571150438746
 11
9.27789146764093
 21
32.1285575219373
  0
LINE
  5
160
100
AcDbEntity
  8
0
  6
CONTINUOUS
 62
             7
100
AcDbLine
 10
8.52796126867975
 20
32.40000000000001
 11
6.66316362339256
 21
32.40000000000001
  0
LINE
  5
15F
100
AcDbEntity
  8
0
  6
CONTINUOUS
 62
             7
100
AcDbLine
 10
8.81353781364504
 20
32.0
 11
8.52796126867975
 21
32.40000000000001
  0
LINE
  5
15E
100
AcDbEntity
  8
0
  6
CONTINUOUS
 62
             7
100
AcDbLine
 10
8.33683637660732
 20
31.59999999999999
 11
6.47203873132014
 21
31.59999999999999
  0
LINE
  5
15D
100
AcDbEntity
  8
0
  6
CONTINUOUS
 62
             7
100
AcDbLine
 10
8.33683637660732
 20
31.59999999999999
 11
8.81353781364504
 21
32.0
  0
LINE
  5
15C
100
AcDbEntity
  8
0
  6
CONTINUOUS
 62
             7
100
AcDbLine
 10
6.16562095407244
 20
31.3428849561254
 11
5.77127144896747
 21
29.1064177772476
  0
LINE
  5
15B
100
AcDbEntity
  8
0
  6
CONTINUOUS
 62
             7
100
AcDbLine
 10
5.72210853235896
 20
31.8714424780627
 11
6.16562095407244
 21
31.3428849561254
  0
LINE
  5
15A
100
AcDbEntity
  8
0
  6
CONTINUOUS
 62
             7
100
AcDbLine
 10
6.18646218635485
 20
32.0
 11
6.47203873132014
 21
31.59999999999999
  0
LINE
  5
159
100
AcDbEntity
  8
0
  6
CONTINUOUS
 62
             7
100
AcDbLine
 10
6.18646218635485
 20
32.0
 11
6.66316362339256
 21
32.40000000000001
  0
LINE
  5
158
100
AcDbEntity
  8
0
  6
CONTINUOUS
 62
             7
100
AcDbLine
 10
6.40604857951803
 20
32.70641777724759
 11
6.80039808462294
 21
34.9428849561254
  0
LINE
  5
157
100
AcDbEntity
  8
0
  6
CONTINUOUS
 62
             7
100
AcDbLine
 10
5.74675989904546
 20
32.15320888862379
 11
6.40604857951803
 21
32.70641777724759
  0
LINE
  5
156
100
AcDbEntity
  8
0
  6
CONTINUOUS
 62
             7
100
AcDbLine
 10
6.02838649284206
 20
28.8
 11
7.89318413812936
 21
28.8
  0
LINE
  5
155
100
AcDbEntity
  8
0
  6
CONTINUOUS
 62
             7
100
AcDbLine
 10
5.36909781236966
 20
28.2467911113762
 11
6.02838649284206
 21
28.8
  0
LINE
  5
154
100
AcDbEntity
  8
0
  6
CONTINUOUS
 62
             7
100
AcDbLine
 10
5.11198276849495
 20
28.5532088886238
 11
4.90490043796132
 21
28.8
  0
LINE
  5
153
100
AcDbEntity
  8
0
  6
CONTINUOUS
 62
             7
100
AcDbLine
 10
5.11198276849495
 20
28.5532088886238
 11
5.77127144896747
 21
29.1064177772476
  0
LINE
  5
152
100
AcDbEntity
  8
0
  6
CONTINUOUS
 62
             7
100
AcDbLine
 10
8.33669655984284
 20
28.2714424780627
 11
8.01320401142897
 21
28.0
  0
LINE
  5
151
100
AcDbEntity
  8
0
  6
CONTINUOUS
 62
             7
100
AcDbLine
 10
8.33669655984284
 20
28.2714424780627
 11
7.89318413812936
 21
28.8
  0
LINE
  5
150
100
AcDbEntity
  8
0
  6
CONTINUOUS
 62
             7
100
AcDbLine
 10
8.19960191537683
 20
29.0571150438746
 11
8.59395142048191
 21
31.29358222275241
  0
LINE
  5
14F
100
AcDbEntity
  8
0
  6
CONTINUOUS
 62
             7
100
AcDbLine
 10
8.19960191537683
 20
29.0571150438746
 11
8.62817783744873
 21
28.5463581490461
  0
LINE
  5
14E
100
AcDbEntity
  8
0
  6
CONTINUOUS
 62
             7
100
AcDbLine
 10
5.53967756851182
 20
32.40000000000001
 11
5.74675989904546
 21
32.15320888862379
  0
LINE
  5
14D
100
AcDbEntity
  8
0
  6
CONTINUOUS
 62
             7
100
AcDbLine
 10
6.03339311449554
 20
35.2
 11
5.53967756851182
 21
32.40000000000001
  0
LINE
  5
14C
100
AcDbEntity
  8
0
  6
CONTINUOUS
 62
             7
100
AcDbLine
 10
6.98679598857092
 20
36.0
 11
6.66330344015694
 21
35.7285575219373
  0
LINE
  5
14B
100
AcDbEntity
  8
0
  6
CONTINUOUS
 62
             7
100
AcDbLine
 10
9.42381985709676
 20
36.0
 11
6.98679598857092
 21
36.0
  0
LINE
  5
14A
100
AcDbEntity
  8
0
  6
CONTINUOUS
 62
             7
100
AcDbLine
 10
10.09509956203857
 20
35.2
 11
9.88801723150493
 21
35.4467911113762
  0
LINE
  5
149
100
AcDbEntity
  8
0
  6
CONTINUOUS
 62
             7
100
AcDbLine
 10
9.60138401605485
 20
32.40000000000001
 11
10.09509956203857
 21
35.2
  0
LINE
  5
148
100
AcDbEntity
  8
0
  6
CONTINUOUS
 62
             7
100
AcDbLine
 10
8.98927802187143
 20
28.92857440350871
 11
8.62817783744873
 21
28.5463581490461
  0
LINE
  5
147
100
AcDbEntity
  8
0
  6
CONTINUOUS
 62
             7
100
AcDbLine
 10
9.46961550602435
 20
31.6527036446661
 11
8.98927802187143
 21
28.92857440350871
  0
LINE
  5
146
100
AcDbEntity
  8
0
  6
CONTINUOUS
 62
             7
100
AcDbLine
 10
5.39861598394504
 20
31.59999999999999
 11
5.72210853235896
 21
31.8714424780627
  0
LINE
  5
145
100
AcDbEntity
  8
0
  6
CONTINUOUS
 62
             7
100
AcDbLine
 10
4.90490043796132
 20
28.8
 11
5.39861598394504
 21
31.59999999999999
  0
LINE
  5
144
100
AcDbEntity
  8
0
  6
CONTINUOUS
 62
             7
100
AcDbLine
 10
5.57618014290313
 20
28.0
 11
5.36909781236966
 21
28.2467911113762
  0
LINE
  5
143
100
AcDbEntity
  8
0
  6
CONTINUOUS
 62
             7
100
AcDbLine
 10
8.01320401142897
 20
28.0
 11
5.57618014290313
 21
28.0
  0
LINE
  5
142
100
AcDbEntity
  8
0
  6
CONTINUOUS
 62
             7
100
AcDbLine
 10
0.51320401142897
 20
28.0
 11
-1.92381985709687
 21
28.0
  0
LINE
  5
141
100
AcDbEntity
  8
0
  6
CONTINUOUS
 62
             7
100
AcDbLine
 10
-1.92381985709687
 20
28.0
 11
-2.13090218763034
 21
28.2467911113762
  0
LINE
  5
140
100
AcDbEntity
  8
0
  6
CONTINUOUS
 62
             7
100
AcDbLine
 10
-2.59509956203868
 20
28.8
 11
-2.10138401605496
 21
31.59999999999999
  0
LINE
  5
13F
100
AcDbEntity
  8
0
  6
CONTINUOUS
 62
             7
100
AcDbLine
 10
-2.10138401605496
 20
31.59999999999999
 11
-1.77789146764104
 21
31.8714424780627
  0
LINE
  5
13E
100
AcDbEntity
  8
0
  6
CONTINUOUS
 62
             7
100
AcDbLine
 10
1.96961550602435
 20
31.6527036446661
 11
1.48927802187143
 21
28.92857440350871
  0
LINE
  5
13D
100
AcDbEntity
  8
0
  6
CONTINUOUS
 62
             7
100
AcDbLine
 10
1.48927802187143
 20
28.92857440350871
 11
1.12817783744873
 21
28.5463581490461
  0
LINE
  5
13C
100
AcDbEntity
  8
0
  6
CONTINUOUS
 62
             7
100
AcDbLine
 10
2.10138401605485
 20
32.40000000000001
 11
2.59509956203857
 21
35.2
  0
LINE
  5
13B
100
AcDbEntity
  8
0
  6
CONTINUOUS
 62
             7
100
AcDbLine
 10
2.59509956203857
 20
35.2
 11
2.38801723150493
 21
35.4467911113762
  0
LINE
  5
13A
100
AcDbEntity
  8
0
  6
CONTINUOUS
 62
             7
100
AcDbLine
 10
1.92381985709676
 20
36.0
 11
-0.51320401142908
 21
36.0
  0
LINE
  5
139
100
AcDbEntity
  8
0
  6
CONTINUOUS
 62
             7
100
AcDbLine
 10
-0.51320401142908
 20
36.0
 11
-0.83669655984306
 21
35.7285575219373
  0
LINE
  5
138
100
AcDbEntity
  8
0
  6
CONTINUOUS
 62
             7
100
AcDbLine
 10
-1.46660688550446
 20
35.2
 11
-1.96032243148818
 21
32.40000000000001
  0
LINE
  5
137
100
AcDbEntity
  8
0
  6
CONTINUOUS
 62
             7
100
AcDbLine
 10
-1.96032243148818
 20
32.40000000000001
 11
-1.75324010095454
 21
32.15320888862379
  0
LINE
  5
136
100
AcDbEntity
  8
0
  6
CONTINUOUS
 62
             7
100
AcDbLine
 10
0.69960191537683
 20
29.0571150438746
 11
1.12817783744873
 21
28.5463581490461
  0
LINE
  5
135
100
AcDbEntity
  8
0
  6
CONTINUOUS
 62
             7
100
AcDbLine
 10
0.69960191537683
 20
29.0571150438746
 11
1.09395142048192
 21
31.29358222275241
  0
LINE
  5
134
100
AcDbEntity
  8
0
  6
CONTINUOUS
 62
             7
100
AcDbLine
 10
0.83669655984284
 20
28.2714424780627
 11
0.39318413812936
 21
28.8
  0
LINE
  5
133
100
AcDbEntity
  8
0
  6
CONTINUOUS
 62
             7
100
AcDbLine
 10
0.83669655984284
 20
28.2714424780627
 11
0.51320401142897
 21
28.0
  0
LINE
  5
132
100
AcDbEntity
  8
0
  6
CONTINUOUS
 62
             7
100
AcDbLine
 10
-2.38801723150505
 20
28.5532088886238
 11
-1.72872855103253
 21
29.1064177772476
  0
LINE
  5
131
100
AcDbEntity
  8
0
  6
CONTINUOUS
 62
             7
100
AcDbLine
 10
-2.38801723150505
 20
28.5532088886238
 11
-2.59509956203868
 21
28.8
  0
LINE
  5
130
100
AcDbEntity
  8
0
  6
CONTINUOUS
 62
             7
100
AcDbLine
 10
-2.13090218763034
 20
28.2467911113762
 11
-1.47161350715794
 21
28.8
  0
LINE
  5
12F
100
AcDbEntity
  8
0
  6
CONTINUOUS
 62
             7
100
AcDbLine
 10
-1.47161350715794
 20
28.8
 11
0.39318413812936
 21
28.8
  0
LINE
  5
12E
100
AcDbEntity
  8
0
  6
CONTINUOUS
 62
             7
100
AcDbLine
 10
-1.75324010095454
 20
32.15320888862379
 11
-1.09395142048197
 21
32.70641777724759
  0
LINE
  5
12D
100
AcDbEntity
  8
0
  6
CONTINUOUS
 62
             7
100
AcDbLine
 10
-1.09395142048197
 20
32.70641777724759
 11
-0.69960191537706
 21
34.9428849561254
  0
LINE
  5
12C
100
AcDbEntity
  8
0
  6
CONTINUOUS
 62
             7
100
AcDbLine
 10
-1.31353781364516
 20
32.0
 11
-0.83683637660744
 21
32.40000000000001
  0
LINE
  5
12B
100
AcDbEntity
  8
0
  6
CONTINUOUS
 62
             7
100
AcDbLine
 10
-1.31353781364516
 20
32.0
 11
-1.02796126867986
 21
31.59999999999999
  0
LINE
  5
12A
100
AcDbEntity
  8
0
  6
CONTINUOUS
 62
             7
100
AcDbLine
 10
-1.77789146764104
 20
31.8714424780627
 11
-1.33437904592756
 21
31.3428849561254
  0
LINE
  5
129
100
AcDbEntity
  8
0
  6
CONTINUOUS
 62
             7
100
AcDbLine
 10
-1.33437904592756
 20
31.3428849561254
 11
-1.72872855103253
 21
29.1064177772476
  0
LINE
  5
128
100
AcDbEntity
  8
0
  6
CONTINUOUS
 62
             7
100
AcDbLine
 10
0.83683637660732
 20
31.59999999999999
 11
1.31353781364504
 21
32.0
  0
LINE
  5
127
100
AcDbEntity
  8
0
  6
CONTINUOUS
 62
             7
100
AcDbLine
 10
0.83683637660732
 20
31.59999999999999
 11
-1.02796126867986
 21
31.59999999999999
  0
LINE
  5
126
100
AcDbEntity
  8
0
  6
CONTINUOUS
 62
             7
100
AcDbLine
 10
1.31353781364504
 20
32.0
 11
1.02796126867975
 21
32.40000000000001
  0
LINE
  5
125
100
AcDbEntity
  8
0
  6
CONTINUOUS
 62
             7
100
AcDbLine
 10
1.02796126867975
 20
32.40000000000001
 11
-0.83683637660744
 21
32.40000000000001
  0
LINE
  5
124
100
AcDbEntity
  8
0
  6
CONTINUOUS
 62
             7
100
AcDbLine
 10
1.33437904592734
 20
32.6571150438746
 11
1.77789146764093
 21
32.1285575219373
  0
LINE
  5
123
100
AcDbEntity
  8
0
  6
CONTINUOUS
 62
             7
100
AcDbLine
 10
1.77789146764093
 20
32.1285575219373
 11
2.10138401605485
 21
32.40000000000001
  0
LINE
  5
122
100
AcDbEntity
  8
0
  6
CONTINUOUS
 62
             7
100
AcDbLine
 10
1.96961550602435
 20
31.6527036446661
 11
1.76611720537204
 21
31.8575962849437
  0
LINE
  5
121
100
AcDbEntity
  8
0
  6
CONTINUOUS
 62
             7
100
AcDbLine
 10
1.76611720537204
 20
31.8575962849437
 11
1.09395142048192
 21
31.29358222275241
  0
LINE
  5
120
100
AcDbEntity
  8
0
  6
CONTINUOUS
 62
             7
100
AcDbLine
 10
-1.14311433709054
 20
35.4714424780627
 11
-0.69960191537706
 21
34.9428849561254
  0
LINE
  5
11F
100
AcDbEntity
  8
0
  6
CONTINUOUS
 62
             7
100
AcDbLine
 10
-1.14311433709054
 20
35.4714424780627
 11
-1.46660688550446
 21
35.2
  0
LINE
  5
11E
100
AcDbEntity
  8
0
  6
CONTINUOUS
 62
             7
100
AcDbLine
 10
-0.39318413812947
 20
35.2
 11
-0.83669655984306
 21
35.7285575219373
  0
LINE
  5
11D
100
AcDbEntity
  8
0
  6
CONTINUOUS
 62
             7
100
AcDbLine
 10
-0.39318413812947
 20
35.2
 11
1.47161350715783
 21
35.2
  0
LINE
  5
11C
100
AcDbEntity
  8
0
  6
CONTINUOUS
 62
             7
100
AcDbLine
 10
1.47161350715783
 20
35.2
 11
2.13090218763023
 21
35.7532088886238
  0
LINE
  5
11B
100
AcDbEntity
  8
0
  6
CONTINUOUS
 62
             7
100
AcDbLine
 10
2.13090218763023
 20
35.7532088886238
 11
1.92381985709676
 21
36.0
  0
LINE
  5
11A
100
AcDbEntity
  8
0
  6
CONTINUOUS
 62
             7
100
AcDbLine
 10
2.38801723150493
 20
35.4467911113762
 11
1.72872855103242
 21
34.8935822227524
  0
LINE
  5
119
100
AcDbEntity
  8
0
  6
CONTINUOUS
 62
             7
100
AcDbLine
 10
1.72872855103242
 20
34.8935822227524
 11
1.33437904592734
 21
32.6571150438746
  0
LINE
  5
118
100
AcDbEntity
  8
0
  6
CONTINUOUS
 62
             7
100
AcDbLine
 10
-5.77127144896758
 20
34.8935822227524
 11
-6.16562095407267
 21
32.6571150438746
  0
LINE
  5
117
100
AcDbEntity
  8
0
  6
CONTINUOUS
 62
             7
100
AcDbLine
 10
-5.11198276849507
 20
35.4467911113762
 11
-5.77127144896758
 21
34.8935822227524
  0
LINE
  5
116
100
AcDbEntity
  8
0
  6
CONTINUOUS
 62
             7
100
AcDbLine
 10
-5.36909781236977
 20
35.7532088886238
 11
-5.57618014290324
 21
36.0
  0
LINE
  5
115
100
AcDbEntity
  8
0
  6
CONTINUOUS
 62
             7
100
AcDbLine
 10
-6.02838649284217
 20
35.2
 11
-5.36909781236977
 21
35.7532088886238
  0
LINE
  5
114
100
AcDbEntity
  8
0
  6
CONTINUOUS
 62
             7
100
AcDbLine
 10
-7.89318413812947
 20
35.2
 11
-6.02838649284217
 21
35.2
  0
LINE
  5
113
100
AcDbEntity
  8
0
  6
CONTINUOUS
 62
             7
100
AcDbLine
 10
-7.89318413812947
 20
35.2
 11
-8.33669655984306
 21
35.7285575219373
  0
LINE
  5
112
100
AcDbEntity
  8
0
  6
CONTINUOUS
 62
             7
100
AcDbLine
 10
-8.64311433709054
 20
35.4714424780627
 11
-8.96660688550446
 21
35.2
  0
LINE
  5
111
100
AcDbEntity
  8
0
  6
CONTINUOUS
 62
             7
100
AcDbLine
 10
-8.64311433709054
 20
35.4714424780627
 11
-8.19960191537706
 21
34.9428849561254
  0
LINE
  5
110
100
AcDbEntity
  8
0
  6
CONTINUOUS
 62
             7
100
AcDbLine
 10
-5.73388279462796
 20
31.8575962849437
 11
-6.40604857951809
 21
31.29358222275241
  0
LINE
  5
10F
100
AcDbEntity
  8
0
  6
CONTINUOUS
 62
             7
100
AcDbLine
 10
-5.53038449397565
 20
31.6527036446661
 11
-5.73388279462796
 21
31.8575962849437
  0
LINE
  5
10E
100
AcDbEntity
  8
0
  6
CONTINUOUS
 62
             7
100
AcDbLine
 10
-5.72210853235907
 20
32.1285575219373
 11
-5.39861598394515
 21
32.40000000000001
  0
LINE
  5
10D
100
AcDbEntity
  8
0
  6
CONTINUOUS
 62
             7
100
AcDbLine
 10
-6.16562095407267
 20
32.6571150438746
 11
-5.72210853235907
 21
32.1285575219373
  0
LINE
  5
10C
100
AcDbEntity
  8
0
  6
CONTINUOUS
 62
             7
100
AcDbLine
 10
-6.47203873132025
 20
32.40000000000001
 11
-8.33683637660744
 21
32.40000000000001
  0
LINE
  5
10B
100
AcDbEntity
  8
0
  6
CONTINUOUS
 62
             7
100
AcDbLine
 10
-6.18646218635496
 20
32.0
 11
-6.47203873132025
 21
32.40000000000001
  0
LINE
  5
10A
100
AcDbEntity
  8
0
  6
CONTINUOUS
 62
             7
100
AcDbLine
 10
-6.66316362339268
 20
31.59999999999999
 11
-8.52796126867986
 21
31.59999999999999
  0
LINE
  5
109
100
AcDbEntity
  8
0
  6
CONTINUOUS
 62
             7
100
AcDbLine
 10
-6.66316362339268
 20
31.59999999999999
 11
-6.18646218635496
 21
32.0
  0
LINE
  5
108
100
AcDbEntity
  8
0
  6
CONTINUOUS
 62
             7
100
AcDbLine
 10
-8.83437904592756
 20
31.3428849561254
 11
-9.22872855103253
 21
29.1064177772476
  0
LINE
  5
107
100
AcDbEntity
  8
0
  6
CONTINUOUS
 62
             7
100
AcDbLine
 10
-9.27789146764104
 20
31.8714424780627
 11
-8.83437904592756
 21
31.3428849561254
  0
LINE
  5
106
100
AcDbEntity
  8
0
  6
CONTINUOUS
 62
             7
100
AcDbLine
 10
-8.81353781364516
 20
32.0
 11
-8.52796126867986
 21
31.59999999999999
  0
LINE
  5
105
100
AcDbEntity
  8
0
  6
CONTINUOUS
 62
             7
100
AcDbLine
 10
-8.81353781364516
 20
32.0
 11
-8.33683637660744
 21
32.40000000000001
  0
LINE
  5
104
100
AcDbEntity
  8
0
  6
CONTINUOUS
 62
             7
100
AcDbLine
 10
-8.59395142048197
 20
32.70641777724759
 11
-8.19960191537706
 21
34.9428849561254
  0
LINE
  5
103
100
AcDbEntity
  8
0
  6
CONTINUOUS
 62
             7
100
AcDbLine
 10
-9.25324010095454
 20
32.15320888862379
 11
-8.59395142048197
 21
32.70641777724759
  0
LINE
  5
102
100
AcDbEntity
  8
0
  6
CONTINUOUS
 62
             7
100
AcDbLine
 10
-8.97161350715794
 20
28.8
 11
-7.10681586187064
 21
28.8
  0
LINE
  5
101
100
AcDbEntity
  8
0
  6
CONTINUOUS
 62
             7
100
AcDbLine
 10
-9.63090218763034
 20
28.2467911113762
 11
-8.97161350715794
 21
28.8
  0
LINE
  5
100
100
AcDbEntity
  8
0
  6
CONTINUOUS
 62
             7
100
AcDbLine
 10
-9.88801723150505
 20
28.5532088886238
 11
-10.09509956203868
 21
28.8
  0
LINE
  5
FF
100
AcDbEntity
  8
0
  6
CONTINUOUS
 62
             7
100
AcDbLine
 10
-9.88801723150505
 20
28.5532088886238
 11
-9.22872855103253
 21
29.1064177772476
  0
LINE
  5
FE
100
AcDbEntity
  8
0
  6
CONTINUOUS
 62
             7
100
AcDbLine
 10
-6.66330344015716
 20
28.2714424780627
 11
-6.98679598857103
 21
28.0
  0
LINE
  5
FD
100
AcDbEntity
  8
0
  6
CONTINUOUS
 62
             7
100
AcDbLine
 10
-6.66330344015716
 20
28.2714424780627
 11
-7.10681586187064
 21
28.8
  0
LINE
  5
FC
100
AcDbEntity
  8
0
  6
CONTINUOUS
 62
             7
100
AcDbLine
 10
-6.80039808462317
 20
29.0571150438746
 11
-6.40604857951809
 21
31.29358222275241
  0
LINE
  5
FB
100
AcDbEntity
  8
0
  6
CONTINUOUS
 62
             7
100
AcDbLine
 10
-6.80039808462317
 20
29.0571150438746
 11
-6.37182216255127
 21
28.5463581490461
  0
LINE
  5
FA
100
AcDbEntity
  8
0
  6
CONTINUOUS
 62
             7
100
AcDbLine
 10
-9.46032243148818
 20
32.40000000000001
 11
-9.25324010095454
 21
32.15320888862379
  0
LINE
  5
F9
100
AcDbEntity
  8
0
  6
CONTINUOUS
 62
             7
100
AcDbLine
 10
-8.96660688550446
 20
35.2
 11
-9.46032243148818
 21
32.40000000000001
  0
LINE
  5
F8
100
AcDbEntity
  8
0
  6
CONTINUOUS
 62
             7
100
AcDbLine
 10
-8.01320401142908
 20
36.0
 11
-8.33669655984306
 21
35.7285575219373
  0
LINE
  5
F7
100
AcDbEntity
  8
0
  6
CONTINUOUS
 62
             7
100
AcDbLine
 10
-5.57618014290324
 20
36.0
 11
-8.01320401142908
 21
36.0
  0
LINE
  5
F6
100
AcDbEntity
  8
0
  6
CONTINUOUS
 62
             7
100
AcDbLine
 10
-4.90490043796143
 20
35.2
 11
-5.11198276849507
 21
35.4467911113762
  0
LINE
  5
F5
100
AcDbEntity
  8
0
  6
CONTINUOUS
 62
             7
100
AcDbLine
 10
-5.39861598394515
 20
32.40000000000001
 11
-4.90490043796143
 21
35.2
  0
LINE
  5
F4
100
AcDbEntity
  8
0
  6
CONTINUOUS
 62
             7
100
AcDbLine
 10
-6.01072197812857
 20
28.92857440350871
 11
-6.37182216255127
 21
28.5463581490461
  0
LINE
  5
F3
100
AcDbEntity
  8
0
  6
CONTINUOUS
 62
             7
100
AcDbLine
 10
-5.53038449397565
 20
31.6527036446661
 11
-6.01072197812857
 21
28.92857440350871
  0
LINE
  5
F2
100
AcDbEntity
  8
0
  6
CONTINUOUS
 62
             7
100
AcDbLine
 10
-9.60138401605496
 20
31.59999999999999
 11
-9.27789146764104
 21
31.8714424780627
  0
LINE
  5
F1
100
AcDbEntity
  8
0
  6
CONTINUOUS
 62
             7
100
AcDbLine
 10
-10.09509956203868
 20
28.8
 11
-9.60138401605496
 21
31.59999999999999
  0
LINE
  5
F0
100
AcDbEntity
  8
0
  6
CONTINUOUS
 62
             7
100
AcDbLine
 10
-9.42381985709687
 20
28.0
 11
-9.63090218763034
 21
28.2467911113762
  0
LINE
  5
EF
100
AcDbEntity
  8
0
  6
CONTINUOUS
 62
             7
100
AcDbLine
 10
-6.98679598857103
 20
28.0
 11
-9.42381985709687
 21
28.0
  0
LINE
  5
EE
100
AcDbEntity
  8
1
  6
CONTINUOUS
 62
             7
100
AcDbLine
 10
-21.6
 20
-44.1
 11
21.6
 21
-44.1
  0
LINE
  5
ED
100
AcDbEntity
  8
1
  6
CONTINUOUS
 62
             7
100
AcDbLine
 10
21.6
 20
-44.1
 11
21.6
 21
44.1
  0
LINE
  5
EC
100
AcDbEntity
  8
1
  6
CONTINUOUS
 62
             7
100
AcDbLine
 10
21.6
 20
44.1
 11
-21.6
 21
44.1
  0
LINE
  5
EB
100
AcDbEntity
  8
1
  6
CONTINUOUS
 62
             7
100
AcDbLine
 10
-21.6
 20
44.1
 11
-21.6
 21
-44.1
  0
LINE
  5
EA
100
AcDbEntity
  8
0
  6
CONTINUOUS
 62
             7
100
AcDbLine
 10
161.4861561236693
 20
38.68860009363283
 11
161.4861561236693
 21
36.91139990636697
  0
LINE
  5
E9
100
AcDbEntity
  8
0
  6
CONTINUOUS
 62
             7
100
AcDbLine
 10
161.4861561236693
 20
40.5499999999999
 11
162.22527626529379
 21
40.5499999999999
  0
LINE
  5
E8
100
AcDbEntity
  8
0
  6
CONTINUOUS
 62
             7
100
AcDbLine
 10
162.22527626529379
 20
35.0499999999999
 11
161.4861561236693
 21
35.0499999999999
  0
LINE
  5
E7
100
AcDbEntity
  8
0
  6
CONTINUOUS
 62
             7
100
AcDbLine
 10
161.0861561236693
 20
41.1999999999999
 11
160.0861561236693
 21
41.1999999999999
  0
LINE
  5
E6
100
AcDbEntity
  8
0
  6
CONTINUOUS
 62
             7
100
AcDbLine
 10
161.0861561236693
 20
34.39999999999989
 11
160.0861561236693
 21
34.39999999999989
  0
LINE
  5
E5
100
AcDbEntity
  8
0
  6
CONTINUOUS
 62
             7
100
AcDbLine
 10
161.0861561236693
 20
41.1999999999999
 11
161.4861561236693
 21
39.5499999999999
  0
LINE
  5
E4
100
AcDbEntity
  8
0
  6
CONTINUOUS
 62
             7
100
AcDbLine
 10
160.0861561236693
 20
41.1999999999999
 11
160.4861561236693
 21
39.5499999999999
  0
LINE
  5
E3
100
AcDbEntity
  8
0
  6
CONTINUOUS
 62
             7
100
AcDbLine
 10
161.0861561236693
 20
38.39999999999989
 11
161.35638081198701
 21
38.50133425811904
  0
LINE
  5
E2
100
AcDbEntity
  8
0
  6
CONTINUOUS
 62
             7
100
AcDbLine
 10
161.0861561236693
 20
38.39999999999989
 11
161.0861561236693
 21
37.1999999999999
  0
LINE
  5
E1
100
AcDbEntity
  8
0
  6
CONTINUOUS
 62
             7
100
AcDbLine
 10
161.0861561236693
 20
37.1999999999999
 11
161.35638081198701
 21
37.09866574188078
  0
LINE
  5
E0
100
AcDbEntity
  8
0
  6
CONTINUOUS
 62
             7
100
AcDbLine
 10
160.0861561236693
 20
38.39999999999989
 11
160.35638081198701
 21
38.50133425811904
  0
LINE
  5
DF
100
AcDbEntity
  8
0
  6
CONTINUOUS
 62
             7
100
AcDbLine
 10
160.0861561236693
 20
37.1999999999999
 11
160.35638081198701
 21
37.09866574188078
  0
LINE
  5
DE
100
AcDbEntity
  8
0
  6
CONTINUOUS
 62
             7
100
AcDbLine
 10
161.4861561236693
 20
41.1999999999999
 11
161.4861561236693
 21
38.68860009363283
  0
LINE
  5
DD
100
AcDbEntity
  8
0
  6
CONTINUOUS
 62
             7
100
AcDbLine
 10
161.4861561236693
 20
36.0499999999999
 11
161.0861561236693
 21
34.39999999999989
  0
LINE
  5
DC
100
AcDbEntity
  8
0
  6
CONTINUOUS
 62
             7
100
AcDbLine
 10
160.4861561236693
 20
36.0499999999999
 11
160.0861561236693
 21
34.39999999999989
  0
LINE
  5
DB
100
AcDbEntity
  8
0
  6
CONTINUOUS
 62
             7
100
AcDbLine
 10
161.4861561236693
 20
41.1999999999999
 11
161.0861561236693
 21
41.1999999999999
  0
LINE
  5
DA
100
AcDbEntity
  8
0
  6
CONTINUOUS
 62
             7
100
AcDbLine
 10
161.4861561236693
 20
34.39999999999989
 11
161.0861561236693
 21
34.39999999999989
  0
LINE
  5
D9
100
AcDbEntity
  8
0
  6
CONTINUOUS
 62
             7
100
AcDbLine
 10
160.4861561236693
 20
38.68860009363283
 11
160.4861561236693
 21
39.5499999999999
  0
LINE
  5
D8
100
AcDbEntity
  8
0
  6
CONTINUOUS
 62
             7
100
AcDbLine
 10
160.4861561236693
 20
36.0499999999999
 11
160.4861561236693
 21
36.91139990636697
  0
LINE
  5
D7
100
AcDbEntity
  8
0
  6
CONTINUOUS
 62
             7
100
AcDbLine
 10
161.4861561236693
 20
34.39999999999989
 11
161.4861561236693
 21
36.91139990636697
  0
LINE
  5
D6
100
AcDbEntity
  8
0
  6
CONTINUOUS
 62
             7
100
AcDbLine
 10
161.4861561236693
 20
30.28860009363285
 11
161.4861561236693
 21
28.51139990636699
  0
LINE
  5
D5
100
AcDbEntity
  8
0
  6
CONTINUOUS
 62
             7
100
AcDbLine
 10
161.4861561236693
 20
32.14999999999992
 11
162.22527626529379
 21
32.14999999999992
  0
LINE
  5
D4
100
AcDbEntity
  8
0
  6
CONTINUOUS
 62
             7
100
AcDbLine
 10
162.22527626529379
 20
26.64999999999992
 11
161.4861561236693
 21
26.64999999999992
  0
LINE
  5
D3
100
AcDbEntity
  8
0
  6
CONTINUOUS
 62
             7
100
AcDbLine
 10
161.0861561236693
 20
32.79999999999993
 11
160.0861561236693
 21
32.79999999999993
  0
LINE
  5
D2
100
AcDbEntity
  8
0
  6
CONTINUOUS
 62
             7
100
AcDbLine
 10
161.0861561236693
 20
25.99999999999991
 11
160.0861561236693
 21
25.99999999999991
  0
LINE
  5
D1
100
AcDbEntity
  8
0
  6
CONTINUOUS
 62
             7
100
AcDbLine
 10
161.0861561236693
 20
32.79999999999993
 11
161.4861561236693
 21
31.14999999999992
  0
LINE
  5
D0
100
AcDbEntity
  8
0
  6
CONTINUOUS
 62
             7
100
AcDbLine
 10
160.0861561236693
 20
32.79999999999993
 11
160.4861561236693
 21
31.14999999999992
  0
LINE
  5
CF
100
AcDbEntity
  8
0
  6
CONTINUOUS
 62
             7
100
AcDbLine
 10
161.0861561236693
 20
29.99999999999991
 11
161.35638081198701
 21
30.10133425811907
  0
LINE
  5
CE
100
AcDbEntity
  8
0
  6
CONTINUOUS
 62
             7
100
AcDbLine
 10
161.0861561236693
 20
29.99999999999991
 11
161.0861561236693
 21
28.79999999999993
  0
LINE
  5
CD
100
AcDbEntity
  8
0
  6
CONTINUOUS
 62
             7
100
AcDbLine
 10
161.0861561236693
 20
28.79999999999993
 11
161.35638081198701
 21
28.6986657418808
  0
LINE
  5
CC
100
AcDbEntity
  8
0
  6
CONTINUOUS
 62
             7
100
AcDbLine
 10
160.0861561236693
 20
29.99999999999991
 11
160.35638081198701
 21
30.10133425811907
  0
LINE
  5
CB
100
AcDbEntity
  8
0
  6
CONTINUOUS
 62
             7
100
AcDbLine
 10
160.0861561236693
 20
28.79999999999993
 11
160.35638081198701
 21
28.6986657418808
  0
LINE
  5
CA
100
AcDbEntity
  8
0
  6
CONTINUOUS
 62
             7
100
AcDbLine
 10
161.4861561236693
 20
32.79999999999993
 11
161.4861561236693
 21
30.28860009363285
  0
LINE
  5
C9
100
AcDbEntity
  8
0
  6
CONTINUOUS
 62
             7
100
AcDbLine
 10
161.4861561236693
 20
27.64999999999992
 11
161.0861561236693
 21
25.99999999999991
  0
LINE
  5
C8
100
AcDbEntity
  8
0
  6
CONTINUOUS
 62
             7
100
AcDbLine
 10
160.4861561236693
 20
27.64999999999992
 11
160.0861561236693
 21
25.99999999999991
  0
LINE
  5
C7
100
AcDbEntity
  8
0
  6
CONTINUOUS
 62
             7
100
AcDbLine
 10
161.4861561236693
 20
32.79999999999993
 11
161.0861561236693
 21
32.79999999999993
  0
LINE
  5
C6
100
AcDbEntity
  8
0
  6
CONTINUOUS
 62
             7
100
AcDbLine
 10
161.4861561236693
 20
25.99999999999991
 11
161.0861561236693
 21
25.99999999999991
  0
LINE
  5
C5
100
AcDbEntity
  8
0
  6
CONTINUOUS
 62
             7
100
AcDbLine
 10
160.4861561236693
 20
30.28860009363285
 11
160.4861561236693
 21
31.14999999999992
  0
LINE
  5
C4
100
AcDbEntity
  8
0
  6
CONTINUOUS
 62
             7
100
AcDbLine
 10
160.4861561236693
 20
27.64999999999992
 11
160.4861561236693
 21
28.51139990636699
  0
LINE
  5
C3
100
AcDbEntity
  8
0
  6
CONTINUOUS
 62
             7
100
AcDbLine
 10
161.4861561236693
 20
25.99999999999991
 11
161.4861561236693
 21
28.51139990636699
  0
LINE
  5
C2
100
AcDbEntity
  8
0
  6
CONTINUOUS
 62
             7
100
AcDbLine
 10
161.4861561236693
 20
21.88860009363285
 11
161.4861561236693
 21
20.11139990636701
  0
LINE
  5
C1
100
AcDbEntity
  8
0
  6
CONTINUOUS
 62
             7
100
AcDbLine
 10
161.4861561236693
 20
23.74999999999991
 11
162.22527626529379
 21
23.74999999999991
  0
LINE
  5
C0
100
AcDbEntity
  8
0
  6
CONTINUOUS
 62
             7
100
AcDbLine
 10
162.22527626529379
 20
18.24999999999994
 11
161.4861561236693
 21
18.24999999999994
  0
LINE
  5
BF
100
AcDbEntity
  8
0
  6
CONTINUOUS
 62
             7
100
AcDbLine
 10
161.0861561236693
 20
24.39999999999995
 11
160.0861561236693
 21
24.39999999999995
  0
LINE
  5
BE
100
AcDbEntity
  8
0
  6
CONTINUOUS
 62
             7
100
AcDbLine
 10
161.0861561236693
 20
17.59999999999994
 11
160.0861561236693
 21
17.59999999999994
  0
LINE
  5
BD
100
AcDbEntity
  8
0
  6
CONTINUOUS
 62
             7
100
AcDbLine
 10
161.0861561236693
 20
24.39999999999995
 11
161.4861561236693
 21
22.74999999999991
  0
LINE
  5
BC
100
AcDbEntity
  8
0
  6
CONTINUOUS
 62
             7
100
AcDbLine
 10
160.0861561236693
 20
24.39999999999995
 11
160.4861561236693
 21
22.74999999999991
  0
LINE
  5
BB
100
AcDbEntity
  8
0
  6
CONTINUOUS
 62
             7
100
AcDbLine
 10
161.0861561236693
 20
21.59999999999994
 11
161.35638081198701
 21
21.70133425811909
  0
LINE
  5
BA
100
AcDbEntity
  8
0
  6
CONTINUOUS
 62
             7
100
AcDbLine
 10
161.0861561236693
 20
21.59999999999994
 11
161.0861561236693
 21
20.39999999999995
  0
LINE
  5
B9
100
AcDbEntity
  8
0
  6
CONTINUOUS
 62
             7
100
AcDbLine
 10
161.0861561236693
 20
20.39999999999995
 11
161.35638081198701
 21
20.29866574188082
  0
LINE
  5
B8
100
AcDbEntity
  8
0
  6
CONTINUOUS
 62
             7
100
AcDbLine
 10
160.0861561236693
 20
21.59999999999994
 11
160.35638081198701
 21
21.70133425811909
  0
LINE
  5
B7
100
AcDbEntity
  8
0
  6
CONTINUOUS
 62
             7
100
AcDbLine
 10
160.0861561236693
 20
20.39999999999995
 11
160.35638081198701
 21
20.29866574188082
  0
LINE
  5
B6
100
AcDbEntity
  8
0
  6
CONTINUOUS
 62
             7
100
AcDbLine
 10
161.4861561236693
 20
24.39999999999995
 11
161.4861561236693
 21
21.88860009363285
  0
LINE
  5
B5
100
AcDbEntity
  8
0
  6
CONTINUOUS
 62
             7
100
AcDbLine
 10
161.4861561236693
 20
19.24999999999991
 11
161.0861561236693
 21
17.59999999999994
  0
LINE
  5
B4
100
AcDbEntity
  8
0
  6
CONTINUOUS
 62
             7
100
AcDbLine
 10
160.4861561236693
 20
19.24999999999991
 11
160.0861561236693
 21
17.59999999999994
  0
LINE
  5
B3
100
AcDbEntity
  8
0
  6
CONTINUOUS
 62
             7
100
AcDbLine
 10
161.4861561236693
 20
24.39999999999995
 11
161.0861561236693
 21
24.39999999999995
  0
LINE
  5
B2
100
AcDbEntity
  8
0
  6
CONTINUOUS
 62
             7
100
AcDbLine
 10
161.4861561236693
 20
17.59999999999994
 11
161.0861561236693
 21
17.59999999999994
  0
LINE
  5
B1
100
AcDbEntity
  8
0
  6
CONTINUOUS
 62
             7
100
AcDbLine
 10
160.4861561236693
 20
21.88860009363285
 11
160.4861561236693
 21
22.74999999999991
  0
LINE
  5
B0
100
AcDbEntity
  8
0
  6
CONTINUOUS
 62
             7
100
AcDbLine
 10
160.4861561236693
 20
19.24999999999991
 11
160.4861561236693
 21
20.11139990636701
  0
LINE
  5
AF
100
AcDbEntity
  8
0
  6
CONTINUOUS
 62
             7
100
AcDbLine
 10
161.4861561236693
 20
17.59999999999994
 11
161.4861561236693
 21
20.11139990636701
  0
LINE
  5
AE
100
AcDbEntity
  8
0
  6
CONTINUOUS
 62
             7
100
AcDbLine
 10
161.4861561236693
 20
13.48860009363287
 11
161.4861561236693
 21
11.71139990636703
  0
LINE
  5
AD
100
AcDbEntity
  8
0
  6
CONTINUOUS
 62
             7
100
AcDbLine
 10
161.4861561236693
 20
15.34999999999993
 11
162.22527626529379
 21
15.34999999999993
  0
LINE
  5
AC
100
AcDbEntity
  8
0
  6
CONTINUOUS
 62
             7
100
AcDbLine
 10
162.22527626529379
 20
9.84999999999994
 11
161.4861561236693
 21
9.84999999999994
  0
LINE
  5
AB
100
AcDbEntity
  8
0
  6
CONTINUOUS
 62
             7
100
AcDbLine
 10
161.0861561236693
 20
15.99999999999997
 11
160.0861561236693
 21
15.99999999999997
  0
LINE
  5
AA
100
AcDbEntity
  8
0
  6
CONTINUOUS
 62
             7
100
AcDbLine
 10
161.0861561236693
 20
9.19999999999996
 11
160.0861561236693
 21
9.19999999999996
  0
LINE
  5
A9
100
AcDbEntity
  8
0
  6
CONTINUOUS
 62
             7
100
AcDbLine
 10
161.0861561236693
 20
15.99999999999997
 11
161.4861561236693
 21
14.34999999999993
  0
LINE
  5
A8
100
AcDbEntity
  8
0
  6
CONTINUOUS
 62
             7
100
AcDbLine
 10
160.0861561236693
 20
15.99999999999997
 11
160.4861561236693
 21
14.34999999999993
  0
LINE
  5
A7
100
AcDbEntity
  8
0
  6
CONTINUOUS
 62
             7
100
AcDbLine
 10
161.0861561236693
 20
13.19999999999996
 11
161.35638081198701
 21
13.30133425811911
  0
LINE
  5
A6
100
AcDbEntity
  8
0
  6
CONTINUOUS
 62
             7
100
AcDbLine
 10
161.0861561236693
 20
13.19999999999996
 11
161.0861561236693
 21
11.99999999999994
  0
LINE
  5
A5
100
AcDbEntity
  8
0
  6
CONTINUOUS
 62
             7
100
AcDbLine
 10
161.0861561236693
 20
11.99999999999994
 11
161.35638081198701
 21
11.89866574188082
  0
LINE
  5
A4
100
AcDbEntity
  8
0
  6
CONTINUOUS
 62
             7
100
AcDbLine
 10
160.0861561236693
 20
13.19999999999996
 11
160.35638081198701
 21
13.30133425811911
  0
LINE
  5
A3
100
AcDbEntity
  8
0
  6
CONTINUOUS
 62
             7
100
AcDbLine
 10
160.0861561236693
 20
11.99999999999994
 11
160.35638081198701
 21
11.89866574188082
  0
LINE
  5
A2
100
AcDbEntity
  8
0
  6
CONTINUOUS
 62
             7
100
AcDbLine
 10
161.4861561236693
 20
15.99999999999997
 11
161.4861561236693
 21
13.48860009363287
  0
LINE
  5
A1
100
AcDbEntity
  8
0
  6
CONTINUOUS
 62
             7
100
AcDbLine
 10
161.4861561236693
 20
10.84999999999996
 11
161.0861561236693
 21
9.19999999999996
  0
LINE
  5
A0
100
AcDbEntity
  8
0
  6
CONTINUOUS
 62
             7
100
AcDbLine
 10
160.4861561236693
 20
10.84999999999996
 11
160.0861561236693
 21
9.19999999999996
  0
LINE
  5
9F
100
AcDbEntity
  8
0
  6
CONTINUOUS
 62
             7
100
AcDbLine
 10
161.4861561236693
 20
15.99999999999997
 11
161.0861561236693
 21
15.99999999999997
  0
LINE
  5
9E
100
AcDbEntity
  8
0
  6
CONTINUOUS
 62
             7
100
AcDbLine
 10
161.4861561236693
 20
9.19999999999996
 11
161.0861561236693
 21
9.19999999999996
  0
LINE
  5
9D
100
AcDbEntity
  8
0
  6
CONTINUOUS
 62
             7
100
AcDbLine
 10
160.4861561236693
 20
13.48860009363287
 11
160.4861561236693
 21
14.34999999999993
  0
LINE
  5
9C
100
AcDbEntity
  8
0
  6
CONTINUOUS
 62
             7
100
AcDbLine
 10
160.4861561236693
 20
10.84999999999996
 11
160.4861561236693
 21
11.71139990636703
  0
LINE
  5
9B
100
AcDbEntity
  8
0
  6
CONTINUOUS
 62
             7
100
AcDbLine
 10
161.4861561236693
 20
9.19999999999996
 11
161.4861561236693
 21
11.71139990636703
  0
LINE
  5
9A
100
AcDbEntity
  8
0
  6
CONTINUOUS
 62
             7
100
AcDbLine
 10
161.4861561236693
 20
-36.911399906367
 11
161.4861561236693
 21
-38.68860009363283
  0
LINE
  5
99
100
AcDbEntity
  8
0
  6
CONTINUOUS
 62
             7
100
AcDbLine
 10
161.4861561236693
 20
-35.0499999999999
 11
162.22527626529379
 21
-35.0499999999999
  0
LINE
  5
98
100
AcDbEntity
  8
0
  6
CONTINUOUS
 62
             7
100
AcDbLine
 10
162.22527626529379
 20
-40.5499999999999
 11
161.4861561236693
 21
-40.5499999999999
  0
LINE
  5
97
100
AcDbEntity
  8
0
  6
CONTINUOUS
 62
             7
100
AcDbLine
 10
161.0861561236693
 20
-34.39999999999992
 11
160.0861561236693
 21
-34.39999999999992
  0
LINE
  5
96
100
AcDbEntity
  8
0
  6
CONTINUOUS
 62
             7
100
AcDbLine
 10
161.0861561236693
 20
-41.19999999999993
 11
160.0861561236693
 21
-41.19999999999993
  0
LINE
  5
95
100
AcDbEntity
  8
0
  6
CONTINUOUS
 62
             7
100
AcDbLine
 10
161.0861561236693
 20
-34.39999999999992
 11
161.4861561236693
 21
-36.0499999999999
  0
LINE
  5
94
100
AcDbEntity
  8
0
  6
CONTINUOUS
 62
             7
100
AcDbLine
 10
160.0861561236693
 20
-34.39999999999992
 11
160.4861561236693
 21
-36.0499999999999
  0
LINE
  5
93
100
AcDbEntity
  8
0
  6
CONTINUOUS
 62
             7
100
AcDbLine
 10
161.0861561236693
 20
-37.19999999999993
 11
161.35638081198701
 21
-37.09866574188078
  0
LINE
  5
92
100
AcDbEntity
  8
0
  6
CONTINUOUS
 62
             7
100
AcDbLine
 10
161.0861561236693
 20
-37.19999999999993
 11
161.0861561236693
 21
-38.39999999999992
  0
LINE
  5
91
100
AcDbEntity
  8
0
  6
CONTINUOUS
 62
             7
100
AcDbLine
 10
161.0861561236693
 20
-38.39999999999992
 11
161.35638081198701
 21
-38.50133425811904
  0
LINE
  5
90
100
AcDbEntity
  8
0
  6
CONTINUOUS
 62
             7
100
AcDbLine
 10
160.0861561236693
 20
-37.19999999999993
 11
160.35638081198701
 21
-37.09866574188078
  0
LINE
  5
8F
100
AcDbEntity
  8
0
  6
CONTINUOUS
 62
             7
100
AcDbLine
 10
160.0861561236693
 20
-38.39999999999992
 11
160.35638081198701
 21
-38.50133425811904
  0
LINE
  5
8E
100
AcDbEntity
  8
0
  6
CONTINUOUS
 62
             7
100
AcDbLine
 10
161.4861561236693
 20
-34.39999999999992
 11
161.4861561236693
 21
-36.911399906367
  0
LINE
  5
8D
100
AcDbEntity
  8
0
  6
CONTINUOUS
 62
             7
100
AcDbLine
 10
161.4861561236693
 20
-39.5499999999999
 11
161.0861561236693
 21
-41.19999999999993
  0
LINE
  5
8C
100
AcDbEntity
  8
0
  6
CONTINUOUS
 62
             7
100
AcDbLine
 10
160.4861561236693
 20
-39.5499999999999
 11
160.0861561236693
 21
-41.19999999999993
  0
LINE
  5
8B
100
AcDbEntity
  8
0
  6
CONTINUOUS
 62
             7
100
AcDbLine
 10
161.4861561236693
 20
-34.39999999999992
 11
161.0861561236693
 21
-34.39999999999992
  0
LINE
  5
8A
100
AcDbEntity
  8
0
  6
CONTINUOUS
 62
             7
100
AcDbLine
 10
161.4861561236693
 20
-41.19999999999993
 11
161.0861561236693
 21
-41.19999999999993
  0
LINE
  5
89
100
AcDbEntity
  8
0
  6
CONTINUOUS
 62
             7
100
AcDbLine
 10
160.4861561236693
 20
-36.911399906367
 11
160.4861561236693
 21
-36.0499999999999
  0
LINE
  5
88
100
AcDbEntity
  8
0
  6
CONTINUOUS
 62
             7
100
AcDbLine
 10
160.4861561236693
 20
-39.5499999999999
 11
160.4861561236693
 21
-38.68860009363283
  0
LINE
  5
87
100
AcDbEntity
  8
0
  6
CONTINUOUS
 62
             7
100
AcDbLine
 10
161.4861561236693
 20
-41.19999999999993
 11
161.4861561236693
 21
-38.68860009363283
  0
LINE
  5
86
100
AcDbEntity
  8
1
  6
CONTINUOUS
 62
             7
100
AcDbLine
 10
69.49999999999999
 20
-45.5
 11
69.49999999999999
 21
-48.5
  0
LINE
  5
85
100
AcDbEntity
  8
1
  6
CONTINUOUS
 62
             7
100
AcDbLine
 10
160.40000000000001
 20
-46.09999999999997
 11
160.40000000000001
 21
-45.5
  0
LINE
  5
84
100
AcDbEntity
  8
1
  6
CONTINUOUS
 62
             7
100
AcDbLine
 10
160.90000000000001
 20
-47.49999999999999
 11
160.90000000000001
 21
-47.99999999999999
  0
LINE
  5
83
100
AcDbEntity
  8
1
  6
CONTINUOUS
 62
             7
100
AcDbLine
 10
160.40000000000001
 20
-48.5
 11
160.40000000000001
 21
-47.99999999999999
  0
LINE
  5
82
100
AcDbEntity
  8
1
  6
CONTINUOUS
 62
             7
100
AcDbLine
 10
160.90000000000001
 20
-47.99999999999999
 11
160.40000000000001
 21
-47.99999999999999
  0
LINE
  5
81
100
AcDbEntity
  8
1
  6
CONTINUOUS
 62
             7
100
AcDbLine
 10
160.90000000000001
 20
-47.99999999999999
 11
160.90000000000001
 21
-49.99999999999999
  0
LINE
  5
80
100
AcDbEntity
  8
1
  6
CONTINUOUS
 62
             7
100
AcDbLine
 10
154.80000000000001
 20
-48.5
 11
154.80000000000001
 21
-49.99999999999999
  0
LINE
  5
7F
100
AcDbEntity
  8
1
  6
CONTINUOUS
 62
             7
100
AcDbLine
 10
154.80000000000001
 20
-48.5
 11
154.80000000000001
 21
-49.99999999999999
  0
LINE
  5
7E
100
AcDbEntity
  8
1
  6
CONTINUOUS
 62
             7
100
AcDbLine
 10
160.90000000000001
 20
-49.99999999999999
 11
154.80000000000001
 21
-49.99999999999999
  0
LINE
  5
7D
100
AcDbEntity
  8
1
  6
CONTINUOUS
 62
             7
100
AcDbLine
 10
153.59999999999999
 20
-48.5
 11
153.59999999999999
 21
-49.99999999999999
  0
LINE
  5
7C
100
AcDbEntity
  8
1
  6
CONTINUOUS
 62
             7
100
AcDbLine
 10
141.5
 20
-48.5
 11
141.5
 21
-50.0
  0
LINE
  5
7B
100
AcDbEntity
  8
1
  6
CONTINUOUS
 62
             7
100
AcDbLine
 10
153.59999999999999
 20
-49.99999999999999
 11
141.5
 21
-50.0
  0
LINE
  5
7A
100
AcDbEntity
  8
1
  6
CONTINUOUS
 62
             7
100
AcDbLine
 10
160.40000000000001
 20
-47.99999999999999
 11
160.40000000000001
 21
-47.49999999999999
  0
LINE
  5
79
100
AcDbEntity
  8
1
  6
CONTINUOUS
 62
             7
100
AcDbLine
 10
160.90000000000001
 20
-46.09999999999998
 11
160.90000000000001
 21
-47.49999999999999
  0
LINE
  5
78
100
AcDbEntity
  8
1
  6
CONTINUOUS
 62
             7
100
AcDbLine
 10
160.40000000000001
 20
-47.49999999999999
 11
160.90000000000001
 21
-47.49999999999999
  0
LINE
  5
77
100
AcDbEntity
  8
1
  6
CONTINUOUS
 62
             7
100
AcDbLine
 10
131.19999999999999
 20
-48.5
 11
141.5
 21
-48.5
  0
LINE
  5
76
100
AcDbEntity
  8
1
  6
CONTINUOUS
 62
             7
100
AcDbLine
 10
141.5
 20
-50.0
 11
141.5
 21
-50.5
  0
LINE
  5
75
100
AcDbEntity
  8
1
  6
CONTINUOUS
 62
             7
100
AcDbLine
 10
153.59999999999999
 20
-49.99999999999999
 11
153.59999999999999
 21
-50.49999999999999
  0
LINE
  5
74
100
AcDbEntity
  8
1
  6
CONTINUOUS
 62
             7
100
AcDbLine
 10
141.5
 20
-50.5
 11
153.59999999999999
 21
-50.49999999999999
  0
LINE
  5
73
100
AcDbEntity
  8
1
  6
CONTINUOUS
 62
             7
100
AcDbLine
 10
154.80000000000001
 20
-49.99999999999999
 11
154.80000000000001
 21
-50.49999999999999
  0
LINE
  5
72
100
AcDbEntity
  8
1
  6
CONTINUOUS
 62
             7
100
AcDbLine
 10
154.80000000000001
 20
-49.99999999999999
 11
154.80000000000001
 21
-50.49999999999999
  0
LINE
  5
71
100
AcDbEntity
  8
1
  6
CONTINUOUS
 62
             7
100
AcDbLine
 10
160.90000000000001
 20
-49.99999999999999
 11
160.90000000000001
 21
-50.49999999999999
  0
LINE
  5
70
100
AcDbEntity
  8
1
  6
CONTINUOUS
 62
             7
100
AcDbLine
 10
154.80000000000001
 20
-50.49999999999999
 11
160.90000000000001
 21
-50.49999999999999
  0
LINE
  5
6F
100
AcDbEntity
  8
1
  6
CONTINUOUS
 62
             7
100
AcDbLine
 10
161.5
 20
-52.5
 11
161.5
 21
-51.74999999999999
  0
LINE
  5
6E
100
AcDbEntity
  8
1
  6
CONTINUOUS
 62
             7
100
AcDbLine
 10
161.5
 20
-51.74999999999999
 11
162.5
 21
-51.75
  0
LINE
  5
6D
100
AcDbEntity
  8
1
  6
CONTINUOUS
 62
             7
100
AcDbLine
 10
163.5
 20
-50.75
 11
163.5
 21
-47.25
  0
LINE
  5
6C
100
AcDbEntity
  8
1
  6
CONTINUOUS
 62
             7
100
AcDbLine
 10
161.5
 20
-51.74999999999999
 11
161.5
 21
-46.25
  0
LINE
  5
6B
100
AcDbEntity
  8
1
  6
CONTINUOUS
 62
             7
100
AcDbLine
 10
162.5
 20
-46.25
 11
161.5
 21
-46.25
  0
LINE
  5
6A
100
AcDbEntity
  8
1
  6
CONTINUOUS
 62
             7
100
AcDbLine
 10
141.5
 20
-48.5
 11
153.59999999999999
 21
-48.5
  0
LINE
  5
69
100
AcDbEntity
  8
1
  6
CONTINUOUS
 62
             7
100
AcDbLine
 10
153.59999999999999
 20
-50.49999999999999
 11
153.59999999999999
 21
-51.89999999999998
  0
LINE
  5
68
100
AcDbEntity
  8
1
  6
CONTINUOUS
 62
             7
100
AcDbLine
 10
153.59999999999999
 20
-48.5
 11
154.80000000000001
 21
-48.5
  0
LINE
  5
67
100
AcDbEntity
  8
1
  6
CONTINUOUS
 62
             7
100
AcDbLine
 10
154.80000000000001
 20
-50.49999999999999
 11
154.80000000000001
 21
-51.89999999999998
  0
LINE
  5
66
100
AcDbEntity
  8
1
  6
CONTINUOUS
 62
             7
100
AcDbLine
 10
153.59999999999999
 20
-51.89999999999998
 11
130.0
 21
-51.89999999999998
  0
LINE
  5
65
100
AcDbEntity
  8
1
  6
CONTINUOUS
 62
             7
100
AcDbLine
 10
130.0
 20
-48.5
 11
131.19999999999999
 21
-48.5
  0
LINE
  5
64
100
AcDbEntity
  8
1
  6
CONTINUOUS
 62
             7
100
AcDbLine
 10
130.0
 20
-51.89999999999998
 11
130.0
 21
-48.5
  0
LINE
  5
63
100
AcDbEntity
  8
1
  6
CONTINUOUS
 62
             7
100
AcDbLine
 10
154.80000000000001
 20
-48.5
 11
156.0
 21
-48.5
  0
LINE
  5
62
100
AcDbEntity
  8
1
  6
CONTINUOUS
 62
             7
100
AcDbLine
 10
154.80000000000001
 20
-50.49999999999999
 11
154.80000000000001
 21
-51.89999999999998
  0
LINE
  5
61
100
AcDbEntity
  8
1
  6
CONTINUOUS
 62
             7
100
AcDbLine
 10
153.59999999999999
 20
-53.09999999999998
 11
130.0
 21
-53.09999999999998
  0
LINE
  5
60
100
AcDbEntity
  8
1
  6
CONTINUOUS
 62
             7
100
AcDbLine
 10
69.49999999999999
 20
-48.5
 11
130.0
 21
-48.5
  0
LINE
  5
5F
100
AcDbEntity
  8
1
  6
CONTINUOUS
 62
             7
100
AcDbLine
 10
128.80000000000001
 20
-51.89999999999998
 11
128.80000000000001
 21
-48.5
  0
LINE
  5
5E
100
AcDbEntity
  8
1
  6
CONTINUOUS
 62
             7
100
AcDbLine
 10
156.0
 20
-48.5
 11
160.40000000000001
 21
-48.5
  0
LINE
  5
5D
100
AcDbEntity
  8
1
  6
CONTINUOUS
 62
             7
100
AcDbLine
 10
160.40000000000001
 20
-47.49999999999999
 11
160.40000000000001
 21
-46.09999999999997
  0
LINE
  5
5C
100
AcDbEntity
  8
1
  6
CONTINUOUS
 62
             7
100
AcDbLine
 10
160.40000000000001
 20
-46.09999999999997
 11
160.90000000000001
 21
-46.09999999999998
  0
LINE
  5
5B
100
AcDbEntity
  8
1
  6
CONTINUOUS
 62
             7
100
AcDbLine
 10
160.90000000000001
 20
-50.49999999999999
 11
160.90000000000001
 21
-52.5
  0
LINE
  5
5A
100
AcDbEntity
  8
1
  6
CONTINUOUS
 62
             7
100
AcDbLine
 10
160.90000000000001
 20
-52.5
 11
161.5
 21
-52.5
  0
LINE
  5
59
100
AcDbEntity
  8
1
  6
CONTINUOUS
 62
             7
100
AcDbLine
 10
161.5
 20
-46.25
 11
161.5
 21
-46.09999999999997
  0
LINE
  5
58
100
AcDbEntity
  8
1
  6
CONTINUOUS
 62
             7
100
AcDbLine
 10
160.90000000000001
 20
48.0
 11
160.90000000000001
 21
47.5
  0
LINE
  5
57
100
AcDbEntity
  8
1
  6
CONTINUOUS
 62
             7
100
AcDbLine
 10
160.40000000000001
 20
48.0
 11
160.40000000000001
 21
48.50000000000001
  0
LINE
  5
56
100
AcDbEntity
  8
1
  6
CONTINUOUS
 62
             7
100
AcDbLine
 10
160.40000000000001
 20
48.0
 11
160.90000000000001
 21
48.0
  0
LINE
  5
55
100
AcDbEntity
  8
1
  6
CONTINUOUS
 62
             7
100
AcDbLine
 10
160.90000000000001
 20
50.0
 11
160.90000000000001
 21
48.0
  0
LINE
  5
54
100
AcDbEntity
  8
1
  6
CONTINUOUS
 62
             7
100
AcDbLine
 10
154.80000000000001
 20
50.0
 11
154.80000000000001
 21
48.50000000000001
  0
LINE
  5
53
100
AcDbEntity
  8
1
  6
CONTINUOUS
 62
             7
100
AcDbLine
 10
154.80000000000001
 20
50.0
 11
154.80000000000001
 21
48.50000000000001
  0
LINE
  5
52
100
AcDbEntity
  8
1
  6
CONTINUOUS
 62
             7
100
AcDbLine
 10
154.80000000000001
 20
50.0
 11
160.90000000000001
 21
50.0
  0
LINE
  5
51
100
AcDbEntity
  8
1
  6
CONTINUOUS
 62
             7
100
AcDbLine
 10
153.59999999999999
 20
50.0
 11
153.59999999999999
 21
48.50000000000001
  0
LINE
  5
50
100
AcDbEntity
  8
1
  6
CONTINUOUS
 62
             7
100
AcDbLine
 10
141.5
 20
50.00000000000001
 11
141.5
 21
48.50000000000001
  0
LINE
  5
4F
100
AcDbEntity
  8
1
  6
CONTINUOUS
 62
             7
100
AcDbLine
 10
141.5
 20
50.00000000000001
 11
153.59999999999999
 21
50.0
  0
LINE
  5
4E
100
AcDbEntity
  8
1
  6
CONTINUOUS
 62
             7
100
AcDbLine
 10
160.40000000000001
 20
47.5
 11
160.40000000000001
 21
48.0
  0
LINE
  5
4D
100
AcDbEntity
  8
1
  6
CONTINUOUS
 62
             7
100
AcDbLine
 10
160.90000000000001
 20
47.5
 11
160.90000000000001
 21
46.09999999999999
  0
LINE
  5
4C
100
AcDbEntity
  8
1
  6
CONTINUOUS
 62
             7
100
AcDbLine
 10
160.90000000000001
 20
47.5
 11
160.40000000000001
 21
47.5
  0
LINE
  5
4B
100
AcDbEntity
  8
1
  6
CONTINUOUS
 62
             7
100
AcDbLine
 10
141.5
 20
48.50000000000001
 11
131.19999999999999
 21
48.50000000000001
  0
LINE
  5
4A
100
AcDbEntity
  8
1
  6
CONTINUOUS
 62
             7
100
AcDbLine
 10
141.5
 20
50.50000000000001
 11
141.5
 21
50.00000000000001
  0
LINE
  5
49
100
AcDbEntity
  8
1
  6
CONTINUOUS
 62
             7
100
AcDbLine
 10
153.59999999999999
 20
50.5
 11
153.59999999999999
 21
50.0
  0
LINE
  5
48
100
AcDbEntity
  8
1
  6
CONTINUOUS
 62
             7
100
AcDbLine
 10
153.59999999999999
 20
50.5
 11
141.5
 21
50.50000000000001
  0
LINE
  5
47
100
AcDbEntity
  8
1
  6
CONTINUOUS
 62
             7
100
AcDbLine
 10
154.80000000000001
 20
50.5
 11
154.80000000000001
 21
50.0
  0
LINE
  5
46
100
AcDbEntity
  8
1
  6
CONTINUOUS
 62
             7
100
AcDbLine
 10
154.80000000000001
 20
50.5
 11
154.80000000000001
 21
50.0
  0
LINE
  5
45
100
AcDbEntity
  8
1
  6
CONTINUOUS
 62
             7
100
AcDbLine
 10
160.90000000000001
 20
50.5
 11
160.90000000000001
 21
50.0
  0
LINE
  5
44
100
AcDbEntity
  8
1
  6
CONTINUOUS
 62
             7
100
AcDbLine
 10
160.90000000000001
 20
50.5
 11
154.80000000000001
 21
50.5
  0
LINE
  5
43
100
AcDbEntity
  8
1
  6
CONTINUOUS
 62
             7
100
AcDbLine
 10
161.5
 20
51.75
 11
161.5
 21
52.50000000000001
  0
LINE
  5
42
100
AcDbEntity
  8
1
  6
CONTINUOUS
 62
             7
100
AcDbLine
 10
162.5
 20
51.75000000000001
 11
161.5
 21
51.75
  0
LINE
  5
41
100
AcDbEntity
  8
1
  6
CONTINUOUS
 62
             7
100
AcDbLine
 10
163.5
 20
47.25000000000001
 11
163.5
 21
50.75000000000001
  0
LINE
  5
40
100
AcDbEntity
  8
1
  6
CONTINUOUS
 62
             7
100
AcDbLine
 10
161.5
 20
46.25000000000001
 11
161.5
 21
51.75
  0
LINE
  5
3F
100
AcDbEntity
  8
1
  6
CONTINUOUS
 62
             7
100
AcDbLine
 10
161.5
 20
46.25000000000001
 11
162.5
 21
46.25000000000001
  0
LINE
  5
3E
100
AcDbEntity
  8
1
  6
CONTINUOUS
 62
             7
100
AcDbLine
 10
153.59999999999999
 20
48.50000000000001
 11
141.5
 21
48.50000000000001
  0
LINE
  5
3D
100
AcDbEntity
  8
1
  6
CONTINUOUS
 62
             7
100
AcDbLine
 10
153.59999999999999
 20
51.90000000000001
 11
153.59999999999999
 21
50.5
  0
LINE
  5
3C
100
AcDbEntity
  8
1
  6
CONTINUOUS
 62
             7
100
AcDbLine
 10
154.80000000000001
 20
48.50000000000001
 11
153.59999999999999
 21
48.50000000000001
  0
LINE
  5
3B
100
AcDbEntity
  8
1
  6
CONTINUOUS
 62
             7
100
AcDbLine
 10
154.80000000000001
 20
51.90000000000001
 11
154.80000000000001
 21
50.5
  0
LINE
  5
3A
100
AcDbEntity
  8
1
  6
CONTINUOUS
 62
             7
100
AcDbLine
 10
130.0
 20
51.90000000000001
 11
153.59999999999999
 21
51.90000000000001
  0
LINE
  5
39
100
AcDbEntity
  8
1
  6
CONTINUOUS
 62
             7
100
AcDbLine
 10
131.19999999999999
 20
48.50000000000001
 11
130.0
 21
48.50000000000001
  0
LINE
  5
38
100
AcDbEntity
  8
1
  6
CONTINUOUS
 62
             7
100
AcDbLine
 10
130.0
 20
48.50000000000001
 11
130.0
 21
51.90000000000001
  0
LINE
  5
37
100
AcDbEntity
  8
1
  6
CONTINUOUS
 62
             7
100
AcDbLine
 10
156.0
 20
48.50000000000001
 11
154.80000000000001
 21
48.50000000000001
  0
LINE
  5
36
100
AcDbEntity
  8
1
  6
CONTINUOUS
 62
             7
100
AcDbLine
 10
154.80000000000001
 20
51.90000000000001
 11
154.80000000000001
 21
50.5
  0
LINE
  5
35
100
AcDbEntity
  8
1
  6
CONTINUOUS
 62
             7
100
AcDbLine
 10
130.0
 20
53.10000000000001
 11
153.59999999999999
 21
53.10000000000001
  0
LINE
  5
34
100
AcDbEntity
  8
1
  6
CONTINUOUS
 62
             7
100
AcDbLine
 10
130.0
 20
48.50000000000001
 11
69.49999999999999
 21
48.50000000000001
  0
LINE
  5
33
100
AcDbEntity
  8
1
  6
CONTINUOUS
 62
             7
100
AcDbLine
 10
128.80000000000001
 20
48.50000000000001
 11
128.80000000000001
 21
51.90000000000001
  0
LINE
  5
32
100
AcDbEntity
  8
1
  6
CONTINUOUS
 62
             7
100
AcDbLine
 10
69.49999999999999
 20
48.50000000000001
 11
69.49999999999999
 21
45.50000000000001
  0
LINE
  5
31
100
AcDbEntity
  8
1
  6
CONTINUOUS
 62
             7
100
AcDbLine
 10
160.40000000000001
 20
48.50000000000001
 11
156.0
 21
48.50000000000001
  0
LINE
  5
30
100
AcDbEntity
  8
1
  6
CONTINUOUS
 62
             7
100
AcDbLine
 10
160.40000000000001
 20
46.09999999999999
 11
160.40000000000001
 21
47.5
  0
LINE
  5
2F
100
AcDbEntity
  8
1
  6
CONTINUOUS
 62
             7
100
AcDbLine
 10
160.40000000000001
 20
45.50000000000001
 11
160.40000000000001
 21
46.09999999999999
  0
LINE
  5
2E
100
AcDbEntity
  8
1
  6
CONTINUOUS
 62
             7
100
AcDbLine
 10
160.90000000000001
 20
46.09999999999999
 11
160.40000000000001
 21
46.09999999999999
  0
LINE
  5
2D
100
AcDbEntity
  8
1
  6
CONTINUOUS
 62
             7
100
AcDbLine
 10
160.90000000000001
 20
52.50000000000001
 11
160.90000000000001
 21
50.5
  0
LINE
  5
2C
100
AcDbEntity
  8
1
  6
CONTINUOUS
 62
             7
100
AcDbLine
 10
161.5
 20
52.50000000000001
 11
160.90000000000001
 21
52.50000000000001
  0
LINE
  5
2B
100
AcDbEntity
  8
1
  6
CONTINUOUS
 62
             7
100
AcDbLine
 10
161.5
 20
46.09999999999999
 11
161.5
 21
46.25000000000001
  0
LINE
  5
2A
100
AcDbEntity
  8
1
  6
CONTINUOUS
 62
             7
100
AcDbLine
 10
160.90000000000001
 20
45.50000000000001
 11
160.40000000000001
 21
45.50000000000001
  0
ENDBLK
  5
44B
100
AcDbEntity
  8
0
100
AcDbBlockEnd
  0
ENDSEC
  0
SECTION
  2
ENTITIES
  0
INSERT
  5
29
100
AcDbEntity
  8
0
100
AcDbBlockReference
  2
TOP__1
 10
-25.94220542612711
 20
-7.5850307130167
  0
ENDSEC
  0
SECTION
  2
OBJECTS
  0
DICTIONARY
  5
19
100
AcDbDictionary
  3
ACAD_GROUP
350
1A
  3
ACAD_MLINESTYLE
350
1B
  0
DICTIONARY
  5
1A
102
{ACAD_REACTORS
330
19
102
}
100
AcDbDictionary
  0
DICTIONARY
  5
1B
102
{ACAD_REACTORS
330
19
102
}
100
AcDbDictionary
  3
STANDARD
350
1C
  0
MLINESTYLE
  5
1C
102
{ACAD_REACTORS
330
1B
102
}
100
AcDbMlineStyle
  2
STANDARD
 70
             0
  3

 62
             0
 51
90.0
 52
90.0
 71
             2
 49
0.5
 62
           256
  6
BYLAYER
 49
-0.5
 62
           256
  6
BYLAYER
  0
ENDSEC
  0
EOF
