  0
SECTION
  2
HEADER
  9
$ACADVER
  1
AC1014
  9
$ACADMAINTVER
 70
             0
  9
$DWGCODEPAGE
  3
ANSI_1252
  9
$INSBASE
 10
0.0
 20
0.0
 30
0.0
  9
$EXTMIN
 10
1.00000000000000E+20
 20
1.00000000000000E+20
 30
1.00000000000000E+20
  9
$EXTMAX
 10
-1.00000000000000E+20
 20
-1.00000000000000E+20
 30
-1.00000000000000E+20
  9
$LIMMIN
 10
0.0
 20
0.0
  9
$LIMMAX
 10
0.0
 20
0.0
  9
$ORTHOMODE
 70
             0
  9
$REGENMODE
 70
             1
  9
$FILLMODE
 70
             1
  9
$QTEXTMODE
 70
             0
  9
$MIRRTEXT
 70
             1
  9
$DRAGMODE
 70
             2
  9
$LTSCALE
 40
1.0
  9
$OSMODE
 70
             0
  9
$ATTMODE
 70
             1
  9
$TEXTSIZE
 40
0.2
  9
$TRACEWID
 40
0.05
  9
$TEXTSTYLE
  7
STANDARD
  9
$CLAYER
  8
0
  9
$CELTYPE
  6
CONTINUOUS
  9
$CECOLOR
 62
           256
  9
$CELTSCALE
 40
1.0
  9
$DELOBJ
 70
             1
  9
$DISPSILH
 70
             0
  9
$DIMSCALE
 40
1.0
  9
$DIMASZ
 40
0.18
  9
$DIMEXO
 40
0.0625
  9
$DIMDLI
 40
0.38
  9
$DIMRND
 40
0.0
  9
$DIMDLE
 40
0.0
  9
$DIMEXE
 40
0.18
  9
$DIMTP
 40
0.0
  9
$DIMTM
 40
0.0
  9
$DIMTXT
 40
0.18
  9
$DIMCEN
 40
0.09
  9
$DIMTSZ
 40
0.0
  9
$DIMTOL
 70
             0
  9
$DIMLIM
 70
             0
  9
$DIMTIH
 70
             1
  9
$DIMTOH
 70
             1
  9
$DIMSE1
 70
             0
  9
$DIMSE2
 70
             0
  9
$DIMTAD
 70
             0
  9
$DIMZIN
 70
             0
  9
$DIMBLK
  1

  9
$DIMASO
 70
             1
  9
$DIMSHO
 70
             1
  9
$DIMPOST
  1

  9
$DIMAPOST
  1

  9
$DIMALT
 70
             0
  9
$DIMALTD
 70
             2
  9
$DIMALTF
 40
25.4
  9
$DIMLFAC
 40
1.0
  9
$DIMTOFL
 70
             0
  9
$DIMTVP
 40
0.0
  9
$DIMTIX
 70
             0
  9
$DIMSOXD
 70
             0
  9
$DIMSAH
 70
             0
  9
$DIMBLK1
  1

  9
$DIMBLK2
  1

  9
$DIMSTYLE
  2
STANDARD
  9
$DIMCLRD
 70
             0
  9
$DIMCLRE
 70
             0
  9
$DIMCLRT
 70
             0
  9
$DIMTFAC
 40
1.0
  9
$DIMGAP
 40
0.09
  9
$DIMJUST
 70
             0
  9
$DIMSD1
 70
             0
  9
$DIMSD2
 70
             0
  9
$DIMTOLJ
 70
             1
  9
$DIMTZIN
 70
             0
  9
$DIMALTZ
 70
             0
  9
$DIMALTTZ
 70
             0
  9
$DIMFIT
 70
             3
  9
$DIMUPT
 70
             0
  9
$DIMUNIT
 70
             2
  9
$DIMDEC
 70
             4
  9
$DIMTDEC
 70
             4
  9
$DIMALTU
 70
             2
  9
$DIMALTTD
 70
             2
  9
$DIMTXSTY
  7
STANDARD
  9
$DIMAUNIT
 70
             0
  9
$LUNITS
 70
             2
  9
$LUPREC
 70
             4
  9
$SKETCHINC
 40
0.1
  9
$FILLETRAD
 40
0.0
  9
$AUNITS
 70
             0
  9
$AUPREC
 70
             0
  9
$MENU
  1
acad
  9
$ELEVATION
 40
0.0
  9
$PELEVATION
 40
0.0
  9
$THICKNESS
 40
0.0
  9
$LIMCHECK
 70
             0
  9
$BLIPMODE
 70
             1
  9
$CHAMFERA
 40
0.0
  9
$CHAMFERB
 40
0.0
  9
$CHAMFERC
 40
0.0
  9
$CHAMFERD
 40
0.0
  9
$SKPOLY
 70
             0
  9
$TDCREATE
 40
0.000000000
  9
$TDUPDATE
 40
0.000000000
  9
$TDINDWG
 40
0.0000000000
  9
$TDUSRTIMER
 40
0.0000000000
  9
$USRTIMER
 70
             1
  9
$ANGBASE
 50
0.0
  9
$ANGDIR
 70
             0
  9
$PDMODE
 70
             0
  9
$PDSIZE
 40
0.0
  9
$PLINEWID
 40
0.0
  9
$COORDS
 70
             0
  9
$SPLFRAME
 70
             0
  9
$SPLINETYPE
 70
             6
  9
$SPLINESEGS
 70
             8
  9
$ATTDIA
 70
             0
  9
$ATTREQ
 70
             1
  9
$HANDLING
 70
             1
  9
$HANDSEED
  5
232
  9
$SURFTAB1
 70
             6
  9
$SURFTAB2
 70
             6
  9
$SURFTYPE
 70
             6
  9
$SURFU
 70
             6
  9
$SURFV
 70
             6
  9
$UCSNAME
  2

  9
$UCSORG
 10
0.0
 20
0.0
 30
0.0
  9
$UCSXDIR
 10
1.0
 20
0.0
 30
0.0
  9
$UCSYDIR
 10
0.0
 20
1.0
 30
0.0
  9
$PUCSNAME
  2

  9
$PUCSORG
 10
0.0
 20
0.0
 30
0.0
  9
$PUCSXDIR
 10
1.0
 20
0.0
 30
0.0
  9
$PUCSYDIR
 10
0.0
 20
1.0
 30
0.0
  9
$USERI1
 70
             0
  9
$USERI2
 70
             0
  9
$USERI3
 70
             0
  9
$USERI4
 70
             0
  9
$USERI5
 70
             0
  9
$USERR1
 40
11.6
  9
$USERR2
 40
0.0
  9
$USERR3
 40
0.0
  9
$USERR4
 40
0.0
  9
$USERR5
 40
0.0
  9
$WORLDVIEW
 70
             1
  9
$SHADEDGE
 70
             3
  9
$SHADEDIF
 70
            70
  9
$TILEMODE
 70
             1
  9
$MAXACTVP
 70
            16
  9
$PINSBASE
 10
0.0
 20
0.0
 30
0.0
  9
$PLIMCHECK
 70
             0
  9
$PEXTMIN
 10
1.00000000000000E+20
 20
1.00000000000000E+20
 30
1.00000000000000E+20
  9
$PEXTMAX
 10
-1.00000000000000E+20
 20
-1.00000000000000E+20
 30
-1.00000000000000E+20
  9
$PLIMMIN
 10
0.0
 20
0.0
  9
$PLIMMAX
 10
12.0
 20
9.0
  9
$UNITMODE
 70
             0
  9
$VISRETAIN
 70
             0
  9
$PLINEGEN
 70
             1
  9
$PSLTSCALE
 70
             0
  9
$TREEDEPTH
 70
          3020
  9
$PICKSTYLE
 70
             1
  9
$CMLSTYLE
  2
STANDARD
  9
$CMLJUST
 70
             0
  9
$CMLSCALE
 40
1.0
  9
$PROXYGRAPHICS
 70
             0
  9
$MEASUREMENT
 70
             1
  0
ENDSEC
  0
SECTION
  2
CLASSES
  0
CLASS
  1
LWPOLYLINE
  2
AcDbPolyline
  3
"AutoCAD"
 90
        0
280
             0
281
             1
  0
CLASS
  1
IMAGE
  2
AcDbRasterImage
  3
ISM
 90
      127
280
             0
281
             1
  0
CLASS
  1
OLE2FRAME
  2
AcDbOle2Frame
  3
""
 90
        0
280
             0
281
             1
  0
CLASS
  1
HATCH
  2
AcDbHatch
  3
"ACAD_SEDONA"
 90
        0
280
             0
281
             1
  0
CLASS
  1
DICTIONARYVAR
  2
AcDbDictionaryVar
  3
"AutoCAD"
 90
        0
280
             0
281
             0
  0
CLASS
  1
RASTERVARIABLES
  2
AcDbRasterVariables
  3
ISM
 90
        0
280
             0
281
             0
  0
CLASS
  1
IMAGEDEF
  2
AcDbRasterImageDef
  3
ISM
 90
        0
280
             0
281
             0
  0
CLASS
  1
IMAGEDEF_REACTOR
  2
AcDbRasterImageDefReactor
  3
ISM
 90
        1
280
             0
281
             0
  0
CLASS
  1
IDBUFFER
  2
AcDbIdBuffer
  3
"Acad"
 90
        0
280
             0
281
             0
  0
CLASS
  1
SPATIAL_FILTER
  2
AcDbSpatialFilter
  3
"Acad"
 90
        0
280
             0
281
             0
  0
CLASS
  1
XRECORD
  2
AcDbXrecord
  3
"<Built In>"
 90
        0
280
             0
281
             0
  0
CLASS
  1
SORTENTSTABLE
  2
AcDbSortentsTable
  3
"AutoCAD"
 90
        0
280
             0
281
             0
  0
CLASS
  1
LAYER_INDEX
  2
AcDbLayerIndex
  3
"Acad"
 90
        0
280
             0
281
             0
  0
CLASS
  1
SPATIAL_INDEX
  2
AcDbSpatialIndex
  3
"Acad"
 90
        0
280
             0
281
             0
  0
CLASS
  1
OBJECT_PTR
  2
CAseDLPNTableRecord
  3
"ASE-LPNTableRecord"
 90
        1
280
             0
281
             0
  0
CLASS
  1
LAYOUT
  2
AcDbLayout
  3
"AutoCAD 2000"
 90
        1
280
             0
281
             0
  0
CLASS
  1
PLOTSETTINGS
  2
AcDbPlotSettings
  3
"AutoCAD 2000"
 90
        1
280
             0
281
             0
  0
CLASS
  1
ACDBDICTIONARYWDFLT
  2
AcDbDictionaryWithDefault
  3
"AutoCAD 2000"
 90
        1
280
             0
281
             0
  0
CLASS
  1
ACDBPLACEHOLDER
  2
AcDbPlaceHolder
  3
"AutoCAD 2000"
 90
        1
280
             0
281
             0
  0
ENDSEC
  0
SECTION
  2
TABLES
  0
TABLE
  2
VPORT
  5
7
100
AcDbSymbolTable
 70
             1
  0
VPORT
  5
15
100
AcDbSymbolTableRecord
100
AcDbViewportTableRecord
  2
*ACTIVE
 70
             0
 10
0.0
 20
0.0
 11
1.0
 21
1.0
 12
92.25000000001086
 22
0.0
 13
0.0
 23
0.0
 14
1.0
 24
1.0
 15
0.0
 25
0.0
 16
0.0
 26
0.0
 36
1.0
 17
0.0
 27
0.0
 37
0.0
 40
192.52144846798157
 41
1.60267857142857
 42
50.0
 43
0.0
 44
0.0
 50
0.0
 51
0.0
 71
             0
 72
           100
 73
             1
 74
             1
 75
             0
 76
             0
 77
             0
 78
             0
  0
ENDTAB
  0
TABLE
  2
LTYPE
  5
4
100
AcDbSymbolTable
 70
            10
  0
LTYPE
  5
11
100
AcDbSymbolTableRecord
100
AcDbLinetypeTableRecord
  2
BYBLOCK
 70
            64
  3

 72
            65
 73
             0
 40
0.0
  0
LTYPE
  5
12
100
AcDbSymbolTableRecord
100
AcDbLinetypeTableRecord
  2
BYLAYER
 70
            64
  3

 72
            65
 73
             0
 40
0.0
  0
LTYPE
  5
13
100
AcDbSymbolTableRecord
100
AcDbLinetypeTableRecord
  2
CONTINUOUS
 70
            64
  3
Solid line
 72
            65
 73
             0
 40
0.0
  0
LTYPE
  5
1D
100
AcDbSymbolTableRecord
100
AcDbLinetypeTableRecord
  2
DASHED
 70
            64
  3
Dashed
 72
            65
 73
             2
 40
15.0
 49
12.0
 74
             0
 49
-3.0
 74
             0
  0
LTYPE
  5
1E
100
AcDbSymbolTableRecord
100
AcDbLinetypeTableRecord
  2
DOTTED
 70
            64
  3
Dotted
 72
            65
 73
             2
 40
3.5
 49
0.5
 74
             0
 49
-3.0
 74
             0
  0
LTYPE
  5
1F
100
AcDbSymbolTableRecord
100
AcDbLinetypeTableRecord
  2
DOT_CENTER
 70
            64
  3
Dot_Center
 72
            65
 73
             4
 40
2.0
 49
1.25
 74
             0
 49
-0.25
 74
             0
 49
0.25
 74
             0
 49
-0.25
 74
             0
  0
LTYPE
  5
20
100
AcDbSymbolTableRecord
100
AcDbLinetypeTableRecord
  2
LONG_DASHED
 70
            64
  3
Long_Dashed
 72
            65
 73
             2
 40
2.0
 49
1.5
 74
             0
 49
-0.5
 74
             0
  0
LTYPE
  5
21
100
AcDbSymbolTableRecord
100
AcDbLinetypeTableRecord
  2
DASH_CENTER
 70
            64
  3
Dash_Center
 72
            65
 73
             4
 40
36.0
 49
24.0
 74
             0
 49
-3.0
 74
             0
 49
6.0
 74
             0
 49
-3.0
 74
             0
  0
LTYPE
  5
22
100
AcDbSymbolTableRecord
100
AcDbLinetypeTableRecord
  2
PHANTOM
 70
            64
  3
Phantom
 72
            65
 73
             6
 40
2.5
 49
1.25
 74
             0
 49
-0.25
 74
             0
 49
0.25
 74
             0
 49
-0.25
 74
             0
 49
0.25
 74
             0
 49
-0.25
 74
             0
  0
LTYPE
  5
23
100
AcDbSymbolTableRecord
100
AcDbLinetypeTableRecord
  2
CENTER_DASH_DASH
 70
            64
  3
Center_Dash_Dash
 72
            65
 73
             6
 40
22.0
 49
12.0
 74
             0
 49
-3.0
 74
             0
 49
0.5
 74
             0
 49
-3.0
 74
             0
 49
0.5
 74
             0
 49
-3.0
 74
             0
  0
ENDTAB
  0
TABLE
  2
LAYER
  5
2
100
AcDbSymbolTable
 70
             2
  0
LAYER
  5
14
100
AcDbSymbolTableRecord
100
AcDbLayerTableRecord
  2
0
 70
             0
 62
             7
  6
CONTINUOUS
  0
LAYER
  5
24
100
AcDbSymbolTableRecord
100
AcDbLayerTableRecord
  2
1
 70
             0
 62
             7
  6
CONTINUOUS
  0
ENDTAB
  0
TABLE
  2
STYLE
  5
3
100
AcDbSymbolTable
 70
             1
  0
STYLE
  5
17
100
AcDbSymbolTableRecord
100
AcDbTextStyleTableRecord
  2
STANDARD
 70
             0
 40
0.0
 41
1.0
 50
0.0
 71
             0
 42
0.0
  3
txt
  4

  0
ENDTAB
  0
TABLE
  2
VIEW
  5
5
100
AcDbSymbolTable
 70
             0
  0
ENDTAB
  0
TABLE
  2
UCS
  5
6
100
AcDbSymbolTable
 70
             0
  0
ENDTAB
  0
TABLE
  2
APPID
  5
8
100
AcDbSymbolTable
 70
             1
  0
APPID
  5
16
100
AcDbSymbolTableRecord
100
AcDbRegAppTableRecord
  2
ACAD
 70
             0
  0
ENDTAB
  0
TABLE
  2
DIMSTYLE
  5
9
100
AcDbSymbolTable
 70
             1
  0
DIMSTYLE
105
18
100
AcDbSymbolTableRecord
100
AcDbDimStyleTableRecord
  2
STANDARD
 70
             0
  3

  4

  5

  6

  7

 40
1.0
 41
0.18
 42
0.0625
 43
0.38
 44
0.18
 45
0.0
 46
0.0
 47
0.0
 48
0.0
 71
             0
 72
             0
 73
             1
 74
             1
 75
             0
 76
             0
 77
             0
 78
             0
140
0.18
141
0.09
142
0.0
143
25.4
144
1.0
145
0.0
146
1.0
147
0.09
170
             0
171
             2
172
             0
173
             0
174
             0
175
             0
176
             0
177
             0
178
             0
270
             2
271
             4
272
             4
273
             2
274
             2
275
             0
280
             0
281
             0
282
             0
283
             1
284
             0
285
             0
286
             0
287
             0
288
             0
340
17
  0
ENDTAB
  0
TABLE
  2
BLOCK_RECORD
  5
1
100
AcDbSymbolTable
 70
             0
  0
BLOCK_RECORD
  5
A
100
AcDbSymbolTableRecord
100
AcDbBlockTableRecord
  2
*MODEL_SPACE
  0
BLOCK_RECORD
  5
B
100
AcDbSymbolTableRecord
100
AcDbBlockTableRecord
  2
*PAPER_SPACE
  0
ENDTAB
  0
ENDSEC
  0
SECTION
  2
BLOCKS
  0
BLOCK
  5
D
100
AcDbEntity
  8
0
100
AcDbBlockBegin
  2
*MODEL_SPACE
 70
             0
 10
0.0
 20
0.0
 30
0.0
  3
*MODEL_SPACE
  1

  0
ENDBLK
  5
E
100
AcDbEntity
  8
0
100
AcDbBlockEnd
  0
BLOCK
  5
F
100
AcDbEntity
 67
             1
  8
0
100
AcDbBlockBegin
  2
*PAPER_SPACE
 70
             0
 10
0.0
 20
0.0
 30
0.0
  3
*PAPER_SPACE
  1

  0
ENDBLK
  5
10
100
AcDbEntity
 67
             1
  8
0
100
AcDbBlockEnd
  0
ENDSEC
  0
SECTION
  2
ENTITIES
  0
ARC
  5
230
100
AcDbEntity
  8
1
  6
CONTINUOUS
 62
             7
100
AcDbCircle
 10
207.80000000000001
 20
-46.25
 40
1.0
100
AcDbArc
 50
0.0
 51
90.0
  0
ARC
  5
22F
100
AcDbEntity
  8
1
  6
CONTINUOUS
 62
             7
100
AcDbCircle
 10
207.80000000000001
 20
-49.75
 40
1.0
100
AcDbArc
 50
-90.0
 51
0.0
  0
ARC
  5
22E
100
AcDbEntity
  8
1
  6
CONTINUOUS
 62
             7
100
AcDbCircle
 10
199.09999999999991
 20
-50.89999999999998
 40
1.2
100
AcDbArc
 50
-90.0
 51
0.0
  0
ARC
  5
22D
100
AcDbEntity
  8
1
  6
CONTINUOUS
 62
             7
100
AcDbCircle
 10
175.5
 20
-50.89999999999998
 40
1.2000000000001
100
AcDbArc
 50
180.0
 51
-90.0
  0
ARC
  5
22C
100
AcDbEntity
  8
1
  6
CONTINUOUS
 62
             7
100
AcDbCircle
 10
207.80000000000001
 20
46.25
 40
1.0
100
AcDbArc
 50
-90.0
 51
0.0
  0
ARC
  5
22B
100
AcDbEntity
  8
1
  6
CONTINUOUS
 62
             7
100
AcDbCircle
 10
207.80000000000001
 20
49.75
 40
1.0
100
AcDbArc
 50
0.0
 51
90.0
  0
ARC
  5
22A
100
AcDbEntity
  8
1
  6
CONTINUOUS
 62
             7
100
AcDbCircle
 10
199.09999999999991
 20
50.90000000000001
 40
1.19999999999999
100
AcDbArc
 50
0.0
 51
90.0
  0
ARC
  5
229
100
AcDbEntity
  8
1
  6
CONTINUOUS
 62
             7
100
AcDbCircle
 10
175.5
 20
50.90000000000001
 40
1.19999999999997
100
AcDbArc
 50
90.0
 51
180.0
  0
ARC
  5
228
100
AcDbEntity
  8
1
  6
CONTINUOUS
 62
             7
100
AcDbCircle
 10
1.13137084989847
 20
-38.0
 40
0.4
100
AcDbArc
 50
134.99999999999716
 51
-134.99999999999716
  0
ARC
  5
227
100
AcDbEntity
  8
1
  6
CONTINUOUS
 62
             7
100
AcDbCircle
 10
0.0
 20
-39.13137084989847
 40
0.39999999999999
100
AcDbArc
 50
45.00000000000217
 51
134.99999999999784
  0
ARC
  5
226
100
AcDbEntity
  8
1
  6
CONTINUOUS
 62
             7
100
AcDbCircle
 10
0.0
 20
-36.86862915010153
 40
0.39999999999999
100
AcDbArc
 50
-134.99999999999784
 51
-45.00000000000217
  0
ARC
  5
225
100
AcDbEntity
  8
1
  6
CONTINUOUS
 62
             7
100
AcDbCircle
 10
-1.13137084989847
 20
-38.0
 40
0.4
100
AcDbArc
 50
-45.00000000000286
 51
45.00000000000286
  0
ARC
  5
224
100
AcDbEntity
  8
1
  6
CONTINUOUS
 62
             7
100
AcDbCircle
 10
23.0
 20
23.69999999999999
 40
1.0
100
AcDbArc
 50
-90.0
 51
0.0
  0
ARC
  5
223
100
AcDbEntity
  8
1
  6
CONTINUOUS
 62
             7
100
AcDbCircle
 10
-23.0
 20
23.69999999999999
 40
1.0
100
AcDbArc
 50
180.0
 51
-90.0
  0
ARC
  5
222
100
AcDbEntity
  8
1
  6
CONTINUOUS
 62
             7
100
AcDbCircle
 10
23.0
 20
39.69999999999999
 40
1.0
100
AcDbArc
 50
0.0
 51
90.0
  0
ARC
  5
221
100
AcDbEntity
  8
1
  6
CONTINUOUS
 62
             7
100
AcDbCircle
 10
-23.0
 20
39.69999999999999
 40
1.0
100
AcDbArc
 50
90.0
 51
180.0
  0
CIRCLE
  5
220
100
AcDbEntity
  8
1
  6
CONTINUOUS
 62
             7
100
AcDbCircle
 10
23.0
 20
-37.0
 40
2.5
  0
CIRCLE
  5
21F
100
AcDbEntity
  8
1
  6
CONTINUOUS
 62
             7
100
AcDbCircle
 10
10.0
 20
-37.0
 40
2.5
  0
CIRCLE
  5
21E
100
AcDbEntity
  8
1
  6
CONTINUOUS
 62
             7
100
AcDbCircle
 10
0.0
 20
-38.0
 40
3.5
  0
CIRCLE
  5
21D
100
AcDbEntity
  8
1
  6
CONTINUOUS
 62
             7
100
AcDbCircle
 10
0.0
 20
-10.30000000000001
 40
15.0
  0
CIRCLE
  5
21C
100
AcDbEntity
  8
1
  6
CONTINUOUS
 62
             7
100
AcDbCircle
 10
0.0
 20
-10.30000000000001
 40
12.0
  0
CIRCLE
  5
21B
100
AcDbEntity
  8
1
  6
CONTINUOUS
 62
             7
100
AcDbCircle
 10
-10.0
 20
-36.8
 40
3.0
  0
CIRCLE
  5
21A
100
AcDbEntity
  8
1
  6
CONTINUOUS
 62
             7
100
AcDbCircle
 10
-10.0
 20
-36.8
 40
3.5
  0
CIRCLE
  5
219
100
AcDbEntity
  8
1
  6
CONTINUOUS
 62
             7
100
AcDbCircle
 10
-7.95219547557773
 20
25.19999999999999
 40
0.65
  0
CIRCLE
  5
218
100
AcDbEntity
  8
1
  6
CONTINUOUS
 62
             7
100
AcDbCircle
 10
17.04780452442227
 20
25.19999999999999
 40
0.65
  0
CIRCLE
  5
217
100
AcDbEntity
  8
1
  6
CONTINUOUS
 62
             7
100
AcDbCircle
 10
4.54780452442227
 20
25.19999999999999
 40
0.65
  0
ARC
  5
216
100
AcDbEntity
  8
1
  6
CONTINUOUS
 62
             7
100
AcDbCircle
 10
99.99999999999999
 20
-37.0
 40
2.5
100
AcDbArc
 50
90.0
 51
-90.0
  0
ARC
  5
215
100
AcDbEntity
  8
1
  6
CONTINUOUS
 62
             7
100
AcDbCircle
 10
206.19999999999999
 20
-45.09999999999998
 40
0.60000000000002
100
AcDbArc
 50
0.00000000000068
 51
90.0
  0
ARC
  5
214
100
AcDbEntity
  8
1
  6
CONTINUOUS
 62
             7
100
AcDbCircle
 10
206.19999999999999
 20
45.09999999999999
 40
0.59999999999999
100
AcDbArc
 50
-90.0
 51
0.0
  0
ARC
  5
213
100
AcDbEntity
  8
1
  6
CONTINUOUS
 62
             7
100
AcDbCircle
 10
230.5
 20
24.82419114465893
 40
2.0
100
AcDbArc
 50
0.0
 51
88.00000000000043
  0
ARC
  5
212
100
AcDbEntity
  8
1
  6
CONTINUOUS
 62
             7
100
AcDbCircle
 10
230.5
 20
-35.69497021682417
 40
2.00000000000004
100
AcDbArc
 50
-88.00000000000047
 51
0.0
  0
ARC
  5
211
100
AcDbEntity
  8
1
  6
CONTINUOUS
 62
             7
100
AcDbCircle
 10
100.3
 20
47.59352078943704
 40
0.30000000000005
100
AcDbArc
 50
90.49999999999798
 51
180.0
  0
ARC
  5
210
100
AcDbEntity
  8
1
  6
CONTINUOUS
 62
             7
100
AcDbCircle
 10
100.3
 20
-47.59352078943698
 40
0.3
100
AcDbArc
 50
180.0
 51
-90.49999999999798
  0
ARC
  5
20F
100
AcDbEntity
  8
1
  6
CONTINUOUS
 62
             7
100
AcDbCircle
 10
232.01463231353981
 20
7.67823874341912
 40
0.48537023329994
100
AcDbArc
 50
-88.18561029524686
 51
-0.18561029525163
  0
ARC
  5
20E
100
AcDbEntity
  8
1
  6
CONTINUOUS
 62
             7
100
AcDbCircle
 10
231.94393219271211
 20
-18.74650301731788
 40
0.55606780730953
100
AcDbArc
 50
-0.0005054739698
 51
88.3441844852841
  0
ARC
  5
20D
100
AcDbEntity
  8
1
  6
CONTINUOUS
 62
             7
100
AcDbCircle
 10
0.0
 20
-38.0
 40
2.10000000000001
100
AcDbArc
 50
-145.98057542761208
 51
-124.01942457238772
  0
ARC
  5
20C
100
AcDbEntity
  8
1
  6
CONTINUOUS
 62
             7
100
AcDbCircle
 10
0.0
 20
-38.0
 40
2.09999999999997
100
AcDbArc
 50
-55.9805754276123
 51
-34.01942457238791
  0
ARC
  5
20B
100
AcDbEntity
  8
1
  6
CONTINUOUS
 62
             7
100
AcDbCircle
 10
0.0
 20
-38.0
 40
2.10000000000001
100
AcDbArc
 50
34.01942457238791
 51
55.98057542761167
  0
ARC
  5
20A
100
AcDbEntity
  8
1
  6
CONTINUOUS
 62
             7
100
AcDbCircle
 10
0.0
 20
-38.0
 40
2.09999999999997
100
AcDbArc
 50
124.01942457238772
 51
145.98057542761208
  0
ARC
  5
209
100
AcDbEntity
  8
1
  6
CONTINUOUS
 62
             7
100
AcDbCircle
 10
0.0
 20
-10.30000000000001
 40
30.49999999999999
100
AcDbArc
 50
-30.56357413210259
 51
-29.43642586789739
  0
ARC
  5
208
100
AcDbEntity
  8
1
  6
CONTINUOUS
 62
             7
100
AcDbCircle
 10
0.0
 20
-10.30000000000001
 40
25.5
100
AcDbArc
 50
-30.67408354467478
 51
-29.32591645532522
  0
ARC
  5
207
100
AcDbEntity
  8
1
  6
CONTINUOUS
 62
             7
100
AcDbCircle
 10
0.0
 20
-10.30000000000001
 40
30.5
100
AcDbArc
 50
-0.5635741321026
 51
0.5635741321026
  0
ARC
  5
206
100
AcDbEntity
  8
1
  6
CONTINUOUS
 62
             7
100
AcDbCircle
 10
0.0
 20
-10.30000000000001
 40
25.5
100
AcDbArc
 50
-0.67408354467484
 51
0.67408354467484
  0
ARC
  5
205
100
AcDbEntity
  8
1
  6
CONTINUOUS
 62
             7
100
AcDbCircle
 10
0.0
 20
-10.30000000000001
 40
30.49999999999999
100
AcDbArc
 50
29.43642586789739
 51
30.56357413210258
  0
ARC
  5
204
100
AcDbEntity
  8
1
  6
CONTINUOUS
 62
             7
100
AcDbCircle
 10
0.0
 20
-10.30000000000001
 40
25.50000000000003
100
AcDbArc
 50
29.32591645532521
 51
30.67408354467477
  0
ARC
  5
203
100
AcDbEntity
  8
1
  6
CONTINUOUS
 62
             7
100
AcDbCircle
 10
0.0
 20
-10.30000000000001
 40
30.5
100
AcDbArc
 50
59.43642586789738
 51
60.56357413210257
  0
ARC
  5
202
100
AcDbEntity
  8
1
  6
CONTINUOUS
 62
             7
100
AcDbCircle
 10
0.0
 20
-10.30000000000001
 40
25.5
100
AcDbArc
 50
59.32591645532518
 51
60.67408354467479
  0
ARC
  5
201
100
AcDbEntity
  8
1
  6
CONTINUOUS
 62
             7
100
AcDbCircle
 10
0.0
 20
-10.30000000000001
 40
30.5
100
AcDbArc
 50
89.43642586789736
 51
90.56357413210256
  0
ARC
  5
200
100
AcDbEntity
  8
1
  6
CONTINUOUS
 62
             7
100
AcDbCircle
 10
0.0
 20
-10.30000000000001
 40
25.49999999999999
100
AcDbArc
 50
89.32591645532517
 51
90.67408354467479
  0
ARC
  5
1FF
100
AcDbEntity
  8
1
  6
CONTINUOUS
 62
             7
100
AcDbCircle
 10
0.0
 20
-10.30000000000001
 40
30.50000000000002
100
AcDbArc
 50
119.43642586789736
 51
120.56357413210253
  0
ARC
  5
1FE
100
AcDbEntity
  8
1
  6
CONTINUOUS
 62
             7
100
AcDbCircle
 10
0.0
 20
-10.30000000000001
 40
25.50000000000001
100
AcDbArc
 50
119.32591645532517
 51
120.67408354467476
  0
ARC
  5
1FD
100
AcDbEntity
  8
1
  6
CONTINUOUS
 62
             7
100
AcDbCircle
 10
0.0
 20
-10.30000000000001
 40
30.50000000000001
100
AcDbArc
 50
149.43642586789736
 51
150.5635741321025
  0
ARC
  5
1FC
100
AcDbEntity
  8
1
  6
CONTINUOUS
 62
             7
100
AcDbCircle
 10
0.0
 20
-10.30000000000001
 40
25.50000000000002
100
AcDbArc
 50
149.32591645532514
 51
150.6740835446748
  0
ARC
  5
1FB
100
AcDbEntity
  8
1
  6
CONTINUOUS
 62
             7
100
AcDbCircle
 10
0.0
 20
-10.30000000000001
 40
30.5
100
AcDbArc
 50
179.43642586789741
 51
-179.4364258678975
  0
ARC
  5
1FA
100
AcDbEntity
  8
1
  6
CONTINUOUS
 62
             7
100
AcDbCircle
 10
0.0
 20
-10.30000000000001
 40
25.5
100
AcDbArc
 50
179.32591645532517
 51
-179.32591645532528
  0
ARC
  5
1F9
100
AcDbEntity
  8
1
  6
CONTINUOUS
 62
             7
100
AcDbCircle
 10
0.0
 20
-10.30000000000001
 40
25.5
100
AcDbArc
 50
-150.67408354467491
 51
-149.32591645532523
  0
ARC
  5
1F8
100
AcDbEntity
  8
1
  6
CONTINUOUS
 62
             7
100
AcDbCircle
 10
0.0
 20
-10.30000000000001
 40
30.50000000000001
100
AcDbArc
 50
-150.56357413210264
 51
-149.43642586789744
  0
ARC
  5
1F7
100
AcDbEntity
  8
1
  6
CONTINUOUS
 62
             7
100
AcDbCircle
 10
18.46405157173538
 20
13.34484720940898
 40
14.99999999999999
100
AcDbArc
 50
-165.00000000000003
 51
-127.98596191676903
  0
ARC
  5
1F6
100
AcDbEntity
  8
1
  6
CONTINUOUS
 62
             7
100
AcDbCircle
 10
-18.46405157173538
 20
13.34484720940898
 40
14.99999999999998
100
AcDbArc
 50
-52.01403808323098
 51
-14.99999999999998
  0
ARC
  5
1F5
100
AcDbEntity
  8
1
  6
CONTINUOUS
 62
             7
100
AcDbCircle
 10
0.0
 20
-10.30000000000001
 40
14.19999999999998
100
AcDbArc
 50
41.99999999999992
 51
50.99999999999989
  0
ARC
  5
1F4
100
AcDbEntity
  8
1
  6
CONTINUOUS
 62
             7
100
AcDbCircle
 10
0.0
 20
-10.30000000000001
 40
14.2
100
AcDbArc
 50
18.00000000000008
 51
26.99999999999998
  0
ARC
  5
1F3
100
AcDbEntity
  8
1
  6
CONTINUOUS
 62
             7
100
AcDbCircle
 10
0.0
 20
-10.30000000000001
 40
14.19999999999999
100
AcDbArc
 50
-6.00000000000005
 51
2.99999999999985
  0
ARC
  5
1F2
100
AcDbEntity
  8
1
  6
CONTINUOUS
 62
             7
100
AcDbCircle
 10
0.0
 20
-10.30000000000001
 40
14.19999999999996
100
AcDbArc
 50
-29.99999999999996
 51
-21.00000000000005
  0
ARC
  5
1F1
100
AcDbEntity
  8
1
  6
CONTINUOUS
 62
             7
100
AcDbCircle
 10
0.0
 20
-10.30000000000001
 40
14.19999999999998
100
AcDbArc
 50
-54.00000000000001
 51
-45.00000000000001
  0
ARC
  5
1F0
100
AcDbEntity
  8
1
  6
CONTINUOUS
 62
             7
100
AcDbCircle
 10
0.0
 20
-10.30000000000001
 40
14.19999999999999
100
AcDbArc
 50
-78.00000000000004
 51
-69.00000000000004
  0
ARC
  5
1EF
100
AcDbEntity
  8
1
  6
CONTINUOUS
 62
             7
100
AcDbCircle
 10
0.0
 20
-10.30000000000001
 40
14.19999999999999
100
AcDbArc
 50
-101.99999999999997
 51
-92.99999999999997
  0
ARC
  5
1EE
100
AcDbEntity
  8
1
  6
CONTINUOUS
 62
             7
100
AcDbCircle
 10
0.0
 20
-10.30000000000001
 40
14.2
100
AcDbArc
 50
-126.0000000000001
 51
-117.00000000000007
  0
ARC
  5
1ED
100
AcDbEntity
  8
1
  6
CONTINUOUS
 62
             7
100
AcDbCircle
 10
0.0
 20
-10.30000000000001
 40
14.19999999999999
100
AcDbArc
 50
-150.00000000000011
 51
-140.99999999999994
  0
ARC
  5
1EC
100
AcDbEntity
  8
1
  6
CONTINUOUS
 62
             7
100
AcDbCircle
 10
0.0
 20
-10.30000000000001
 40
14.20000000000002
100
AcDbArc
 50
-173.99999999999997
 51
-165.00000000000006
  0
ARC
  5
1EB
100
AcDbEntity
  8
1
  6
CONTINUOUS
 62
             7
100
AcDbCircle
 10
0.0
 20
-10.30000000000001
 40
14.2
100
AcDbArc
 50
161.99999999999991
 51
171.00000000000009
  0
ARC
  5
1EA
100
AcDbEntity
  8
1
  6
CONTINUOUS
 62
             7
100
AcDbCircle
 10
0.0
 20
-10.30000000000001
 40
14.20000000000002
100
AcDbArc
 50
137.99999999999991
 51
147.00000000000003
  0
ARC
  5
1E9
100
AcDbEntity
  8
1
  6
CONTINUOUS
 62
             7
100
AcDbCircle
 10
0.0
 20
-10.30000000000001
 40
14.2
100
AcDbArc
 50
114.00000000000001
 51
122.99999999999999
  0
ARC
  5
1E8
100
AcDbEntity
  8
1
  6
CONTINUOUS
 62
             7
100
AcDbCircle
 10
0.0
 20
-10.30000000000001
 40
14.19999999999999
100
AcDbArc
 50
90.0
 51
99.00000000000003
  0
ARC
  5
1E7
100
AcDbEntity
  8
1
  6
CONTINUOUS
 62
             7
100
AcDbCircle
 10
0.0
 20
-10.30000000000001
 40
14.2
100
AcDbArc
 50
65.99999999999999
 51
74.99999999999994
  0
ARC
  5
1E6
100
AcDbEntity
  8
1
  6
CONTINUOUS
 62
             7
100
AcDbCircle
 10
99.02097567425064
 20
-35.80000000000001
 40
1.30000000000001
100
AcDbArc
 50
90.0
 51
163.39845040097961
  0
ARC
  5
1E5
100
AcDbEntity
  8
1
  6
CONTINUOUS
 62
             7
100
AcDbCircle
 10
106.40000000000001
 20
-38.0
 40
9.0
100
AcDbArc
 50
163.39845040097993
 51
-163.39845040097984
  0
ARC
  5
1E4
100
AcDbEntity
  8
1
  6
CONTINUOUS
 62
             7
100
AcDbCircle
 10
99.02097567425064
 20
-40.19999999999999
 40
1.29999999999995
100
AcDbArc
 50
-163.39845040097902
 51
-90.0
  0
LINE
  5
1E3
100
AcDbEntity
  8
1
  6
CONTINUOUS
 62
             7
100
AcDbLine
 10
175.5
 20
52.09999999999999
 11
199.09999999999991
 21
52.09999999999999
  0
LINE
  5
1E2
100
AcDbEntity
  8
1
  6
CONTINUOUS
 62
             7
100
AcDbLine
 10
114.8
 20
-44.5
 11
114.8
 21
-47.5
  0
LINE
  5
1E1
100
AcDbEntity
  8
1
  6
CONTINUOUS
 62
             7
100
AcDbLine
 10
205.69999999999999
 20
-45.09999999999997
 11
205.69999999999999
 21
-44.5
  0
LINE
  5
1E0
100
AcDbEntity
  8
1
  6
CONTINUOUS
 62
             7
100
AcDbLine
 10
206.19999999999999
 20
-46.5
 11
206.19999999999999
 21
-47.0
  0
LINE
  5
1DF
100
AcDbEntity
  8
1
  6
CONTINUOUS
 62
             7
100
AcDbLine
 10
205.69999999999999
 20
-47.5
 11
205.69999999999999
 21
-47.0
  0
LINE
  5
1DE
100
AcDbEntity
  8
1
  6
CONTINUOUS
 62
             7
100
AcDbLine
 10
206.19999999999999
 20
-47.0
 11
205.69999999999999
 21
-47.0
  0
LINE
  5
1DD
100
AcDbEntity
  8
1
  6
CONTINUOUS
 62
             7
100
AcDbLine
 10
206.19999999999999
 20
-47.0
 11
206.19999999999999
 21
-49.0
  0
LINE
  5
1DC
100
AcDbEntity
  8
1
  6
CONTINUOUS
 62
             7
100
AcDbLine
 10
200.2999999999999
 20
-47.5
 11
200.2999999999999
 21
-49.0
  0
LINE
  5
1DB
100
AcDbEntity
  8
1
  6
CONTINUOUS
 62
             7
100
AcDbLine
 10
200.2999999999999
 20
-47.5
 11
200.2999999999999
 21
-49.0
  0
LINE
  5
1DA
100
AcDbEntity
  8
1
  6
CONTINUOUS
 62
             7
100
AcDbLine
 10
206.19999999999999
 20
-49.0
 11
200.2999999999999
 21
-49.0
  0
LINE
  5
1D9
100
AcDbEntity
  8
1
  6
CONTINUOUS
 62
             7
100
AcDbLine
 10
199.09999999999991
 20
-47.5
 11
199.09999999999991
 21
-49.0
  0
LINE
  5
1D8
100
AcDbEntity
  8
1
  6
CONTINUOUS
 62
             7
100
AcDbLine
 10
186.80000000000001
 20
-47.5
 11
186.80000000000001
 21
-49.0
  0
LINE
  5
1D7
100
AcDbEntity
  8
1
  6
CONTINUOUS
 62
             7
100
AcDbLine
 10
199.09999999999991
 20
-49.0
 11
186.80000000000001
 21
-49.0
  0
LINE
  5
1D6
100
AcDbEntity
  8
1
  6
CONTINUOUS
 62
             7
100
AcDbLine
 10
205.69999999999999
 20
-47.0
 11
205.69999999999999
 21
-46.5
  0
LINE
  5
1D5
100
AcDbEntity
  8
1
  6
CONTINUOUS
 62
             7
100
AcDbLine
 10
206.19999999999999
 20
-45.09999999999998
 11
206.19999999999999
 21
-46.5
  0
LINE
  5
1D4
100
AcDbEntity
  8
1
  6
CONTINUOUS
 62
             7
100
AcDbLine
 10
205.69999999999999
 20
-46.5
 11
206.19999999999999
 21
-46.5
  0
LINE
  5
1D3
100
AcDbEntity
  8
1
  6
CONTINUOUS
 62
             7
100
AcDbLine
 10
176.6999999999999
 20
-47.5
 11
186.80000000000001
 21
-47.5
  0
LINE
  5
1D2
100
AcDbEntity
  8
1
  6
CONTINUOUS
 62
             7
100
AcDbLine
 10
186.80000000000001
 20
-49.0
 11
186.80000000000001
 21
-49.5
  0
LINE
  5
1D1
100
AcDbEntity
  8
1
  6
CONTINUOUS
 62
             7
100
AcDbLine
 10
199.09999999999991
 20
-49.0
 11
199.09999999999991
 21
-49.5
  0
LINE
  5
1D0
100
AcDbEntity
  8
1
  6
CONTINUOUS
 62
             7
100
AcDbLine
 10
186.80000000000001
 20
-49.5
 11
199.09999999999991
 21
-49.5
  0
LINE
  5
1CF
100
AcDbEntity
  8
1
  6
CONTINUOUS
 62
             7
100
AcDbLine
 10
200.2999999999999
 20
-49.0
 11
200.2999999999999
 21
-49.5
  0
LINE
  5
1CE
100
AcDbEntity
  8
1
  6
CONTINUOUS
 62
             7
100
AcDbLine
 10
200.2999999999999
 20
-49.0
 11
200.2999999999999
 21
-49.5
  0
LINE
  5
1CD
100
AcDbEntity
  8
1
  6
CONTINUOUS
 62
             7
100
AcDbLine
 10
206.19999999999999
 20
-49.0
 11
206.19999999999999
 21
-49.5
  0
LINE
  5
1CC
100
AcDbEntity
  8
1
  6
CONTINUOUS
 62
             7
100
AcDbLine
 10
200.2999999999999
 20
-49.5
 11
206.19999999999999
 21
-49.5
  0
LINE
  5
1CB
100
AcDbEntity
  8
1
  6
CONTINUOUS
 62
             7
100
AcDbLine
 10
206.80000000000001
 20
-51.5
 11
206.80000000000001
 21
-50.75
  0
LINE
  5
1CA
100
AcDbEntity
  8
1
  6
CONTINUOUS
 62
             7
100
AcDbLine
 10
206.80000000000001
 20
-50.75
 11
207.80000000000001
 21
-50.75
  0
LINE
  5
1C9
100
AcDbEntity
  8
1
  6
CONTINUOUS
 62
             7
100
AcDbLine
 10
208.80000000000001
 20
-49.75
 11
208.80000000000001
 21
-46.25
  0
LINE
  5
1C8
100
AcDbEntity
  8
1
  6
CONTINUOUS
 62
             7
100
AcDbLine
 10
206.80000000000001
 20
-50.75
 11
206.80000000000001
 21
-45.25
  0
LINE
  5
1C7
100
AcDbEntity
  8
1
  6
CONTINUOUS
 62
             7
100
AcDbLine
 10
207.80000000000001
 20
-45.25
 11
206.80000000000001
 21
-45.25
  0
LINE
  5
1C6
100
AcDbEntity
  8
1
  6
CONTINUOUS
 62
             7
100
AcDbLine
 10
186.80000000000001
 20
-47.5
 11
199.09999999999991
 21
-47.5
  0
LINE
  5
1C5
100
AcDbEntity
  8
1
  6
CONTINUOUS
 62
             7
100
AcDbLine
 10
199.09999999999991
 20
-49.5
 11
199.09999999999991
 21
-50.89999999999998
  0
LINE
  5
1C4
100
AcDbEntity
  8
1
  6
CONTINUOUS
 62
             7
100
AcDbLine
 10
199.09999999999991
 20
-47.5
 11
200.2999999999999
 21
-47.5
  0
LINE
  5
1C3
100
AcDbEntity
  8
1
  6
CONTINUOUS
 62
             7
100
AcDbLine
 10
200.2999999999999
 20
-49.5
 11
200.2999999999999
 21
-50.89999999999998
  0
LINE
  5
1C2
100
AcDbEntity
  8
1
  6
CONTINUOUS
 62
             7
100
AcDbLine
 10
199.09999999999991
 20
-50.89999999999998
 11
175.5
 21
-50.89999999999998
  0
LINE
  5
1C1
100
AcDbEntity
  8
1
  6
CONTINUOUS
 62
             7
100
AcDbLine
 10
175.5
 20
-47.5
 11
176.6999999999999
 21
-47.5
  0
LINE
  5
1C0
100
AcDbEntity
  8
1
  6
CONTINUOUS
 62
             7
100
AcDbLine
 10
175.5
 20
-50.89999999999998
 11
175.5
 21
-47.5
  0
LINE
  5
1BF
100
AcDbEntity
  8
1
  6
CONTINUOUS
 62
             7
100
AcDbLine
 10
200.2999999999999
 20
-47.5
 11
201.5
 21
-47.5
  0
LINE
  5
1BE
100
AcDbEntity
  8
1
  6
CONTINUOUS
 62
             7
100
AcDbLine
 10
200.2999999999999
 20
-49.5
 11
200.2999999999999
 21
-50.89999999999998
  0
LINE
  5
1BD
100
AcDbEntity
  8
1
  6
CONTINUOUS
 62
             7
100
AcDbLine
 10
199.09999999999991
 20
-52.09999999999998
 11
175.5
 21
-52.09999999999998
  0
LINE
  5
1BC
100
AcDbEntity
  8
1
  6
CONTINUOUS
 62
             7
100
AcDbLine
 10
114.8
 20
-47.5
 11
175.5
 21
-47.5
  0
LINE
  5
1BB
100
AcDbEntity
  8
1
  6
CONTINUOUS
 62
             7
100
AcDbLine
 10
174.2999999999999
 20
-50.89999999999998
 11
174.2999999999999
 21
-47.5
  0
LINE
  5
1BA
100
AcDbEntity
  8
1
  6
CONTINUOUS
 62
             7
100
AcDbLine
 10
201.5
 20
-47.5
 11
205.69999999999999
 21
-47.5
  0
LINE
  5
1B9
100
AcDbEntity
  8
1
  6
CONTINUOUS
 62
             7
100
AcDbLine
 10
205.69999999999999
 20
-46.5
 11
205.69999999999999
 21
-45.09999999999997
  0
LINE
  5
1B8
100
AcDbEntity
  8
1
  6
CONTINUOUS
 62
             7
100
AcDbLine
 10
205.69999999999999
 20
-45.09999999999997
 11
206.19999999999999
 21
-45.09999999999998
  0
LINE
  5
1B7
100
AcDbEntity
  8
1
  6
CONTINUOUS
 62
             7
100
AcDbLine
 10
206.19999999999999
 20
-49.5
 11
206.19999999999999
 21
-51.5
  0
LINE
  5
1B6
100
AcDbEntity
  8
1
  6
CONTINUOUS
 62
             7
100
AcDbLine
 10
206.19999999999999
 20
-51.5
 11
206.80000000000001
 21
-51.5
  0
LINE
  5
1B5
100
AcDbEntity
  8
1
  6
CONTINUOUS
 62
             7
100
AcDbLine
 10
206.80000000000001
 20
-45.25
 11
206.80000000000001
 21
-45.09999999999997
  0
LINE
  5
1B4
100
AcDbEntity
  8
1
  6
CONTINUOUS
 62
             7
100
AcDbLine
 10
206.19999999999999
 20
47.0
 11
206.19999999999999
 21
46.5
  0
LINE
  5
1B3
100
AcDbEntity
  8
1
  6
CONTINUOUS
 62
             7
100
AcDbLine
 10
205.69999999999999
 20
47.0
 11
205.69999999999999
 21
47.5
  0
LINE
  5
1B2
100
AcDbEntity
  8
1
  6
CONTINUOUS
 62
             7
100
AcDbLine
 10
205.69999999999999
 20
47.0
 11
206.19999999999999
 21
47.0
  0
LINE
  5
1B1
100
AcDbEntity
  8
1
  6
CONTINUOUS
 62
             7
100
AcDbLine
 10
206.19999999999999
 20
49.0
 11
206.19999999999999
 21
47.0
  0
LINE
  5
1B0
100
AcDbEntity
  8
1
  6
CONTINUOUS
 62
             7
100
AcDbLine
 10
200.2999999999999
 20
49.0
 11
200.2999999999999
 21
47.5
  0
LINE
  5
1AF
100
AcDbEntity
  8
1
  6
CONTINUOUS
 62
             7
100
AcDbLine
 10
200.2999999999999
 20
49.0
 11
200.2999999999999
 21
47.5
  0
LINE
  5
1AE
100
AcDbEntity
  8
1
  6
CONTINUOUS
 62
             7
100
AcDbLine
 10
200.2999999999999
 20
49.0
 11
206.19999999999999
 21
49.0
  0
LINE
  5
1AD
100
AcDbEntity
  8
1
  6
CONTINUOUS
 62
             7
100
AcDbLine
 10
199.09999999999991
 20
49.0
 11
199.09999999999991
 21
47.5
  0
LINE
  5
1AC
100
AcDbEntity
  8
1
  6
CONTINUOUS
 62
             7
100
AcDbLine
 10
186.80000000000001
 20
49.0
 11
186.80000000000001
 21
47.5
  0
LINE
  5
1AB
100
AcDbEntity
  8
1
  6
CONTINUOUS
 62
             7
100
AcDbLine
 10
186.80000000000001
 20
49.0
 11
199.09999999999991
 21
49.0
  0
LINE
  5
1AA
100
AcDbEntity
  8
1
  6
CONTINUOUS
 62
             7
100
AcDbLine
 10
205.69999999999999
 20
46.5
 11
205.69999999999999
 21
47.0
  0
LINE
  5
1A9
100
AcDbEntity
  8
1
  6
CONTINUOUS
 62
             7
100
AcDbLine
 10
206.19999999999999
 20
46.5
 11
206.19999999999999
 21
45.09999999999999
  0
LINE
  5
1A8
100
AcDbEntity
  8
1
  6
CONTINUOUS
 62
             7
100
AcDbLine
 10
206.19999999999999
 20
46.5
 11
205.69999999999999
 21
46.5
  0
LINE
  5
1A7
100
AcDbEntity
  8
1
  6
CONTINUOUS
 62
             7
100
AcDbLine
 10
186.80000000000001
 20
47.5
 11
176.6999999999999
 21
47.5
  0
LINE
  5
1A6
100
AcDbEntity
  8
1
  6
CONTINUOUS
 62
             7
100
AcDbLine
 10
186.80000000000001
 20
49.5
 11
186.80000000000001
 21
49.0
  0
LINE
  5
1A5
100
AcDbEntity
  8
1
  6
CONTINUOUS
 62
             7
100
AcDbLine
 10
199.09999999999991
 20
49.5
 11
199.09999999999991
 21
49.0
  0
LINE
  5
1A4
100
AcDbEntity
  8
1
  6
CONTINUOUS
 62
             7
100
AcDbLine
 10
199.09999999999991
 20
49.5
 11
186.80000000000001
 21
49.5
  0
LINE
  5
1A3
100
AcDbEntity
  8
1
  6
CONTINUOUS
 62
             7
100
AcDbLine
 10
200.2999999999999
 20
49.5
 11
200.2999999999999
 21
49.0
  0
LINE
  5
1A2
100
AcDbEntity
  8
1
  6
CONTINUOUS
 62
             7
100
AcDbLine
 10
200.2999999999999
 20
49.5
 11
200.2999999999999
 21
49.0
  0
LINE
  5
1A1
100
AcDbEntity
  8
1
  6
CONTINUOUS
 62
             7
100
AcDbLine
 10
206.19999999999999
 20
49.5
 11
206.19999999999999
 21
49.0
  0
LINE
  5
1A0
100
AcDbEntity
  8
1
  6
CONTINUOUS
 62
             7
100
AcDbLine
 10
206.19999999999999
 20
49.5
 11
200.2999999999999
 21
49.5
  0
LINE
  5
19F
100
AcDbEntity
  8
1
  6
CONTINUOUS
 62
             7
100
AcDbLine
 10
206.80000000000001
 20
50.75
 11
206.80000000000001
 21
51.5
  0
LINE
  5
19E
100
AcDbEntity
  8
1
  6
CONTINUOUS
 62
             7
100
AcDbLine
 10
207.80000000000001
 20
50.75
 11
206.80000000000001
 21
50.75
  0
LINE
  5
19D
100
AcDbEntity
  8
1
  6
CONTINUOUS
 62
             7
100
AcDbLine
 10
208.80000000000001
 20
46.25
 11
208.80000000000001
 21
49.75
  0
LINE
  5
19C
100
AcDbEntity
  8
1
  6
CONTINUOUS
 62
             7
100
AcDbLine
 10
206.80000000000001
 20
45.25
 11
206.80000000000001
 21
50.75
  0
LINE
  5
19B
100
AcDbEntity
  8
1
  6
CONTINUOUS
 62
             7
100
AcDbLine
 10
206.80000000000001
 20
45.25
 11
207.80000000000001
 21
45.25
  0
LINE
  5
19A
100
AcDbEntity
  8
1
  6
CONTINUOUS
 62
             7
100
AcDbLine
 10
199.09999999999991
 20
47.5
 11
186.80000000000001
 21
47.5
  0
LINE
  5
199
100
AcDbEntity
  8
1
  6
CONTINUOUS
 62
             7
100
AcDbLine
 10
199.09999999999991
 20
50.90000000000001
 11
199.09999999999991
 21
49.5
  0
LINE
  5
198
100
AcDbEntity
  8
1
  6
CONTINUOUS
 62
             7
100
AcDbLine
 10
200.2999999999999
 20
47.5
 11
199.09999999999991
 21
47.5
  0
LINE
  5
197
100
AcDbEntity
  8
1
  6
CONTINUOUS
 62
             7
100
AcDbLine
 10
200.2999999999999
 20
50.90000000000001
 11
200.2999999999999
 21
49.5
  0
LINE
  5
196
100
AcDbEntity
  8
1
  6
CONTINUOUS
 62
             7
100
AcDbLine
 10
175.5
 20
50.90000000000001
 11
199.09999999999991
 21
50.90000000000001
  0
LINE
  5
195
100
AcDbEntity
  8
1
  6
CONTINUOUS
 62
             7
100
AcDbLine
 10
176.6999999999999
 20
47.5
 11
175.5
 21
47.5
  0
LINE
  5
194
100
AcDbEntity
  8
1
  6
CONTINUOUS
 62
             7
100
AcDbLine
 10
175.5
 20
47.5
 11
175.5
 21
50.90000000000001
  0
LINE
  5
193
100
AcDbEntity
  8
1
  6
CONTINUOUS
 62
             7
100
AcDbLine
 10
201.5
 20
47.5
 11
200.2999999999999
 21
47.5
  0
LINE
  5
192
100
AcDbEntity
  8
1
  6
CONTINUOUS
 62
             7
100
AcDbLine
 10
200.2999999999999
 20
50.90000000000001
 11
200.2999999999999
 21
49.5
  0
LINE
  5
191
100
AcDbEntity
  8
1
  6
CONTINUOUS
 62
             7
100
AcDbLine
 10
175.5
 20
47.5
 11
114.8
 21
47.5
  0
LINE
  5
190
100
AcDbEntity
  8
1
  6
CONTINUOUS
 62
             7
100
AcDbLine
 10
174.2999999999999
 20
47.5
 11
174.2999999999999
 21
50.90000000000001
  0
LINE
  5
18F
100
AcDbEntity
  8
1
  6
CONTINUOUS
 62
             7
100
AcDbLine
 10
114.8
 20
47.5
 11
114.8
 21
44.5
  0
LINE
  5
18E
100
AcDbEntity
  8
1
  6
CONTINUOUS
 62
             7
100
AcDbLine
 10
205.69999999999999
 20
47.5
 11
201.5
 21
47.5
  0
LINE
  5
18D
100
AcDbEntity
  8
1
  6
CONTINUOUS
 62
             7
100
AcDbLine
 10
205.69999999999999
 20
45.09999999999999
 11
205.69999999999999
 21
46.5
  0
LINE
  5
18C
100
AcDbEntity
  8
1
  6
CONTINUOUS
 62
             7
100
AcDbLine
 10
205.69999999999999
 20
44.5
 11
205.69999999999999
 21
45.09999999999999
  0
LINE
  5
18B
100
AcDbEntity
  8
1
  6
CONTINUOUS
 62
             7
100
AcDbLine
 10
206.19999999999999
 20
45.09999999999999
 11
205.69999999999999
 21
45.09999999999999
  0
LINE
  5
18A
100
AcDbEntity
  8
1
  6
CONTINUOUS
 62
             7
100
AcDbLine
 10
206.19999999999999
 20
51.5
 11
206.19999999999999
 21
49.5
  0
LINE
  5
189
100
AcDbEntity
  8
1
  6
CONTINUOUS
 62
             7
100
AcDbLine
 10
206.80000000000001
 20
51.5
 11
206.19999999999999
 21
51.5
  0
LINE
  5
188
100
AcDbEntity
  8
1
  6
CONTINUOUS
 62
             7
100
AcDbLine
 10
206.80000000000001
 20
45.09999999999999
 11
206.80000000000001
 21
45.25
  0
LINE
  5
187
100
AcDbEntity
  8
1
  6
CONTINUOUS
 62
             7
100
AcDbLine
 10
206.19999999999999
 20
44.5
 11
205.69999999999999
 21
44.5
  0
LINE
  5
186
100
AcDbEntity
  8
1
  6
CONTINUOUS
 62
             7
100
AcDbLine
 10
232.5
 20
7.67666638406732
 11
232.5
 21
24.82419114465893
  0
LINE
  5
185
100
AcDbEntity
  8
1
  6
CONTINUOUS
 62
             7
100
AcDbLine
 10
230.56979899340499
 20
26.82297279869712
 11
226.49979404594791
 21
26.96510050329752
  0
LINE
  5
184
100
AcDbEntity
  8
1
  6
CONTINUOUS
 62
             7
100
AcDbLine
 10
226.49979404594791
 20
26.96510050329752
 11
225.30000000000001
 21
28.1648945492453
  0
LINE
  5
183
100
AcDbEntity
  8
1
  6
CONTINUOUS
 62
             7
100
AcDbLine
 10
225.30000000000001
 20
28.1648945492453
 11
225.30000000000001
 21
42.38130555848812
  0
LINE
  5
182
100
AcDbEntity
  8
1
  6
CONTINUOUS
 62
             7
100
AcDbLine
 10
225.30000000000001
 20
30.00016557671501
 11
225.30000000000001
 21
42.37257802602403
  0
LINE
  5
181
100
AcDbEntity
  8
1
  6
CONTINUOUS
 62
             7
100
AcDbLine
 10
220.57596833940281
 20
-42.5681483474219
 11
220.62871870788979
 21
-42.37128129211018
  0
LINE
  5
180
100
AcDbEntity
  8
1
  6
CONTINUOUS
 62
             7
100
AcDbLine
 10
218.5
 20
-44.5
 11
220.62871870788979
 21
-42.37128129211018
  0
LINE
  5
17F
100
AcDbEntity
  8
1
  6
CONTINUOUS
 62
             7
100
AcDbLine
 10
218.5
 20
44.5
 11
223.3003046096872
 21
44.4074828388986
  0
LINE
  5
17E
100
AcDbEntity
  8
1
  6
CONTINUOUS
 62
             7
100
AcDbLine
 10
223.3003046096872
 20
44.4074828388986
 11
225.30000000000001
 21
42.37257802602403
  0
LINE
  5
17D
100
AcDbEntity
  8
1
  6
CONTINUOUS
 62
             7
100
AcDbLine
 10
230.56979899340499
 20
-37.6937518708624
 11
221.80000000000001
 21
-38.0
  0
LINE
  5
17C
100
AcDbEntity
  8
1
  6
CONTINUOUS
 62
             7
100
AcDbLine
 10
220.62871870788979
 20
-42.37128129211018
 11
221.80000000000001
 21
-38.0
  0
LINE
  5
17B
100
AcDbEntity
  8
1
  6
CONTINUOUS
 62
             7
100
AcDbLine
 10
218.5
 20
-44.5
 11
218.5
 21
44.5
  0
LINE
  5
17A
100
AcDbEntity
  8
1
  6
CONTINUOUS
 62
             7
100
AcDbLine
 10
139.5
 20
-3.5
 11
142.0
 21
-6.0
  0
LINE
  5
179
100
AcDbEntity
  8
1
  6
CONTINUOUS
 62
             7
100
AcDbLine
 10
218.5
 20
-44.5
 11
112.5
 21
-44.5
  0
LINE
  5
178
100
AcDbEntity
  8
1
  6
CONTINUOUS
 62
             7
100
AcDbLine
 10
122.5
 20
44.5
 11
112.5
 21
44.5
  0
LINE
  5
177
100
AcDbEntity
  8
1
  6
CONTINUOUS
 62
             7
100
AcDbLine
 10
100.0
 20
47.59352078943704
 11
100.0
 21
-47.59352078943698
  0
LINE
  5
176
100
AcDbEntity
  8
1
  6
CONTINUOUS
 62
             7
100
AcDbLine
 10
100.2973820393505
 20
47.89350936635634
 11
112.5
 21
48.0
  0
LINE
  5
175
100
AcDbEntity
  8
1
  6
CONTINUOUS
 62
             7
100
AcDbLine
 10
112.5
 20
-48.0
 11
100.2973820393505
 21
-47.89350936635628
  0
LINE
  5
174
100
AcDbEntity
  8
1
  6
CONTINUOUS
 62
             7
100
AcDbLine
 10
112.5
 20
-45.5
 11
112.5
 21
-44.5
  0
LINE
  5
173
100
AcDbEntity
  8
1
  6
CONTINUOUS
 62
             7
100
AcDbLine
 10
112.5
 20
44.5
 11
112.5
 21
48.0
  0
LINE
  5
172
100
AcDbEntity
  8
1
  6
CONTINUOUS
 62
             7
100
AcDbLine
 10
218.5
 20
-44.5
 11
218.5
 21
44.5
  0
LINE
  5
171
100
AcDbEntity
  8
1
  6
CONTINUOUS
 62
             7
100
AcDbLine
 10
112.5
 20
44.0
 11
112.5
 21
44.5
  0
LINE
  5
170
100
AcDbEntity
  8
1
  6
CONTINUOUS
 62
             7
100
AcDbLine
 10
112.5
 20
-48.0
 11
112.5
 21
-45.5
  0
LINE
  5
16F
100
AcDbEntity
  8
1
  6
CONTINUOUS
 62
             7
100
AcDbLine
 10
209.5
 20
-6.0
 11
209.5
 21
42.0
  0
LINE
  5
16E
100
AcDbEntity
  8
1
  6
CONTINUOUS
 62
             7
100
AcDbLine
 10
209.5
 20
42.0
 11
139.5
 21
42.0
  0
LINE
  5
16D
100
AcDbEntity
  8
1
  6
CONTINUOUS
 62
             7
100
AcDbLine
 10
139.5
 20
42.0
 11
139.5
 21
-3.5
  0
LINE
  5
16C
100
AcDbEntity
  8
1
  6
CONTINUOUS
 62
             7
100
AcDbLine
 10
142.0
 20
-6.0
 11
209.5
 21
-6.0
  0
LINE
  5
16B
100
AcDbEntity
  8
1
  6
CONTINUOUS
 62
             7
100
AcDbLine
 10
202.5
 20
-14.0
 11
202.5
 21
-10.0
  0
LINE
  5
16A
100
AcDbEntity
  8
1
  6
CONTINUOUS
 62
             7
100
AcDbLine
 10
202.5
 20
-10.0
 11
192.5
 21
-10.0
  0
LINE
  5
169
100
AcDbEntity
  8
1
  6
CONTINUOUS
 62
             7
100
AcDbLine
 10
192.5
 20
-10.0
 11
192.5
 21
-14.0
  0
LINE
  5
168
100
AcDbEntity
  8
1
  6
CONTINUOUS
 62
             7
100
AcDbLine
 10
192.5
 20
-14.0
 11
202.5
 21
-14.0
  0
LINE
  5
167
100
AcDbEntity
  8
1
  6
CONTINUOUS
 62
             7
100
AcDbLine
 10
175.5
 20
-14.75
 11
170.5
 21
-14.75
  0
LINE
  5
166
100
AcDbEntity
  8
1
  6
CONTINUOUS
 62
             7
100
AcDbLine
 10
170.5
 20
-14.75
 11
170.5
 21
-9.25
  0
LINE
  5
165
100
AcDbEntity
  8
1
  6
CONTINUOUS
 62
             7
100
AcDbLine
 10
170.5
 20
-9.25
 11
175.5
 21
-9.25
  0
LINE
  5
164
100
AcDbEntity
  8
1
  6
CONTINUOUS
 62
             7
100
AcDbLine
 10
175.5
 20
-9.25
 11
175.5
 21
-14.75
  0
LINE
  5
163
100
AcDbEntity
  8
1
  6
CONTINUOUS
 62
             7
100
AcDbLine
 10
122.5
 20
44.0
 11
122.5
 21
44.5
  0
LINE
  5
162
100
AcDbEntity
  8
1
  6
CONTINUOUS
 62
             7
100
AcDbLine
 10
218.5
 20
44.5
 11
122.5
 21
44.5
  0
LINE
  5
161
100
AcDbEntity
  8
1
  6
CONTINUOUS
 62
             7
100
AcDbLine
 10
112.5
 20
44.0
 11
122.5
 21
44.0
  0
LINE
  5
160
100
AcDbEntity
  8
1
  6
CONTINUOUS
 62
             7
100
AcDbLine
 10
112.5
 20
-45.5
 11
112.5
 21
44.0
  0
LINE
  5
15F
100
AcDbEntity
  8
1
  6
CONTINUOUS
 62
             7
100
AcDbLine
 10
211.5
 20
20.0
 11
211.5
 21
14.0
  0
LINE
  5
15E
100
AcDbEntity
  8
1
  6
CONTINUOUS
 62
             7
100
AcDbLine
 10
211.5
 20
14.0
 11
216.5
 21
14.0
  0
LINE
  5
15D
100
AcDbEntity
  8
1
  6
CONTINUOUS
 62
             7
100
AcDbLine
 10
216.5
 20
14.0
 11
216.5
 21
20.0
  0
LINE
  5
15C
100
AcDbEntity
  8
1
  6
CONTINUOUS
 62
             7
100
AcDbLine
 10
216.5
 20
20.0
 11
211.5
 21
20.0
  0
LINE
  5
15B
100
AcDbEntity
  8
1
  6
CONTINUOUS
 62
             7
100
AcDbLine
 10
216.50000000000011
 20
-25.0
 11
211.50000000000011
 21
-25.0
  0
LINE
  5
15A
100
AcDbEntity
  8
1
  6
CONTINUOUS
 62
             7
100
AcDbLine
 10
211.50000000000011
 20
-25.0
 11
211.50000000000011
 21
-31.0
  0
LINE
  5
159
100
AcDbEntity
  8
1
  6
CONTINUOUS
 62
             7
100
AcDbLine
 10
211.50000000000011
 20
-31.0
 11
216.50000000000011
 21
-31.0
  0
LINE
  5
158
100
AcDbEntity
  8
1
  6
CONTINUOUS
 62
             7
100
AcDbLine
 10
216.50000000000011
 20
-31.0
 11
216.50000000000011
 21
-25.0
  0
LINE
  5
157
100
AcDbEntity
  8
1
  6
CONTINUOUS
 62
             7
100
AcDbLine
 10
232.5
 20
7.67666638406732
 11
232.5
 21
22.75517506193802
  0
LINE
  5
156
100
AcDbEntity
  8
1
  6
CONTINUOUS
 62
             7
100
AcDbLine
 10
226.5
 20
7.0
 11
232.03
 21
7.19311185528932
  0
LINE
  5
155
100
AcDbEntity
  8
1
  6
CONTINUOUS
 62
             7
100
AcDbLine
 10
226.5
 20
0.0
 11
226.5
 21
7.0
  0
LINE
  5
154
100
AcDbEntity
  8
1
  6
CONTINUOUS
 62
             7
100
AcDbLine
 10
226.5
 20
0.0
 11
226.5
 21
-18.0
  0
LINE
  5
153
100
AcDbEntity
  8
1
  6
CONTINUOUS
 62
             7
100
AcDbLine
 10
231.96000000000001
 20
-18.19066740142498
 11
226.5
 21
-18.0
  0
LINE
  5
152
100
AcDbEntity
  8
1
  6
CONTINUOUS
 62
             7
100
AcDbLine
 10
232.5
 20
-18.74650792305098
 11
232.5
 21
-35.69497021682417
  0
LINE
  5
151
100
AcDbEntity
  8
1
  6
CONTINUOUS
 62
             7
100
AcDbLine
 10
-48.0
 20
-48.0
 11
48.0
 21
-48.0
  0
LINE
  5
150
100
AcDbEntity
  8
1
  6
CONTINUOUS
 62
             7
100
AcDbLine
 10
48.0
 20
-48.0
 11
48.0
 21
48.0
  0
LINE
  5
14F
100
AcDbEntity
  8
1
  6
CONTINUOUS
 62
             7
100
AcDbLine
 10
48.0
 20
48.0
 11
-48.0
 21
48.0
  0
LINE
  5
14E
100
AcDbEntity
  8
1
  6
CONTINUOUS
 62
             7
100
AcDbLine
 10
-48.0
 20
48.0
 11
-48.0
 21
-48.0
  0
LINE
  5
14D
100
AcDbEntity
  8
1
  6
CONTINUOUS
 62
             7
100
AcDbLine
 10
46.0
 20
-46.0
 11
46.0
 21
46.0
  0
LINE
  5
14C
100
AcDbEntity
  8
1
  6
CONTINUOUS
 62
             7
100
AcDbLine
 10
-46.0
 20
-46.0
 11
46.0
 21
-46.0
  0
LINE
  5
14B
100
AcDbEntity
  8
1
  6
CONTINUOUS
 62
             7
100
AcDbLine
 10
-1.74058068618595
 20
-39.17489526123671
 11
-0.84852813742387
 21
-38.28284271247463
  0
LINE
  5
14A
100
AcDbEntity
  8
1
  6
CONTINUOUS
 62
             7
100
AcDbLine
 10
-0.2828427124746
 20
-38.84852813742384
 11
-1.17489526123669
 21
-39.74058068618592
  0
LINE
  5
149
100
AcDbEntity
  8
1
  6
CONTINUOUS
 62
             7
100
AcDbLine
 10
1.17489526123669
 20
-39.74058068618592
 11
0.2828427124746
 21
-38.84852813742384
  0
LINE
  5
148
100
AcDbEntity
  8
1
  6
CONTINUOUS
 62
             7
100
AcDbLine
 10
0.84852813742387
 20
-38.28284271247463
 11
1.74058068618595
 21
-39.17489526123671
  0
LINE
  5
147
100
AcDbEntity
  8
1
  6
CONTINUOUS
 62
             7
100
AcDbLine
 10
1.74058068618595
 20
-36.82510473876329
 11
0.84852813742387
 21
-37.71715728752537
  0
LINE
  5
146
100
AcDbEntity
  8
1
  6
CONTINUOUS
 62
             7
100
AcDbLine
 10
0.2828427124746
 20
-37.15147186257616
 11
1.17489526123671
 21
-36.25941931381408
  0
LINE
  5
145
100
AcDbEntity
  8
1
  6
CONTINUOUS
 62
             7
100
AcDbLine
 10
-1.17489526123669
 20
-36.25941931381408
 11
-0.2828427124746
 21
-37.15147186257616
  0
LINE
  5
144
100
AcDbEntity
  8
1
  6
CONTINUOUS
 62
             7
100
AcDbLine
 10
-0.84852813742387
 20
-37.71715728752537
 11
-1.74058068618595
 21
-36.82510473876329
  0
LINE
  5
143
100
AcDbEntity
  8
1
  6
CONTINUOUS
 62
             7
100
AcDbLine
 10
-24.0
 20
39.69999999999999
 11
-24.0
 21
23.69999999999999
  0
LINE
  5
142
100
AcDbEntity
  8
1
  6
CONTINUOUS
 62
             7
100
AcDbLine
 10
23.0
 20
40.69999999999999
 11
-23.0
 21
40.69999999999999
  0
LINE
  5
141
100
AcDbEntity
  8
1
  6
CONTINUOUS
 62
             7
100
AcDbLine
 10
24.0
 20
23.69999999999999
 11
24.0
 21
39.69999999999999
  0
LINE
  5
140
100
AcDbEntity
  8
1
  6
CONTINUOUS
 62
             7
100
AcDbLine
 10
-23.0
 20
22.69999999999999
 11
23.0
 21
22.69999999999999
  0
LINE
  5
13F
100
AcDbEntity
  8
1
  6
CONTINUOUS
 62
             7
100
AcDbLine
 10
22.23211946349355
 20
-22.78930999539017
 11
26.56249704212004
 21
-25.28945465610286
  0
LINE
  5
13E
100
AcDbEntity
  8
1
  6
CONTINUOUS
 62
             7
100
AcDbLine
 10
26.26249704212003
 20
-25.80906989837354
 11
21.93211946349354
 21
-23.30892523766079
  0
LINE
  5
13D
100
AcDbEntity
  8
1
  6
CONTINUOUS
 62
             7
100
AcDbLine
 10
30.45820081001452
 20
-11.89624666540976
 11
27.46231220575078
 21
-11.73923879668092
  0
LINE
  5
13C
100
AcDbEntity
  8
1
  6
CONTINUOUS
 62
             7
100
AcDbLine
 10
30.33291780873233
 20
-13.48811812966341
 11
26.35483022725924
 21
-13.07000427659284
  0
LINE
  5
13B
100
AcDbEntity
  8
1
  6
CONTINUOUS
 62
             7
100
AcDbLine
 10
30.1244943881517
 20
-15.07125118372704
 11
27.16142936636629
 21
-14.60194778860637
  0
LINE
  5
13A
100
AcDbEntity
  8
1
  6
CONTINUOUS
 62
             7
100
AcDbLine
 10
29.83350182238107
 20
-16.64130656994166
 11
25.92091141944584
 21
-15.80965980667065
  0
LINE
  5
139
100
AcDbEntity
  8
1
  6
CONTINUOUS
 62
             7
100
AcDbLine
 10
29.46073770181658
 20
-18.19398087562689
 11
26.56296022294939
 21
-17.41752374031933
  0
LINE
  5
138
100
AcDbEntity
  8
1
  6
CONTINUOUS
 62
             7
100
AcDbLine
 10
28.47420300816467
 20
-21.23022246113163
 11
25.67346172867306
 21
-20.15511861249576
  0
LINE
  5
137
100
AcDbEntity
  8
1
  6
CONTINUOUS
 62
             7
100
AcDbLine
 10
29.0072237470022
 20
-19.72501832843591
 11
25.20299768182159
 21
-18.48895035093608
  0
LINE
  5
136
100
AcDbEntity
  8
1
  6
CONTINUOUS
 62
             7
100
AcDbLine
 10
29.0072237470022
 20
-19.72501832843591
 11
25.20299768182159
 21
-18.48895035093608
  0
LINE
  5
135
100
AcDbEntity
  8
1
  6
CONTINUOUS
 62
             7
100
AcDbLine
 10
27.86313645809932
 20
-22.70546761381189
 11
24.20895462752893
 21
-21.07852104150868
  0
LINE
  5
134
100
AcDbEntity
  8
1
  6
CONTINUOUS
 62
             7
100
AcDbLine
 10
27.17569898774522
 20
-24.1467102420562
 11
24.50267941518013
 21
-22.78473874283753
  0
LINE
  5
133
100
AcDbEntity
  8
1
  6
CONTINUOUS
 62
             7
100
AcDbLine
 10
25.49823523305093
 20
-10.0
 11
30.4985245544764
 21
-10.0
  0
LINE
  5
132
100
AcDbEntity
  8
1
  6
CONTINUOUS
 62
             7
100
AcDbLine
 10
30.4985245544764
 20
-10.60000000000002
 11
25.49823523305093
 21
-10.60000000000002
  0
LINE
  5
131
100
AcDbEntity
  8
1
  6
CONTINUOUS
 62
             7
100
AcDbLine
 10
27.17569898774522
 20
3.54671024205618
 11
24.5026794151801
 21
2.18473874283757
  0
LINE
  5
130
100
AcDbEntity
  8
1
  6
CONTINUOUS
 62
             7
100
AcDbLine
 10
27.86313645809932
 20
2.10546761381192
 11
24.20895462752893
 21
0.47852104150871
  0
LINE
  5
12F
100
AcDbEntity
  8
1
  6
CONTINUOUS
 62
             7
100
AcDbLine
 10
28.47420300816467
 20
0.63022246113167
 11
25.67346172867303
 21
-0.44488138750421
  0
LINE
  5
12E
100
AcDbEntity
  8
1
  6
CONTINUOUS
 62
             7
100
AcDbLine
 10
29.00722374700217
 20
-0.87498167156411
 11
25.20299768182159
 21
-2.11104964906389
  0
LINE
  5
12D
100
AcDbEntity
  8
1
  6
CONTINUOUS
 62
             7
100
AcDbLine
 10
29.46073770181658
 20
-2.40601912437313
 11
26.56296022294939
 21
-3.1824762596807
  0
LINE
  5
12C
100
AcDbEntity
  8
1
  6
CONTINUOUS
 62
             7
100
AcDbLine
 10
30.1244943881517
 20
-5.52874881627298
 11
27.16142936636629
 21
-5.99805221139366
  0
LINE
  5
12B
100
AcDbEntity
  8
1
  6
CONTINUOUS
 62
             7
100
AcDbLine
 10
29.83350182238107
 20
-3.95869343005836
 11
25.92091141944584
 21
-4.79034019332937
  0
LINE
  5
12A
100
AcDbEntity
  8
1
  6
CONTINUOUS
 62
             7
100
AcDbLine
 10
29.83350182238107
 20
-3.95869343005836
 11
25.92091141944584
 21
-4.79034019332937
  0
LINE
  5
129
100
AcDbEntity
  8
1
  6
CONTINUOUS
 62
             7
100
AcDbLine
 10
30.33291780873233
 20
-7.11188187033656
 11
26.35483022725924
 21
-7.52999572340718
  0
LINE
  5
128
100
AcDbEntity
  8
1
  6
CONTINUOUS
 62
             7
100
AcDbLine
 10
30.45820081001452
 20
-8.7037533345902
 11
27.46231220575078
 21
-8.86076120331904
  0
LINE
  5
127
100
AcDbEntity
  8
1
  6
CONTINUOUS
 62
             7
100
AcDbLine
 10
21.93211946349354
 20
2.70892523766077
 11
26.26249704212003
 21
5.20906989837351
  0
LINE
  5
126
100
AcDbEntity
  8
1
  6
CONTINUOUS
 62
             7
100
AcDbLine
 10
26.56249704212004
 20
4.68945465610284
 11
22.23211946349355
 21
2.18930999539015
  0
LINE
  5
125
100
AcDbEntity
  8
1
  6
CONTINUOUS
 62
             7
100
AcDbLine
 10
16.61149056795833
 20
15.27945232233543
 11
14.97757346291323
 21
12.76344061849918
  0
LINE
  5
124
100
AcDbEntity
  8
1
  6
CONTINUOUS
 62
             7
100
AcDbLine
 10
17.92745019492043
 20
14.37501832843589
 11
15.57630918575055
 21
11.13895035093611
  0
LINE
  5
123
100
AcDbEntity
  8
1
  6
CONTINUOUS
 62
             7
100
AcDbLine
 10
19.19427192702003
 20
13.40295182443762
 11
17.30631075387052
 21
11.07151394006669
  0
LINE
  5
122
100
AcDbEntity
  8
1
  6
CONTINUOUS
 62
             7
100
AcDbLine
 10
20.40848349394517
 20
12.36591717706051
 11
17.73196106850975
 21
9.39333787515093
  0
LINE
  5
121
100
AcDbEntity
  8
1
  6
CONTINUOUS
 62
             7
100
AcDbLine
 10
21.56675682618968
 20
11.26675682618969
 11
19.44543648263004
 21
9.14543648263006
  0
LINE
  5
120
100
AcDbEntity
  8
1
  6
CONTINUOUS
 62
             7
100
AcDbLine
 10
23.70295182443761
 20
8.89427192702004
 11
21.37151394006671
 21
7.00631075387054
  0
LINE
  5
11F
100
AcDbEntity
  8
1
  6
CONTINUOUS
 62
             7
100
AcDbLine
 10
22.66591717706052
 20
10.10848349394519
 11
19.69333787515095
 21
7.43196106850974
  0
LINE
  5
11E
100
AcDbEntity
  8
1
  6
CONTINUOUS
 62
             7
100
AcDbLine
 10
22.66591717706052
 20
10.10848349394519
 11
19.69333787515095
 21
7.43196106850974
  0
LINE
  5
11D
100
AcDbEntity
  8
1
  6
CONTINUOUS
 62
             7
100
AcDbLine
 10
24.6750183284359
 20
7.62745019492041
 11
21.4389503509361
 21
5.27630918575051
  0
LINE
  5
11C
100
AcDbEntity
  8
1
  6
CONTINUOUS
 62
             7
100
AcDbLine
 10
25.57945232233544
 20
6.31149056795834
 11
23.06344061849916
 21
4.67757346291324
  0
LINE
  5
11B
100
AcDbEntity
  8
1
  6
CONTINUOUS
 62
             7
100
AcDbLine
 10
12.48930999539016
 20
11.93211946349354
 11
14.98945465610288
 21
16.26249704212003
  0
LINE
  5
11A
100
AcDbEntity
  8
1
  6
CONTINUOUS
 62
             7
100
AcDbLine
 10
15.50906989837355
 20
15.96249704212002
 11
13.0089252376608
 21
11.63211946349352
  0
LINE
  5
119
100
AcDbEntity
  8
1
  6
CONTINUOUS
 62
             7
100
AcDbLine
 10
1.59624666540978
 20
20.15820081001451
 11
1.43923879668094
 21
17.16231220575077
  0
LINE
  5
118
100
AcDbEntity
  8
1
  6
CONTINUOUS
 62
             7
100
AcDbLine
 10
3.18811812966342
 20
20.03291780873232
 11
2.7700042765928
 21
16.05483022725923
  0
LINE
  5
117
100
AcDbEntity
  8
1
  6
CONTINUOUS
 62
             7
100
AcDbLine
 10
4.77125118372703
 20
19.82449438815169
 11
4.30194778860633
 21
16.86142936636628
  0
LINE
  5
116
100
AcDbEntity
  8
1
  6
CONTINUOUS
 62
             7
100
AcDbLine
 10
6.34130656994165
 20
19.53350182238106
 11
5.50965980667061
 21
15.62091141944583
  0
LINE
  5
115
100
AcDbEntity
  8
1
  6
CONTINUOUS
 62
             7
100
AcDbLine
 10
7.89398087562688
 20
19.16073770181657
 11
7.11752374031931
 21
16.26296022294937
  0
LINE
  5
114
100
AcDbEntity
  8
1
  6
CONTINUOUS
 62
             7
100
AcDbLine
 10
10.93022246113165
 20
18.17420300816465
 11
9.85511861249577
 21
15.37346172867305
  0
LINE
  5
113
100
AcDbEntity
  8
1
  6
CONTINUOUS
 62
             7
100
AcDbLine
 10
9.4250183284359
 20
18.70722374700219
 11
8.1889503509361
 21
14.90299768182157
  0
LINE
  5
112
100
AcDbEntity
  8
1
  6
CONTINUOUS
 62
             7
100
AcDbLine
 10
9.4250183284359
 20
18.70722374700219
 11
8.1889503509361
 21
14.90299768182157
  0
LINE
  5
111
100
AcDbEntity
  8
1
  6
CONTINUOUS
 62
             7
100
AcDbLine
 10
12.40546761381191
 20
17.56313645809934
 11
10.7785210415087
 21
13.90895462752891
  0
LINE
  5
110
100
AcDbEntity
  8
1
  6
CONTINUOUS
 62
             7
100
AcDbLine
 10
13.84671024205616
 20
16.87569898774521
 11
12.48473874283755
 21
14.20267941518011
  0
LINE
  5
10F
100
AcDbEntity
  8
1
  6
CONTINUOUS
 62
             7
100
AcDbLine
 10
-0.29999999999998
 20
15.19823523305092
 11
-0.29999999999998
 21
20.19852455447639
  0
LINE
  5
10E
100
AcDbEntity
  8
1
  6
CONTINUOUS
 62
             7
100
AcDbLine
 10
0.30000000000004
 20
20.19852455447639
 11
0.30000000000001
 21
15.19823523305092
  0
LINE
  5
10D
100
AcDbEntity
  8
1
  6
CONTINUOUS
 62
             7
100
AcDbLine
 10
-13.84671024205619
 20
16.87569898774521
 11
-12.48473874283755
 21
14.20267941518011
  0
LINE
  5
10C
100
AcDbEntity
  8
1
  6
CONTINUOUS
 62
             7
100
AcDbLine
 10
-12.40546761381191
 20
17.56313645809931
 11
-10.7785210415087
 21
13.90895462752891
  0
LINE
  5
10B
100
AcDbEntity
  8
1
  6
CONTINUOUS
 62
             7
100
AcDbLine
 10
-10.93022246113168
 20
18.17420300816465
 11
-9.85511861249577
 21
15.37346172867305
  0
LINE
  5
10A
100
AcDbEntity
  8
1
  6
CONTINUOUS
 62
             7
100
AcDbLine
 10
-9.4250183284359
 20
18.70722374700216
 11
-8.1889503509361
 21
14.90299768182157
  0
LINE
  5
109
100
AcDbEntity
  8
1
  6
CONTINUOUS
 62
             7
100
AcDbLine
 10
-7.89398087562691
 20
19.16073770181657
 11
-7.11752374031934
 21
16.26296022294937
  0
LINE
  5
108
100
AcDbEntity
  8
1
  6
CONTINUOUS
 62
             7
100
AcDbLine
 10
-4.77125118372706
 20
19.82449438815169
 11
-4.30194778860636
 21
16.86142936636628
  0
LINE
  5
107
100
AcDbEntity
  8
1
  6
CONTINUOUS
 62
             7
100
AcDbLine
 10
-6.34130656994165
 20
19.53350182238106
 11
-5.50965980667061
 21
15.62091141944583
  0
LINE
  5
106
100
AcDbEntity
  8
1
  6
CONTINUOUS
 62
             7
100
AcDbLine
 10
-6.34130656994165
 20
19.53350182238106
 11
-5.50965980667061
 21
15.62091141944583
  0
LINE
  5
105
100
AcDbEntity
  8
1
  6
CONTINUOUS
 62
             7
100
AcDbLine
 10
-3.18811812966342
 20
20.03291780873232
 11
-2.7700042765928
 21
16.05483022725923
  0
LINE
  5
104
100
AcDbEntity
  8
1
  6
CONTINUOUS
 62
             7
100
AcDbLine
 10
-1.59624666540978
 20
20.15820081001451
 11
-1.43923879668094
 21
17.16231220575077
  0
LINE
  5
103
100
AcDbEntity
  8
1
  6
CONTINUOUS
 62
             7
100
AcDbLine
 10
-13.00892523766078
 20
11.63211946349355
 11
-15.5090698983735
 21
15.96249704212005
  0
LINE
  5
102
100
AcDbEntity
  8
1
  6
CONTINUOUS
 62
             7
100
AcDbLine
 10
-14.98945465610285
 20
16.26249704212006
 11
-12.48930999539013
 21
11.93211946349354
  0
LINE
  5
101
100
AcDbEntity
  8
1
  6
CONTINUOUS
 62
             7
100
AcDbLine
 10
-25.57945232233544
 20
6.31149056795829
 11
-23.06344061849919
 21
4.67757346291324
  0
LINE
  5
100
100
AcDbEntity
  8
1
  6
CONTINUOUS
 62
             7
100
AcDbLine
 10
-24.6750183284359
 20
7.62745019492041
 11
-21.4389503509361
 21
5.27630918575051
  0
LINE
  5
FF
100
AcDbEntity
  8
1
  6
CONTINUOUS
 62
             7
100
AcDbLine
 10
-23.70295182443763
 20
8.89427192702001
 11
-21.37151394006671
 21
7.00631075387054
  0
LINE
  5
FE
100
AcDbEntity
  8
1
  6
CONTINUOUS
 62
             7
100
AcDbLine
 10
-22.66591717706052
 20
10.10848349394516
 11
-19.69333787515095
 21
7.43196106850974
  0
LINE
  5
FD
100
AcDbEntity
  8
1
  6
CONTINUOUS
 62
             7
100
AcDbLine
 10
-21.5667568261897
 20
11.26675682618969
 11
-19.44543648263007
 21
9.14543648263006
  0
LINE
  5
FC
100
AcDbEntity
  8
1
  6
CONTINUOUS
 62
             7
100
AcDbLine
 10
-19.19427192702003
 20
13.40295182443759
 11
-17.30631075387052
 21
11.07151394006669
  0
LINE
  5
FB
100
AcDbEntity
  8
1
  6
CONTINUOUS
 62
             7
100
AcDbLine
 10
-20.40848349394517
 20
12.36591717706051
 11
-17.73196106850975
 21
9.39333787515093
  0
LINE
  5
FA
100
AcDbEntity
  8
1
  6
CONTINUOUS
 62
             7
100
AcDbLine
 10
-20.40848349394517
 20
12.36591717706051
 11
-17.73196106850975
 21
9.39333787515093
  0
LINE
  5
F9
100
AcDbEntity
  8
1
  6
CONTINUOUS
 62
             7
100
AcDbLine
 10
-17.92745019492043
 20
14.37501832843589
 11
-15.57630918575055
 21
11.13895035093611
  0
LINE
  5
F8
100
AcDbEntity
  8
1
  6
CONTINUOUS
 62
             7
100
AcDbLine
 10
-16.61149056795833
 20
15.27945232233543
 11
-14.97757346291323
 21
12.76344061849918
  0
LINE
  5
F7
100
AcDbEntity
  8
1
  6
CONTINUOUS
 62
             7
100
AcDbLine
 10
-22.23211946349355
 20
2.18930999539015
 11
-26.56249704212003
 21
4.6894546561029
  0
LINE
  5
F6
100
AcDbEntity
  8
1
  6
CONTINUOUS
 62
             7
100
AcDbLine
 10
-26.26249704212003
 20
5.20906989837357
 11
-21.93211946349354
 21
2.70892523766082
  0
LINE
  5
F5
100
AcDbEntity
  8
1
  6
CONTINUOUS
 62
             7
100
AcDbLine
 10
-30.4582008100145
 20
-8.70375333459026
 11
-27.46231220575078
 21
-8.86076120331904
  0
LINE
  5
F4
100
AcDbEntity
  8
1
  6
CONTINUOUS
 62
             7
100
AcDbLine
 10
-30.33291780873233
 20
-7.11188187033656
 11
-26.35483022725924
 21
-7.52999572340718
  0
LINE
  5
F3
100
AcDbEntity
  8
1
  6
CONTINUOUS
 62
             7
100
AcDbLine
 10
-30.1244943881517
 20
-5.52874881627298
 11
-27.16142936636629
 21
-5.99805221139366
  0
LINE
  5
F2
100
AcDbEntity
  8
1
  6
CONTINUOUS
 62
             7
100
AcDbLine
 10
-29.83350182238107
 20
-3.95869343005836
 11
-25.92091141944584
 21
-4.79034019332937
  0
LINE
  5
F1
100
AcDbEntity
  8
1
  6
CONTINUOUS
 62
             7
100
AcDbLine
 10
-29.46073770181658
 20
-2.40601912437313
 11
-26.56296022294939
 21
-3.1824762596807
  0
LINE
  5
F0
100
AcDbEntity
  8
1
  6
CONTINUOUS
 62
             7
100
AcDbLine
 10
-28.47420300816467
 20
0.63022246113167
 11
-25.67346172867305
 21
-0.44488138750427
  0
LINE
  5
EF
100
AcDbEntity
  8
1
  6
CONTINUOUS
 62
             7
100
AcDbLine
 10
-29.00722374700217
 20
-0.87498167156411
 11
-25.20299768182157
 21
-2.11104964906389
  0
LINE
  5
EE
100
AcDbEntity
  8
1
  6
CONTINUOUS
 62
             7
100
AcDbLine
 10
-29.00722374700217
 20
-0.87498167156411
 11
-25.20299768182157
 21
-2.11104964906389
  0
LINE
  5
ED
100
AcDbEntity
  8
1
  6
CONTINUOUS
 62
             7
100
AcDbLine
 10
-27.86313645809933
 20
2.10546761381192
 11
-24.20895462752893
 21
0.47852104150871
  0
LINE
  5
EC
100
AcDbEntity
  8
1
  6
CONTINUOUS
 62
             7
100
AcDbLine
 10
-27.17569898774522
 20
3.54671024205618
 11
-24.50267941518013
 21
2.18473874283751
  0
LINE
  5
EB
100
AcDbEntity
  8
1
  6
CONTINUOUS
 62
             7
100
AcDbLine
 10
-25.49823523305093
 20
-10.59999999999997
 11
-30.4985245544764
 21
-10.59999999999997
  0
LINE
  5
EA
100
AcDbEntity
  8
1
  6
CONTINUOUS
 62
             7
100
AcDbLine
 10
-30.4985245544764
 20
-10.0
 11
-25.49823523305093
 21
-10.0
  0
LINE
  5
E9
100
AcDbEntity
  8
1
  6
CONTINUOUS
 62
             7
100
AcDbLine
 10
-27.17569898774521
 20
-24.1467102420562
 11
-24.50267941518011
 21
-22.78473874283753
  0
LINE
  5
E8
100
AcDbEntity
  8
1
  6
CONTINUOUS
 62
             7
100
AcDbLine
 10
-27.86313645809932
 20
-22.70546761381189
 11
-24.20895462752893
 21
-21.07852104150874
  0
LINE
  5
E7
100
AcDbEntity
  8
1
  6
CONTINUOUS
 62
             7
100
AcDbLine
 10
-28.47420300816465
 20
-21.23022246113169
 11
-25.67346172867305
 21
-20.15511861249576
  0
LINE
  5
E6
100
AcDbEntity
  8
1
  6
CONTINUOUS
 62
             7
100
AcDbLine
 10
-29.00722374700217
 20
-19.72501832843591
 11
-25.20299768182157
 21
-18.48895035093608
  0
LINE
  5
E5
100
AcDbEntity
  8
1
  6
CONTINUOUS
 62
             7
100
AcDbLine
 10
-29.46073770181658
 20
-18.19398087562689
 11
-26.56296022294939
 21
-17.41752374031933
  0
LINE
  5
E4
100
AcDbEntity
  8
1
  6
CONTINUOUS
 62
             7
100
AcDbLine
 10
-30.1244943881517
 20
-15.07125118372704
 11
-27.16142936636629
 21
-14.60194778860637
  0
LINE
  5
E3
100
AcDbEntity
  8
1
  6
CONTINUOUS
 62
             7
100
AcDbLine
 10
-29.83350182238107
 20
-16.64130656994166
 11
-25.92091141944584
 21
-15.80965980667065
  0
LINE
  5
E2
100
AcDbEntity
  8
1
  6
CONTINUOUS
 62
             7
100
AcDbLine
 10
-29.83350182238107
 20
-16.64130656994166
 11
-25.92091141944584
 21
-15.80965980667065
  0
LINE
  5
E1
100
AcDbEntity
  8
1
  6
CONTINUOUS
 62
             7
100
AcDbLine
 10
-30.33291780873233
 20
-13.48811812966341
 11
-26.35483022725924
 21
-13.07000427659284
  0
LINE
  5
E0
100
AcDbEntity
  8
1
  6
CONTINUOUS
 62
             7
100
AcDbLine
 10
-30.45820081001452
 20
-11.89624666540976
 11
-27.46231220575078
 21
-11.73923879668098
  0
LINE
  5
DF
100
AcDbEntity
  8
1
  6
CONTINUOUS
 62
             7
100
AcDbLine
 10
-26.56249704212006
 20
-25.28945465610286
 11
-22.23211946349355
 21
-22.78930999539011
  0
LINE
  5
DE
100
AcDbEntity
  8
1
  6
CONTINUOUS
 62
             7
100
AcDbLine
 10
1.0
 20
7.19999999999999
 11
1.0
 21
4.66662954709574
  0
LINE
  5
DD
100
AcDbEntity
  8
1
  6
CONTINUOUS
 62
             7
100
AcDbLine
 10
0.20000000000002
 20
7.19999999999999
 11
1.0
 21
7.19999999999999
  0
LINE
  5
DC
100
AcDbEntity
  8
1
  6
CONTINUOUS
 62
             7
100
AcDbLine
 10
0.20000000000002
 20
18.69999999999999
 11
0.20000000000002
 21
7.19999999999999
  0
LINE
  5
DB
100
AcDbEntity
  8
1
  6
CONTINUOUS
 62
             7
100
AcDbLine
 10
-1.0
 20
7.19999999999999
 11
-1.0
 21
4.66662954709574
  0
LINE
  5
DA
100
AcDbEntity
  8
1
  6
CONTINUOUS
 62
             7
100
AcDbLine
 10
-0.20000000000002
 20
7.19999999999999
 11
-1.0
 21
7.19999999999999
  0
LINE
  5
D9
100
AcDbEntity
  8
1
  6
CONTINUOUS
 62
             7
100
AcDbLine
 10
-0.20000000000002
 20
18.69999999999999
 11
-0.20000000000002
 21
7.19999999999999
  0
LINE
  5
D8
100
AcDbEntity
  8
1
  6
CONTINUOUS
 62
             7
100
AcDbLine
 10
1.5
 20
18.69999999999999
 11
3.97516417739936
 21
9.46256153287118
  0
LINE
  5
D7
100
AcDbEntity
  8
1
  6
CONTINUOUS
 62
             7
100
AcDbLine
 10
-1.5
 20
18.69999999999999
 11
1.5
 21
18.69999999999999
  0
LINE
  5
D6
100
AcDbEntity
  8
1
  6
CONTINUOUS
 62
             7
100
AcDbLine
 10
-3.97516417739936
 20
9.46256153287118
 11
-1.5
 21
18.69999999999999
  0
LINE
  5
D5
100
AcDbEntity
  8
1
  6
CONTINUOUS
 62
             7
100
AcDbLine
 10
10.552656521779
 20
-0.79834538970425
 11
11.1471723821609
 21
-0.26304090461713
  0
LINE
  5
D4
100
AcDbEntity
  8
1
  6
CONTINUOUS
 62
             7
100
AcDbLine
 10
9.43980586574756
 20
1.35718942185451
 11
8.9363495529077
 21
0.73547265268894
  0
LINE
  5
D3
100
AcDbEntity
  8
1
  6
CONTINUOUS
 62
             7
100
AcDbLine
 10
13.50500253139117
 20
-5.91195867987574
 11
14.26584774442731
 21
-5.6647450843758
  0
LINE
  5
D2
100
AcDbEntity
  8
1
  6
CONTINUOUS
 62
             7
100
AcDbLine
 10
13.36509786282554
 20
-3.49014250390684
 11
12.65229264347482
 21
-3.85333490369845
  0
LINE
  5
D1
100
AcDbEntity
  8
1
  6
CONTINUOUS
 62
             7
100
AcDbLine
 10
14.12221091422947
 20
-11.7843041784007
 11
14.91782843052408
 21
-11.86792694901482
  0
LINE
  5
D0
100
AcDbEntity
  8
1
  6
CONTINUOUS
 62
             7
100
AcDbLine
 10
14.97944302131859
 20
-9.51496065635587
 11
14.18053939351495
 21
-9.55682942135024
  0
LINE
  5
CF
100
AcDbEntity
  8
1
  6
CONTINUOUS
 62
             7
100
AcDbLine
 10
12.297560733739
 20
-17.39999999999998
 11
12.99038105676655
 21
-17.80000000000001
  0
LINE
  5
CE
100
AcDbEntity
  8
1
  6
CONTINUOUS
 62
             7
100
AcDbLine
 10
14.00370639745802
 20
-15.67551924317951
 11
13.25684205626027
 21
-15.38882488354329
  0
LINE
  5
CD
100
AcDbEntity
  8
1
  6
CONTINUOUS
 62
             7
100
AcDbLine
 10
8.34655058255311
 20
-21.78804132012425
 11
8.81677878438708
 21
-22.43525491562423
  0
LINE
  5
CC
100
AcDbEntity
  8
1
  6
CONTINUOUS
 62
             7
100
AcDbLine
 10
10.60660171779821
 20
-20.90660171779825
 11
10.04091629284898
 21
-20.34091629284899
  0
LINE
  5
CB
100
AcDbEntity
  8
1
  6
CONTINUOUS
 62
             7
100
AcDbLine
 10
2.95234600961217
 20
-24.18969593042004
 11
3.11867536226637
 21
-24.97221401100705
  0
LINE
  5
CA
100
AcDbEntity
  8
1
  6
CONTINUOUS
 62
             7
100
AcDbLine
 10
5.3755192431795
 20
-24.30370639745803
 11
5.08882488354325
 21
-23.55684205626028
  0
LINE
  5
C9
100
AcDbEntity
  8
1
  6
CONTINUOUS
 62
             7
100
AcDbLine
 10
-2.95234600961217
 20
-24.18969593042004
 11
-3.11867536226637
 21
-24.97221401100705
  0
LINE
  5
C8
100
AcDbEntity
  8
1
  6
CONTINUOUS
 62
             7
100
AcDbLine
 10
-0.78503934364417
 20
-25.27944302131863
 11
-0.7431705786498
 21
-24.48053939351496
  0
LINE
  5
C7
100
AcDbEntity
  8
1
  6
CONTINUOUS
 62
             7
100
AcDbLine
 10
-8.34655058255314
 20
-21.78804132012425
 11
-8.81677878438708
 21
-22.43525491562423
  0
LINE
  5
C6
100
AcDbEntity
  8
1
  6
CONTINUOUS
 62
             7
100
AcDbLine
 10
-6.8098574960932
 20
-23.66509786282552
 11
-6.44666509630159
 21
-22.95229264347483
  0
LINE
  5
C5
100
AcDbEntity
  8
1
  6
CONTINUOUS
 62
             7
100
AcDbLine
 10
-12.29756073373903
 20
-17.39999999999998
 11
-12.99038105676658
 21
-17.80000000000001
  0
LINE
  5
C4
100
AcDbEntity
  8
1
  6
CONTINUOUS
 62
             7
100
AcDbLine
 10
-11.65718942185455
 20
-19.73980586574754
 11
-11.03547265268898
 21
-19.23634955290771
  0
LINE
  5
C3
100
AcDbEntity
  8
1
  6
CONTINUOUS
 62
             7
100
AcDbLine
 10
-14.1222109142295
 20
-11.7843041784007
 11
-14.91782843052411
 21
-11.86792694901482
  0
LINE
  5
C2
100
AcDbEntity
  8
1
  6
CONTINUOUS
 62
             7
100
AcDbLine
 10
-14.48888739433602
 20
-14.18228567653785
 11
-13.71614673330478
 21
-13.97523044045579
  0
LINE
  5
C1
100
AcDbEntity
  8
1
  6
CONTINUOUS
 62
             7
100
AcDbLine
 10
-13.50500253139117
 20
-5.91195867987574
 11
-14.26584774442731
 21
-5.6647450843758
  0
LINE
  5
C0
100
AcDbEntity
  8
1
  6
CONTINUOUS
 62
             7
100
AcDbLine
 10
-14.81532510892706
 20
-7.95348302439652
 11
-14.02517443645095
 21
-8.07863059642875
  0
LINE
  5
BF
100
AcDbEntity
  8
1
  6
CONTINUOUS
 62
             7
100
AcDbLine
 10
-10.552656521779
 20
-0.7983453897042
 11
-11.1471723821609
 21
-0.26304090461713
  0
LINE
  5
BE
100
AcDbEntity
  8
1
  6
CONTINUOUS
 62
             7
100
AcDbLine
 10
-12.58005851918136
 20
-2.13041447477463
 11
-11.90912206482503
 21
-2.56612570278662
  0
LINE
  5
BD
100
AcDbEntity
  8
1
  6
CONTINUOUS
 62
             7
100
AcDbLine
 10
-5.77566033167636
 20
2.67234549852492
 11
-6.101049646137
 21
3.40318186463901
  0
LINE
  5
BC
100
AcDbEntity
  8
1
  6
CONTINUOUS
 62
             7
100
AcDbLine
 10
-8.16958552522541
 20
2.28005851918135
 11
-7.73387429721336
 21
1.60912206482499
  0
LINE
  5
BB
100
AcDbEntity
  8
1
  6
CONTINUOUS
 62
             7
100
AcDbLine
 10
0.0
 20
3.89999999999998
 11
0.0
 21
4.69999999999999
  0
LINE
  5
BA
100
AcDbEntity
  8
1
  6
CONTINUOUS
 62
             7
100
AcDbLine
 10
-2.34651697560346
 20
4.51532510892707
 11
-2.22136940357129
 21
3.72517443645097
  0
LINE
  5
B9
100
AcDbEntity
  8
1
  6
CONTINUOUS
 62
             7
100
AcDbLine
 10
5.77566033167636
 20
2.67234549852492
 11
6.101049646137
 21
3.40318186463901
  0
LINE
  5
B8
100
AcDbEntity
  8
1
  6
CONTINUOUS
 62
             7
100
AcDbLine
 10
3.8822856765378
 20
4.18888739433601
 11
3.67523044045581
 21
3.41614673330474
  0
LINE
  5
B7
100
AcDbEntity
  8
1
  6
CONTINUOUS
 62
             7
100
AcDbLine
 10
-46.0
 20
46.0
 11
-46.0
 21
-46.0
  0
LINE
  5
B6
100
AcDbEntity
  8
1
  6
CONTINUOUS
 62
             7
100
AcDbLine
 10
-46.0
 20
41.69999999999999
 11
46.0
 21
41.69999999999999
  0
LINE
  5
B5
100
AcDbEntity
  8
1
  6
CONTINUOUS
 62
             7
100
AcDbLine
 10
-46.0
 20
21.69999999999999
 11
46.0
 21
21.69999999999999
  0
LINE
  5
B4
100
AcDbEntity
  8
1
  6
CONTINUOUS
 62
             7
100
AcDbLine
 10
46.0
 20
46.0
 11
-46.0
 21
46.0
  0
LINE
  5
B3
100
AcDbEntity
  8
1
  6
CONTINUOUS
 62
             7
100
AcDbLine
 10
-46.0
 20
-29.0
 11
46.0
 21
-29.0
  0
LINE
  5
B2
100
AcDbEntity
  8
1
  6
CONTINUOUS
 62
             7
100
AcDbLine
 10
-46.0
 20
-28.0
 11
46.0
 21
-28.0
  0
LINE
  5
B1
100
AcDbEntity
  8
1
  6
CONTINUOUS
 62
             7
100
AcDbLine
 10
99.02097567425064
 20
-34.5
 11
99.99999999999999
 21
-34.5
  0
LINE
  5
B0
100
AcDbEntity
  8
1
  6
CONTINUOUS
 62
             7
100
AcDbLine
 10
99.99999999999999
 20
-41.5
 11
99.02097567425064
 21
-41.5
  0
LINE
  5
AF
100
AcDbEntity
  8
1
  6
CONTINUOUS
 62
             7
100
AcDbLine
 10
98.99999999999999
 20
-25.30000000000001
 11
99.99999999999999
 21
-25.30000000000001
  0
LINE
  5
AE
100
AcDbEntity
  8
1
  6
CONTINUOUS
 62
             7
100
AcDbLine
 10
98.99999999999999
 20
1.5224236047045
 11
99.99999999999999
 21
1.5224236047045
  0
LINE
  5
AD
100
AcDbEntity
  8
1
  6
CONTINUOUS
 62
             7
100
AcDbLine
 10
98.99999999999999
 20
4.69999999999999
 11
99.99999999999999
 21
4.69999999999999
  0
LINE
  5
AC
100
AcDbEntity
  8
1
  6
CONTINUOUS
 62
             7
100
AcDbLine
 10
97.49999999999999
 20
-24.97221401100705
 11
89.29958886042637
 21
-24.79162299404248
  0
LINE
  5
AB
100
AcDbEntity
  8
1
  6
CONTINUOUS
 62
             7
100
AcDbLine
 10
97.49999999999999
 20
-24.30370639745803
 11
97.49999999999999
 21
-24.97221401100705
  0
LINE
  5
AA
100
AcDbEntity
  8
1
  6
CONTINUOUS
 62
             7
100
AcDbLine
 10
88.99999999999999
 20
-24.30370639745803
 11
97.49999999999999
 21
-24.30370639745803
  0
LINE
  5
A9
100
AcDbEntity
  8
1
  6
CONTINUOUS
 62
             7
100
AcDbLine
 10
97.49999999999999
 20
-22.43525491562423
 11
88.99999999999999
 21
-22.43525491562423
  0
LINE
  5
A8
100
AcDbEntity
  8
1
  6
CONTINUOUS
 62
             7
100
AcDbLine
 10
97.49999999999999
 20
-20.90660171779825
 11
97.49999999999999
 21
-22.43525491562423
  0
LINE
  5
A7
100
AcDbEntity
  8
1
  6
CONTINUOUS
 62
             7
100
AcDbLine
 10
88.99999999999999
 20
-20.90660171779825
 11
97.49999999999999
 21
-20.90660171779825
  0
LINE
  5
A6
100
AcDbEntity
  8
1
  6
CONTINUOUS
 62
             7
100
AcDbLine
 10
97.49999999999999
 20
-17.80000000000001
 11
88.99999999999999
 21
-17.80000000000001
  0
LINE
  5
A5
100
AcDbEntity
  8
1
  6
CONTINUOUS
 62
             7
100
AcDbLine
 10
97.49999999999999
 20
-15.67551924317951
 11
97.49999999999999
 21
-17.80000000000001
  0
LINE
  5
A4
100
AcDbEntity
  8
1
  6
CONTINUOUS
 62
             7
100
AcDbLine
 10
88.99999999999999
 20
-15.67551924317951
 11
97.49999999999999
 21
-15.67551924317951
  0
LINE
  5
A3
100
AcDbEntity
  8
1
  6
CONTINUOUS
 62
             7
100
AcDbLine
 10
97.49999999999999
 20
-11.86792694901482
 11
88.99999999999999
 21
-11.86792694901482
  0
LINE
  5
A2
100
AcDbEntity
  8
1
  6
CONTINUOUS
 62
             7
100
AcDbLine
 10
97.49999999999999
 20
-9.51496065635587
 11
97.49999999999999
 21
-11.86792694901482
  0
LINE
  5
A1
100
AcDbEntity
  8
1
  6
CONTINUOUS
 62
             7
100
AcDbLine
 10
88.99999999999999
 20
-9.51496065635587
 11
97.49999999999999
 21
-9.51496065635587
  0
LINE
  5
A0
100
AcDbEntity
  8
1
  6
CONTINUOUS
 62
             7
100
AcDbLine
 10
97.49999999999999
 20
-5.6647450843758
 11
88.99999999999999
 21
-5.6647450843758
  0
LINE
  5
9F
100
AcDbEntity
  8
1
  6
CONTINUOUS
 62
             7
100
AcDbLine
 10
97.49999999999999
 20
-3.49014250390684
 11
97.49999999999999
 21
-5.6647450843758
  0
LINE
  5
9E
100
AcDbEntity
  8
1
  6
CONTINUOUS
 62
             7
100
AcDbLine
 10
88.99999999999999
 20
-3.49014250390684
 11
97.49999999999999
 21
-3.49014250390684
  0
LINE
  5
9D
100
AcDbEntity
  8
1
  6
CONTINUOUS
 62
             7
100
AcDbLine
 10
97.49999999999999
 20
-0.26304090461713
 11
88.99999999999999
 21
-0.26304090461713
  0
LINE
  5
9C
100
AcDbEntity
  8
1
  6
CONTINUOUS
 62
             7
100
AcDbLine
 10
97.49999999999999
 20
1.35718942185451
 11
97.49999999999999
 21
-0.26304090461713
  0
LINE
  5
9B
100
AcDbEntity
  8
1
  6
CONTINUOUS
 62
             7
100
AcDbLine
 10
88.99999999999999
 20
1.35718942185451
 11
97.49999999999999
 21
1.35718942185451
  0
LINE
  5
9A
100
AcDbEntity
  8
1
  6
CONTINUOUS
 62
             7
100
AcDbLine
 10
97.49999999999999
 20
4.18888739433601
 11
89.29958886042637
 21
4.19162299404246
  0
LINE
  5
99
100
AcDbEntity
  8
1
  6
CONTINUOUS
 62
             7
100
AcDbLine
 10
97.49999999999999
 20
3.40318186463901
 11
97.49999999999999
 21
4.18888739433601
  0
LINE
  5
98
100
AcDbEntity
  8
1
  6
CONTINUOUS
 62
             7
100
AcDbLine
 10
88.99999999999999
 20
3.40318186463901
 11
97.49999999999999
 21
3.40318186463901
  0
LINE
  5
97
100
AcDbEntity
  8
1
  6
CONTINUOUS
 62
             7
100
AcDbLine
 10
88.99999999999999
 20
-24.47592220716956
 11
89.29958886042637
 21
-24.79162299404248
  0
LINE
  5
96
100
AcDbEntity
  8
1
  6
CONTINUOUS
 62
             7
100
AcDbLine
 10
88.99999999999999
 20
3.87592220716959
 11
89.29958886042637
 21
4.19162299404246
  0
LINE
  5
95
100
AcDbEntity
  8
1
  6
CONTINUOUS
 62
             7
100
AcDbLine
 10
88.99999999999999
 20
3.87592220716959
 11
88.99999999999999
 21
-24.47592220716956
  0
LINE
  5
94
100
AcDbEntity
  8
1
  6
CONTINUOUS
 62
             7
100
AcDbLine
 10
98.99999999999999
 20
-25.30000000000001
 11
89.29958886042637
 21
-24.79162299404248
  0
LINE
  5
93
100
AcDbEntity
  8
1
  6
CONTINUOUS
 62
             7
100
AcDbLine
 10
89.29958886042637
 20
4.19162299404246
 11
98.99999999999999
 21
4.69999999999999
  0
LINE
  5
92
100
AcDbEntity
  8
1
  6
CONTINUOUS
 62
             7
100
AcDbLine
 10
99.99999999999999
 20
-28.0
 11
99.39999999999999
 21
-28.0
  0
LINE
  5
91
100
AcDbEntity
  8
1
  6
CONTINUOUS
 62
             7
100
AcDbLine
 10
99.39999999999999
 20
-28.0
 11
99.39999999999999
 21
-29.0
  0
LINE
  5
90
100
AcDbEntity
  8
1
  6
CONTINUOUS
 62
             7
100
AcDbLine
 10
99.39999999999999
 20
-29.0
 11
99.99999999999999
 21
-29.0
  0
LINE
  5
8F
100
AcDbEntity
  8
1
  6
CONTINUOUS
 62
             7
100
AcDbLine
 10
98.99999999999999
 20
4.69999999999999
 11
98.99999999999999
 21
-25.30000000000001
  0
LINE
  5
8E
100
AcDbEntity
  8
1
  6
CONTINUOUS
 62
             7
100
AcDbLine
 10
-21.93211946349354
 20
-23.30892523766079
 11
-26.26249704212006
 21
-25.80906989837354
  0
LINE
  5
8D
100
AcDbEntity
  8
1
  6
CONTINUOUS
 62
             7
100
AcDbLine
 10
-16.42442575039191
 20
32.4785575219373
 11
-15.32363669516802
 21
38.72144247806268
  0
LINE
  5
8C
100
AcDbEntity
  8
1
  6
CONTINUOUS
 62
             7
100
AcDbLine
 10
-15.889353466474
 20
31.84088320528054
 11
-16.42442575039191
 21
32.4785575219373
  0
LINE
  5
8B
100
AcDbEntity
  8
1
  6
CONTINUOUS
 62
             7
100
AcDbLine
 10
-15.10002445388228
 20
32.50320888862379
 11
-15.889353466474
 21
31.84088320528054
  0
LINE
  5
8A
100
AcDbEntity
  8
1
  6
CONTINUOUS
 62
             7
100
AcDbLine
 10
-14.23280717463756
 20
37.42144247806268
 11
-15.10002445388228
 21
32.50320888862379
  0
LINE
  5
89
100
AcDbEntity
  8
1
  6
CONTINUOUS
 62
             7
100
AcDbLine
 10
-15.32363669516802
 20
38.72144247806268
 11
-14.23280717463756
 21
37.42144247806268
  0
LINE
  5
88
100
AcDbEntity
  8
1
  6
CONTINUOUS
 62
             7
100
AcDbLine
 10
-14.07959828601376
 20
37.54999999999999
 11
-15.17042780654423
 21
38.84999999999999
  0
LINE
  5
87
100
AcDbEntity
  8
1
  6
CONTINUOUS
 62
             7
100
AcDbLine
 10
-8.88240769345001
 20
37.54999999999999
 11
-14.07959828601376
 21
37.54999999999999
  0
LINE
  5
86
100
AcDbEntity
  8
1
  6
CONTINUOUS
 62
             7
100
AcDbLine
 10
-7.33312802307753
 20
38.84999999999999
 11
-8.88240769345001
 21
37.54999999999999
  0
LINE
  5
85
100
AcDbEntity
  8
1
  6
CONTINUOUS
 62
             7
100
AcDbLine
 10
-15.17042780654423
 20
38.84999999999999
 11
-7.33312802307753
 21
38.84999999999999
  0
LINE
  5
84
100
AcDbEntity
  8
1
  6
CONTINUOUS
 62
             7
100
AcDbLine
 10
-8.29666615424779
 20
32.50320888862378
 11
-7.20457050114022
 21
38.69679111137619
  0
LINE
  5
83
100
AcDbEntity
  8
1
  6
CONTINUOUS
 62
             7
100
AcDbLine
 10
-9.08599516683951
 20
31.84088320528054
 11
-8.29666615424779
 21
32.50320888862378
  0
LINE
  5
82
100
AcDbEntity
  8
1
  6
CONTINUOUS
 62
             7
100
AcDbLine
 10
-9.62106745075742
 20
32.4785575219373
 11
-9.08599516683951
 21
31.84088320528054
  0
LINE
  5
81
100
AcDbEntity
  8
1
  6
CONTINUOUS
 62
             7
100
AcDbLine
 10
-8.7538501715127
 20
37.3967911113762
 11
-9.62106745075742
 21
32.4785575219373
  0
LINE
  5
80
100
AcDbEntity
  8
1
  6
CONTINUOUS
 62
             7
100
AcDbLine
 10
-7.20457050114022
 20
38.69679111137619
 11
-8.7538501715127
 21
37.3967911113762
  0
LINE
  5
7F
100
AcDbEntity
  8
1
  6
CONTINUOUS
 62
             7
100
AcDbLine
 10
-9.89997554611772
 20
30.8967911113762
 11
-9.11064653352599
 21
31.55911679471944
  0
LINE
  5
7E
100
AcDbEntity
  8
1
  6
CONTINUOUS
 62
             7
100
AcDbLine
 10
-10.76719282536244
 20
25.9785575219373
 11
-9.89997554611772
 21
30.8967911113762
  0
LINE
  5
7D
100
AcDbEntity
  8
1
  6
CONTINUOUS
 62
             7
100
AcDbLine
 10
-9.67636330483198
 20
24.6785575219373
 11
-10.76719282536244
 21
25.9785575219373
  0
LINE
  5
7C
100
AcDbEntity
  8
1
  6
CONTINUOUS
 62
             7
100
AcDbLine
 10
-8.57557424960809
 20
30.92144247806268
 11
-9.67636330483198
 21
24.6785575219373
  0
LINE
  5
7B
100
AcDbEntity
  8
1
  6
CONTINUOUS
 62
             7
100
AcDbLine
 10
-9.11064653352599
 20
31.55911679471944
 11
-8.57557424960809
 21
30.92144247806268
  0
LINE
  5
7A
100
AcDbEntity
  8
1
  6
CONTINUOUS
 62
             7
100
AcDbLine
 10
-17.66687197692247
 20
24.54999999999999
 11
-16.11759230654999
 21
25.84999999999999
  0
LINE
  5
79
100
AcDbEntity
  8
1
  6
CONTINUOUS
 62
             7
100
AcDbLine
 10
-9.82957219345577
 20
24.54999999999999
 11
-17.66687197692247
 21
24.54999999999999
  0
LINE
  5
78
100
AcDbEntity
  8
1
  6
CONTINUOUS
 62
             7
100
AcDbLine
 10
-10.92040171398624
 20
25.84999999999999
 11
-9.82957219345577
 21
24.54999999999999
  0
LINE
  5
77
100
AcDbEntity
  8
1
  6
CONTINUOUS
 62
             7
100
AcDbLine
 10
-16.11759230654999
 20
25.84999999999999
 11
-10.92040171398624
 21
25.84999999999999
  0
LINE
  5
76
100
AcDbEntity
  8
1
  6
CONTINUOUS
 62
             7
100
AcDbLine
 10
-16.70333384575222
 20
30.89679111137619
 11
-17.79542949885978
 21
24.70320888862378
  0
LINE
  5
75
100
AcDbEntity
  8
1
  6
CONTINUOUS
 62
             7
100
AcDbLine
 10
-15.91400483316049
 20
31.55911679471944
 11
-16.70333384575222
 21
30.89679111137619
  0
LINE
  5
74
100
AcDbEntity
  8
1
  6
CONTINUOUS
 62
             7
100
AcDbLine
 10
-15.37893254924258
 20
30.92144247806268
 11
-15.91400483316049
 21
31.55911679471944
  0
LINE
  5
73
100
AcDbEntity
  8
1
  6
CONTINUOUS
 62
             7
100
AcDbLine
 10
-16.2461498284873
 20
26.00320888862378
 11
-15.37893254924258
 21
30.92144247806268
  0
LINE
  5
72
100
AcDbEntity
  8
1
  6
CONTINUOUS
 62
             7
100
AcDbLine
 10
-17.79542949885978
 20
24.70320888862378
 11
-16.2461498284873
 21
26.00320888862378
  0
LINE
  5
71
100
AcDbEntity
  8
1
  6
CONTINUOUS
 62
             7
100
AcDbLine
 10
-14.97146693194497
 20
32.34999999999999
 11
-15.76079594453669
 21
31.68767431665675
  0
LINE
  5
70
100
AcDbEntity
  8
1
  6
CONTINUOUS
 62
             7
100
AcDbLine
 10
-15.22572366061879
 20
31.04999999999999
 11
-15.76079594453669
 21
31.68767431665675
  0
LINE
  5
6F
100
AcDbEntity
  8
1
  6
CONTINUOUS
 62
             7
100
AcDbLine
 10
-10.02853306805503
 20
31.04999999999999
 11
-15.22572366061879
 21
31.04999999999999
  0
LINE
  5
6E
100
AcDbEntity
  8
1
  6
CONTINUOUS
 62
             7
100
AcDbLine
 10
-9.2392040554633
 20
31.71232568334323
 11
-10.02853306805503
 21
31.04999999999999
  0
LINE
  5
6D
100
AcDbEntity
  8
1
  6
CONTINUOUS
 62
             7
100
AcDbLine
 10
-9.77427633938122
 20
32.34999999999999
 11
-9.2392040554633
 21
31.71232568334323
  0
LINE
  5
6C
100
AcDbEntity
  8
1
  6
CONTINUOUS
 62
             7
100
AcDbLine
 10
-14.97146693194497
 20
32.34999999999999
 11
-9.77427633938122
 21
32.34999999999999
  0
LINE
  5
6B
100
AcDbEntity
  8
1
  6
CONTINUOUS
 62
             7
100
AcDbLine
 10
8.57557424960809
 20
32.4785575219373
 11
9.67636330483198
 21
38.72144247806268
  0
LINE
  5
6A
100
AcDbEntity
  8
1
  6
CONTINUOUS
 62
             7
100
AcDbLine
 10
9.110646533526
 20
31.84088320528054
 11
8.57557424960809
 21
32.4785575219373
  0
LINE
  5
69
100
AcDbEntity
  8
1
  6
CONTINUOUS
 62
             7
100
AcDbLine
 10
9.89997554611772
 20
32.50320888862379
 11
9.110646533526
 21
31.84088320528054
  0
LINE
  5
68
100
AcDbEntity
  8
1
  6
CONTINUOUS
 62
             7
100
AcDbLine
 10
10.76719282536244
 20
37.42144247806268
 11
9.89997554611772
 21
32.50320888862379
  0
LINE
  5
67
100
AcDbEntity
  8
1
  6
CONTINUOUS
 62
             7
100
AcDbLine
 10
9.67636330483198
 20
38.72144247806268
 11
10.76719282536244
 21
37.42144247806268
  0
LINE
  5
66
100
AcDbEntity
  8
1
  6
CONTINUOUS
 62
             7
100
AcDbLine
 10
10.92040171398624
 20
37.54999999999999
 11
9.82957219345577
 21
38.84999999999999
  0
LINE
  5
65
100
AcDbEntity
  8
1
  6
CONTINUOUS
 62
             7
100
AcDbLine
 10
16.11759230654999
 20
37.54999999999999
 11
10.92040171398624
 21
37.54999999999999
  0
LINE
  5
64
100
AcDbEntity
  8
1
  6
CONTINUOUS
 62
             7
100
AcDbLine
 10
17.66687197692247
 20
38.84999999999999
 11
16.11759230654999
 21
37.54999999999999
  0
LINE
  5
63
100
AcDbEntity
  8
1
  6
CONTINUOUS
 62
             7
100
AcDbLine
 10
9.82957219345577
 20
38.84999999999999
 11
17.66687197692247
 21
38.84999999999999
  0
LINE
  5
62
100
AcDbEntity
  8
1
  6
CONTINUOUS
 62
             7
100
AcDbLine
 10
16.70333384575222
 20
32.50320888862378
 11
17.79542949885977
 21
38.69679111137619
  0
LINE
  5
61
100
AcDbEntity
  8
1
  6
CONTINUOUS
 62
             7
100
AcDbLine
 10
15.91400483316049
 20
31.84088320528054
 11
16.70333384575222
 21
32.50320888862378
  0
LINE
  5
60
100
AcDbEntity
  8
1
  6
CONTINUOUS
 62
             7
100
AcDbLine
 10
15.37893254924258
 20
32.4785575219373
 11
15.91400483316049
 21
31.84088320528054
  0
LINE
  5
5F
100
AcDbEntity
  8
1
  6
CONTINUOUS
 62
             7
100
AcDbLine
 10
16.2461498284873
 20
37.3967911113762
 11
15.37893254924258
 21
32.4785575219373
  0
LINE
  5
5E
100
AcDbEntity
  8
1
  6
CONTINUOUS
 62
             7
100
AcDbLine
 10
17.79542949885977
 20
38.69679111137619
 11
16.2461498284873
 21
37.3967911113762
  0
LINE
  5
5D
100
AcDbEntity
  8
1
  6
CONTINUOUS
 62
             7
100
AcDbLine
 10
15.10002445388228
 20
30.8967911113762
 11
15.889353466474
 21
31.55911679471944
  0
LINE
  5
5C
100
AcDbEntity
  8
1
  6
CONTINUOUS
 62
             7
100
AcDbLine
 10
14.23280717463756
 20
25.9785575219373
 11
15.10002445388228
 21
30.8967911113762
  0
LINE
  5
5B
100
AcDbEntity
  8
1
  6
CONTINUOUS
 62
             7
100
AcDbLine
 10
15.32363669516802
 20
24.6785575219373
 11
14.23280717463756
 21
25.9785575219373
  0
LINE
  5
5A
100
AcDbEntity
  8
1
  6
CONTINUOUS
 62
             7
100
AcDbLine
 10
16.42442575039191
 20
30.92144247806268
 11
15.32363669516802
 21
24.6785575219373
  0
LINE
  5
59
100
AcDbEntity
  8
1
  6
CONTINUOUS
 62
             7
100
AcDbLine
 10
15.889353466474
 20
31.55911679471944
 11
16.42442575039191
 21
30.92144247806268
  0
LINE
  5
58
100
AcDbEntity
  8
1
  6
CONTINUOUS
 62
             7
100
AcDbLine
 10
7.33312802307753
 20
24.54999999999999
 11
8.88240769345001
 21
25.84999999999999
  0
LINE
  5
57
100
AcDbEntity
  8
1
  6
CONTINUOUS
 62
             7
100
AcDbLine
 10
15.17042780654423
 20
24.54999999999999
 11
7.33312802307753
 21
24.54999999999999
  0
LINE
  5
56
100
AcDbEntity
  8
1
  6
CONTINUOUS
 62
             7
100
AcDbLine
 10
14.07959828601376
 20
25.84999999999999
 11
15.17042780654423
 21
24.54999999999999
  0
LINE
  5
55
100
AcDbEntity
  8
1
  6
CONTINUOUS
 62
             7
100
AcDbLine
 10
8.88240769345001
 20
25.84999999999999
 11
14.07959828601376
 21
25.84999999999999
  0
LINE
  5
54
100
AcDbEntity
  8
1
  6
CONTINUOUS
 62
             7
100
AcDbLine
 10
8.29666615424778
 20
30.89679111137619
 11
7.20457050114023
 21
24.70320888862378
  0
LINE
  5
53
100
AcDbEntity
  8
1
  6
CONTINUOUS
 62
             7
100
AcDbLine
 10
9.08599516683951
 20
31.55911679471944
 11
8.29666615424778
 21
30.89679111137619
  0
LINE
  5
52
100
AcDbEntity
  8
1
  6
CONTINUOUS
 62
             7
100
AcDbLine
 10
9.62106745075742
 20
30.92144247806268
 11
9.08599516683951
 21
31.55911679471944
  0
LINE
  5
51
100
AcDbEntity
  8
1
  6
CONTINUOUS
 62
             7
100
AcDbLine
 10
8.7538501715127
 20
26.00320888862378
 11
9.62106745075742
 21
30.92144247806268
  0
LINE
  5
50
100
AcDbEntity
  8
1
  6
CONTINUOUS
 62
             7
100
AcDbLine
 10
7.20457050114023
 20
24.70320888862378
 11
8.7538501715127
 21
26.00320888862378
  0
LINE
  5
4F
100
AcDbEntity
  8
1
  6
CONTINUOUS
 62
             7
100
AcDbLine
 10
10.02853306805503
 20
32.34999999999999
 11
9.2392040554633
 21
31.68767431665675
  0
LINE
  5
4E
100
AcDbEntity
  8
1
  6
CONTINUOUS
 62
             7
100
AcDbLine
 10
9.77427633938121
 20
31.04999999999999
 11
9.2392040554633
 21
31.68767431665675
  0
LINE
  5
4D
100
AcDbEntity
  8
1
  6
CONTINUOUS
 62
             7
100
AcDbLine
 10
14.97146693194497
 20
31.04999999999999
 11
9.77427633938121
 21
31.04999999999999
  0
LINE
  5
4C
100
AcDbEntity
  8
1
  6
CONTINUOUS
 62
             7
100
AcDbLine
 10
15.76079594453669
 20
31.71232568334323
 11
14.97146693194497
 21
31.04999999999999
  0
LINE
  5
4B
100
AcDbEntity
  8
1
  6
CONTINUOUS
 62
             7
100
AcDbLine
 10
15.22572366061879
 20
32.34999999999999
 11
15.76079594453669
 21
31.71232568334323
  0
LINE
  5
4A
100
AcDbEntity
  8
1
  6
CONTINUOUS
 62
             7
100
AcDbLine
 10
10.02853306805503
 20
32.34999999999999
 11
15.22572366061879
 21
32.34999999999999
  0
LINE
  5
49
100
AcDbEntity
  8
1
  6
CONTINUOUS
 62
             7
100
AcDbLine
 10
-3.92442575039191
 20
32.4785575219373
 11
-2.82363669516802
 21
38.72144247806268
  0
LINE
  5
48
100
AcDbEntity
  8
1
  6
CONTINUOUS
 62
             7
100
AcDbLine
 10
-3.389353466474
 20
31.84088320528054
 11
-3.92442575039191
 21
32.4785575219373
  0
LINE
  5
47
100
AcDbEntity
  8
1
  6
CONTINUOUS
 62
             7
100
AcDbLine
 10
-2.60002445388228
 20
32.50320888862379
 11
-3.389353466474
 21
31.84088320528054
  0
LINE
  5
46
100
AcDbEntity
  8
1
  6
CONTINUOUS
 62
             7
100
AcDbLine
 10
-1.73280717463756
 20
37.42144247806268
 11
-2.60002445388228
 21
32.50320888862379
  0
LINE
  5
45
100
AcDbEntity
  8
1
  6
CONTINUOUS
 62
             7
100
AcDbLine
 10
-2.82363669516802
 20
38.72144247806268
 11
-1.73280717463756
 21
37.42144247806268
  0
LINE
  5
44
100
AcDbEntity
  8
1
  6
CONTINUOUS
 62
             7
100
AcDbLine
 10
-1.57959828601376
 20
37.54999999999999
 11
-2.67042780654422
 21
38.84999999999999
  0
LINE
  5
43
100
AcDbEntity
  8
1
  6
CONTINUOUS
 62
             7
100
AcDbLine
 10
3.61759230654999
 20
37.54999999999999
 11
-1.57959828601376
 21
37.54999999999999
  0
LINE
  5
42
100
AcDbEntity
  8
1
  6
CONTINUOUS
 62
             7
100
AcDbLine
 10
5.16687197692247
 20
38.84999999999999
 11
3.61759230654999
 21
37.54999999999999
  0
LINE
  5
41
100
AcDbEntity
  8
1
  6
CONTINUOUS
 62
             7
100
AcDbLine
 10
-2.67042780654422
 20
38.84999999999999
 11
5.16687197692247
 21
38.84999999999999
  0
LINE
  5
40
100
AcDbEntity
  8
1
  6
CONTINUOUS
 62
             7
100
AcDbLine
 10
4.20333384575222
 20
32.50320888862378
 11
5.29542949885977
 21
38.69679111137619
  0
LINE
  5
3F
100
AcDbEntity
  8
1
  6
CONTINUOUS
 62
             7
100
AcDbLine
 10
3.41400483316049
 20
31.84088320528054
 11
4.20333384575222
 21
32.50320888862378
  0
LINE
  5
3E
100
AcDbEntity
  8
1
  6
CONTINUOUS
 62
             7
100
AcDbLine
 10
2.87893254924258
 20
32.4785575219373
 11
3.41400483316049
 21
31.84088320528054
  0
LINE
  5
3D
100
AcDbEntity
  8
1
  6
CONTINUOUS
 62
             7
100
AcDbLine
 10
3.7461498284873
 20
37.3967911113762
 11
2.87893254924258
 21
32.4785575219373
  0
LINE
  5
3C
100
AcDbEntity
  8
1
  6
CONTINUOUS
 62
             7
100
AcDbLine
 10
5.29542949885977
 20
38.69679111137619
 11
3.7461498284873
 21
37.3967911113762
  0
LINE
  5
3B
100
AcDbEntity
  8
1
  6
CONTINUOUS
 62
             7
100
AcDbLine
 10
2.60002445388228
 20
30.8967911113762
 11
3.389353466474
 21
31.55911679471944
  0
LINE
  5
3A
100
AcDbEntity
  8
1
  6
CONTINUOUS
 62
             7
100
AcDbLine
 10
1.73280717463756
 20
25.9785575219373
 11
2.60002445388228
 21
30.8967911113762
  0
LINE
  5
39
100
AcDbEntity
  8
1
  6
CONTINUOUS
 62
             7
100
AcDbLine
 10
2.82363669516802
 20
24.6785575219373
 11
1.73280717463756
 21
25.9785575219373
  0
LINE
  5
38
100
AcDbEntity
  8
1
  6
CONTINUOUS
 62
             7
100
AcDbLine
 10
3.92442575039191
 20
30.92144247806268
 11
2.82363669516802
 21
24.6785575219373
  0
LINE
  5
37
100
AcDbEntity
  8
1
  6
CONTINUOUS
 62
             7
100
AcDbLine
 10
3.389353466474
 20
31.55911679471944
 11
3.92442575039191
 21
30.92144247806268
  0
LINE
  5
36
100
AcDbEntity
  8
1
  6
CONTINUOUS
 62
             7
100
AcDbLine
 10
-5.16687197692247
 20
24.54999999999999
 11
-3.61759230654999
 21
25.84999999999999
  0
LINE
  5
35
100
AcDbEntity
  8
1
  6
CONTINUOUS
 62
             7
100
AcDbLine
 10
2.67042780654422
 20
24.54999999999999
 11
-5.16687197692247
 21
24.54999999999999
  0
LINE
  5
34
100
AcDbEntity
  8
1
  6
CONTINUOUS
 62
             7
100
AcDbLine
 10
1.57959828601376
 20
25.84999999999999
 11
2.67042780654422
 21
24.54999999999999
  0
LINE
  5
33
100
AcDbEntity
  8
1
  6
CONTINUOUS
 62
             7
100
AcDbLine
 10
-3.61759230654999
 20
25.84999999999999
 11
1.57959828601376
 21
25.84999999999999
  0
LINE
  5
32
100
AcDbEntity
  8
1
  6
CONTINUOUS
 62
             7
100
AcDbLine
 10
-4.20333384575221
 20
30.89679111137619
 11
-5.29542949885978
 21
24.70320888862378
  0
LINE
  5
31
100
AcDbEntity
  8
1
  6
CONTINUOUS
 62
             7
100
AcDbLine
 10
-3.41400483316049
 20
31.55911679471944
 11
-4.20333384575221
 21
30.89679111137619
  0
LINE
  5
30
100
AcDbEntity
  8
1
  6
CONTINUOUS
 62
             7
100
AcDbLine
 10
-2.87893254924259
 20
30.92144247806268
 11
-3.41400483316049
 21
31.55911679471944
  0
LINE
  5
2F
100
AcDbEntity
  8
1
  6
CONTINUOUS
 62
             7
100
AcDbLine
 10
-3.7461498284873
 20
26.00320888862378
 11
-2.87893254924259
 21
30.92144247806268
  0
LINE
  5
2E
100
AcDbEntity
  8
1
  6
CONTINUOUS
 62
             7
100
AcDbLine
 10
-5.29542949885978
 20
24.70320888862378
 11
-3.7461498284873
 21
26.00320888862378
  0
LINE
  5
2D
100
AcDbEntity
  8
1
  6
CONTINUOUS
 62
             7
100
AcDbLine
 10
-2.47146693194497
 20
32.34999999999999
 11
-3.2607959445367
 21
31.68767431665675
  0
LINE
  5
2C
100
AcDbEntity
  8
1
  6
CONTINUOUS
 62
             7
100
AcDbLine
 10
-2.72572366061879
 20
31.04999999999999
 11
-3.2607959445367
 21
31.68767431665675
  0
LINE
  5
2B
100
AcDbEntity
  8
1
  6
CONTINUOUS
 62
             7
100
AcDbLine
 10
2.47146693194497
 20
31.04999999999999
 11
-2.72572366061879
 21
31.04999999999999
  0
LINE
  5
2A
100
AcDbEntity
  8
1
  6
CONTINUOUS
 62
             7
100
AcDbLine
 10
3.2607959445367
 20
31.71232568334323
 11
2.47146693194497
 21
31.04999999999999
  0
LINE
  5
29
100
AcDbEntity
  8
1
  6
CONTINUOUS
 62
             7
100
AcDbLine
 10
2.72572366061879
 20
32.34999999999999
 11
3.2607959445367
 21
31.71232568334323
  0
LINE
  5
28
100
AcDbEntity
  8
1
  6
CONTINUOUS
 62
             7
100
AcDbLine
 10
-2.47146693194497
 20
32.34999999999999
 11
2.72572366061879
 21
32.34999999999999
  0
ENDSEC
  0
SECTION
  2
OBJECTS
  0
DICTIONARY
  5
19
100
AcDbDictionary
  3
ACAD_GROUP
350
1A
  3
ACAD_MLINESTYLE
350
1B
  0
DICTIONARY
  5
1A
102
{ACAD_REACTORS
330
19
102
}
100
AcDbDictionary
  0
DICTIONARY
  5
1B
102
{ACAD_REACTORS
330
19
102
}
100
AcDbDictionary
  3
STANDARD
350
1C
  0
MLINESTYLE
  5
1C
102
{ACAD_REACTORS
330
1B
102
}
100
AcDbMlineStyle
  2
STANDARD
 70
             0
  3

 62
             0
 51
90.0
 52
90.0
 71
             2
 49
0.5
 62
           256
  6
BYLAYER
 49
-0.5
 62
           256
  6
BYLAYER
  0
ENDSEC
  0
EOF
