  0
SECTION
  2
HEADER
  9
$ACADVER
  1
AC1009
  9
$DWGCODEPAGE
  3
ansi_1252
  9
$INSBASE
 10
0.0
 20
0.0
 30
0.0
  9
$EXTMIN
 10
1729.02217978204
 20
4218.76137826516
 30
0.0
  9
$EXTMAX
 10
1831.32218283384
 20
4284.76137826516
 30
0.0
  9
$LIMMIN
 10
0.0
 20
0.0
  9
$LIMMAX
 10
12.0
 20
9.0
  9
$ORTHOMODE
 70
     0
  9
$REGENMODE
 70
     1
  9
$FILLMODE
 70
     1
  9
$QTEXTMODE
 70
     0
  9
$MIRRTEXT
 70
     1
  9
$DRAGMODE
 70
     2
  9
$LTSCALE
 40
1.0
  9
$OSMODE
 70
    37
  9
$ATTMODE
 70
     1
  9
$TEXTSIZE
 40
0.2
  9
$TRACEWID
 40
0.05
  9
$TEXTSTYLE
  7
STANDARD
  9
$CLAYER
  8
0
  9
$CELTYPE
  6
BYLAYER
  9
$CECOLOR
 62
   256
  9
$DIMSCALE
 40
1.0
  9
$DIMASZ
 40
0.18
  9
$DIMEXO
 40
0.0625
  9
$DIMDLI
 40
0.38
  9
$DIMRND
 40
0.0
  9
$DIMDLE
 40
0.0
  9
$DIMEXE
 40
0.18
  9
$DIMTP
 40
0.0
  9
$DIMTM
 40
0.0
  9
$DIMTXT
 40
0.18
  9
$DIMCEN
 40
0.09
  9
$DIMTSZ
 40
0.0
  9
$DIMTOL
 70
     0
  9
$DIMLIM
 70
     0
  9
$DIMTIH
 70
     1
  9
$DIMTOH
 70
     1
  9
$DIMSE1
 70
     0
  9
$DIMSE2
 70
     0
  9
$DIMTAD
 70
     0
  9
$DIMZIN
 70
     0
  9
$DIMBLK
  1

  9
$DIMASO
 70
     1
  9
$DIMSHO
 70
     1
  9
$DIMPOST
  1

  9
$DIMAPOST
  1

  9
$DIMALT
 70
     0
  9
$DIMALTD
 70
     2
  9
$DIMALTF
 40
25.4
  9
$DIMLFAC
 40
1.0
  9
$DIMTOFL
 70
     0
  9
$DIMTVP
 40
0.0
  9
$DIMTIX
 70
     0
  9
$DIMSOXD
 70
     0
  9
$DIMSAH
 70
     0
  9
$DIMBLK1
  1

  9
$DIMBLK2
  1

  9
$DIMSTYLE
  2
STANDARD
  9
$DIMCLRD
 70
     0
  9
$DIMCLRE
 70
     0
  9
$DIMCLRT
 70
     0
  9
$DIMTFAC
 40
1.0
  9
$DIMGAP
 40
0.09
  9
$LUNITS
 70
     2
  9
$LUPREC
 70
     4
  9
$SKETCHINC
 40
0.1
  9
$FILLETRAD
 40
0.5
  9
$AUNITS
 70
     0
  9
$AUPREC
 70
     0
  9
$MENU
  1
.
  9
$ELEVATION
 40
0.0
  9
$PELEVATION
 40
0.0
  9
$THICKNESS
 40
0.0
  9
$LIMCHECK
 70
     0
  9
$CHAMFERA
 40
0.5
  9
$CHAMFERB
 40
0.5
  9
$SKPOLY
 70
     0
  9
$TDCREATE
 40
2457805.765676794
  9
$TDUPDATE
 40
2457805.765720637
  9
$TDINDWG
 40
0.0000000116
  9
$TDUSRTIMER
 40
0.0000000116
  9
$USRTIMER
 70
     1
  9
$ANGBASE
 50
0.0
  9
$ANGDIR
 70
     0
  9
$PDMODE
 70
     0
  9
$PDSIZE
 40
0.0
  9
$PLINEWID
 40
0.0
  9
$COORDS
 70
     1
  9
$SPLFRAME
 70
     0
  9
$SPLINETYPE
 70
     6
  9
$SPLINESEGS
 70
     8
  9
$ATTDIA
 70
     0
  9
$ATTREQ
 70
     1
  9
$HANDLING
 70
     1
  9
$HANDSEED
  5
277
  9
$SURFTAB1
 70
     6
  9
$SURFTAB2
 70
     6
  9
$SURFTYPE
 70
     6
  9
$SURFU
 70
     6
  9
$SURFV
 70
     6
  9
$UCSNAME
  2

  9
$UCSORG
 10
0.0
 20
0.0
 30
0.0
  9
$UCSXDIR
 10
1.0
 20
0.0
 30
0.0
  9
$UCSYDIR
 10
0.0
 20
1.0
 30
0.0
  9
$PUCSNAME
  2

  9
$PUCSORG
 10
0.0
 20
0.0
 30
0.0
  9
$PUCSXDIR
 10
1.0
 20
0.0
 30
0.0
  9
$PUCSYDIR
 10
0.0
 20
1.0
 30
0.0
  9
$USERI1
 70
     0
  9
$USERI2
 70
     0
  9
$USERI3
 70
     0
  9
$USERI4
 70
     0
  9
$USERI5
 70
     0
  9
$USERR1
 40
18.1
  9
$USERR2
 40
0.0
  9
$USERR3
 40
0.0
  9
$USERR4
 40
0.0
  9
$USERR5
 40
0.0
  9
$WORLDVIEW
 70
     1
  9
$SHADEDGE
 70
     3
  9
$SHADEDIF
 70
    70
  9
$TILEMODE
 70
     1
  9
$MAXACTVP
 70
    64
  9
$PLIMCHECK
 70
     0
  9
$PEXTMIN
 10
1.00000000000000E+20
 20
1.00000000000000E+20
 30
1.00000000000000E+20
  9
$PEXTMAX
 10
-1.00000000000000E+20
 20
-1.00000000000000E+20
 30
-1.00000000000000E+20
  9
$PLIMMIN
 10
0.0
 20
0.0
  9
$PLIMMAX
 10
12.0
 20
9.0
  9
$UNITMODE
 70
     0
  9
$VISRETAIN
 70
     1
  9
$PLINEGEN
 70
     0
  9
$PSLTSCALE
 70
     1
  0
ENDSEC
  0
SECTION
  2
TABLES
  0
TABLE
  2
VPORT
 70
     1
  0
VPORT
  2
*ACTIVE
 70
     0
 10
0.0
 20
0.0
 11
1.0
 21
1.0
 12
1780.17218130794
 22
4251.76137826516
 13
0.0
 23
0.0
 14
0.5
 24
0.5
 15
0.5
 25
0.5
 16
0.0
 26
0.0
 36
1.0
 17
0.0
 27
0.0
 37
0.0
 40
72.60000000000001
 41
1.60267857142857
 42
50.0
 43
0.0
 44
0.0
 50
0.0
 51
0.0
 71
     0
 72
   100
 73
     1
 74
     3
 75
     0
 76
     0
 77
     0
 78
     0
  0
ENDTAB
  0
TABLE
  2
LTYPE
 70
     8
  0
LTYPE
  2
CONTINUOUS
 70
     0
  3
Solid line
 72
    65
 73
     0
 40
0.0
  0
LTYPE
  2
DASHED
 70
     0
  3
Dashed
 72
    65
 73
     2
 40
15.0
 49
7.0
 49
-8.0
  0
LTYPE
  2
DOTTED
 70
     0
  3
Dotted
 72
    65
 73
     2
 40
1.0
 49
0.0
 49
-1.0
  0
LTYPE
  2
DOT_CENTER
 70
     0
  3
Dot_Center
 72
    65
 73
     4
 40
14.0
 49
12.0
 49
-1.0
 49
0.0
 49
-1.0
  0
LTYPE
  2
LONG_DASHED
 70
     0
  3
Long_Dashed
 72
    65
 73
     2
 40
15.0
 49
10.0
 49
-5.0
  0
LTYPE
  2
DASH_CENTER
 70
     0
  3
Dash_Center
 72
    65
 73
     4
 40
14.0
 49
11.0
 49
-1.0
 49
1.0
 49
-1.0
  0
LTYPE
  2
PHANTOM
 70
     0
  3
Phantom
 72
    65
 73
     6
 40
13.0
 49
10.0
 49
-1.0
 49
0.0
 49
-1.0
 49
0.0
 49
-1.0
  0
LTYPE
  2
CENTER_DASH_DASH
 70
     0
  3
Center_Dash_Dash
 72
    65
 73
     6
 40
14.0
 49
9.0
 49
-1.0
 49
1.0
 49
-1.0
 49
1.0
 49
-1.0
  0
ENDTAB
  0
TABLE
  2
LAYER
 70
     2
  0
LAYER
  2
0
 70
     0
 62
     7
  6
CONTINUOUS
  0
LAYER
  2
1
 70
     0
 62
     7
  6
CONTINUOUS
  0
ENDTAB
  0
TABLE
  2
STYLE
 70
     1
  0
STYLE
  2
STANDARD
 70
     0
 40
0.0
 41
1.0
 50
0.0
 71
     0
 42
0.2
  3
txt
  4

  0
ENDTAB
  0
TABLE
  2
VIEW
 70
     0
  0
ENDTAB
  0
TABLE
  2
UCS
 70
     0
  0
ENDTAB
  0
TABLE
  2
APPID
 70
     1
  0
APPID
  2
ACAD
 70
     0
  0
ENDTAB
  0
TABLE
  2
DIMSTYLE
 70
     1
  0
DIMSTYLE
  2
STANDARD
 70
     0
  3

  4

  5

  6

  7

 40
1.0
 41
0.18
 42
0.0625
 43
0.38
 44
0.18
 45
0.0
 46
0.0
 47
0.0
 48
0.0
140
0.18
141
0.09
142
0.0
143
25.4
144
1.0
145
0.0
146
1.0
147
0.09
 71
     0
 72
     0
 73
     1
 74
     1
 75
     0
 76
     0
 77
     0
 78
     0
170
     0
171
     2
172
     0
173
     0
174
     0
175
     0
176
     0
177
     0
178
     0
  0
ENDTAB
  0
ENDSEC
  0
SECTION
  2
BLOCKS
  0
BLOCK
  8
0
  2
$MODEL_SPACE
 70
     0
 10
0.0
 20
0.0
 30
0.0
  3
$MODEL_SPACE
  1

  0
ENDBLK
  5
21
  8
0
  0
BLOCK
 67
     1
  8
0
  2
$PAPER_SPACE
 70
     0
 10
0.0
 20
0.0
 30
0.0
  3
$PAPER_SPACE
  1

  0
ENDBLK
  5
1D
 67
     1
  8
0
  0
ENDSEC
  0
SECTION
  2
ENTITIES
  0
LINE
  5
47
  8
1
  6
CONTINUOUS
 62
     7
 10
1729.52217978204
 20
4254.26137826516
 30
0.0
 11
1729.02217978204
 21
4254.76137826516
 31
0.0
  0
LINE
  5
48
  8
1
  6
CONTINUOUS
 62
     7
 10
1729.52217978204
 20
4254.26137826516
 30
0.0
 11
1729.52217978204
 21
4251.26137826516
 31
0.0
  0
LINE
  5
49
  8
1
  6
CONTINUOUS
 62
     7
 10
1731.52217978204
 20
4254.26137826516
 30
0.0
 11
1729.52217978204
 21
4254.26137826516
 31
0.0
  0
LINE
  5
4A
  8
1
  6
CONTINUOUS
 62
     7
 10
1729.52217978204
 20
4251.26137826516
 30
0.0
 11
1731.52217978204
 21
4251.26137826516
 31
0.0
  0
LINE
  5
4B
  8
1
  6
CONTINUOUS
 62
     7
 10
1729.52217978204
 20
4251.26137826516
 30
0.0
 11
1729.02217978204
 21
4250.76137826516
 31
0.0
  0
LINE
  5
4C
  8
1
  6
CONTINUOUS
 62
     7
 10
1758.52217978204
 20
4251.26137826516
 30
0.0
 11
1759.02217978204
 21
4250.76137826516
 31
0.0
  0
LINE
  5
4D
  8
1
  6
CONTINUOUS
 62
     7
 10
1758.52217978204
 20
4254.26137826516
 30
0.0
 11
1759.02217978204
 21
4254.76137826516
 31
0.0
  0
LINE
  5
4E
  8
1
  6
CONTINUOUS
 62
     7
 10
1758.52217978204
 20
4254.26137826516
 30
0.0
 11
1756.52217978204
 21
4254.26137826516
 31
0.0
  0
LINE
  5
4F
  8
1
  6
CONTINUOUS
 62
     7
 10
1758.52217978204
 20
4251.26137826516
 30
0.0
 11
1758.52217978204
 21
4254.26137826516
 31
0.0
  0
LINE
  5
50
  8
1
  6
CONTINUOUS
 62
     7
 10
1758.52217978204
 20
4251.26137826516
 30
0.0
 11
1756.52217978204
 21
4251.26137826516
 31
0.0
  0
LINE
  5
51
  8
1
  6
CONTINUOUS
 62
     7
 10
1799.422179782041
 20
4250.76137826516
 30
0.0
 11
1799.422179782041
 21
4254.76137826516
 31
0.0
  0
LINE
  5
52
  8
1
  6
CONTINUOUS
 62
     7
 10
1798.922179782041
 20
4251.26137826516
 30
0.0
 11
1799.422179782041
 21
4250.76137826516
 31
0.0
  0
LINE
  5
53
  8
1
  6
CONTINUOUS
 62
     7
 10
1798.922179782041
 20
4254.26137826516
 30
0.0
 11
1799.422179782041
 21
4254.76137826516
 31
0.0
  0
LINE
  5
54
  8
1
  6
CONTINUOUS
 62
     7
 10
1819.12217978204
 20
4247.96137826516
 30
0.0
 11
1825.52217978204
 21
4247.96137826516
 31
0.0
  0
LINE
  5
55
  8
1
  6
CONTINUOUS
 62
     7
 10
1825.52217978204
 20
4257.561378265159
 30
0.0
 11
1819.12217978204
 21
4257.561378265159
 31
0.0
  0
LINE
  5
56
  8
1
  6
CONTINUOUS
 62
     7
 10
1819.12217978204
 20
4257.561378265159
 30
0.0
 11
1819.12217978204
 21
4254.76137826516
 31
0.0
  0
LINE
  5
57
  8
1
  6
CONTINUOUS
 62
     7
 10
1819.12217978204
 20
4250.76137826516
 30
0.0
 11
1819.12217978204
 21
4247.96137826516
 31
0.0
  0
LINE
  5
58
  8
1
  6
CONTINUOUS
 62
     7
 10
1798.922179782041
 20
4251.26137826516
 30
0.0
 11
1798.922179782041
 21
4254.26137826516
 31
0.0
  0
LINE
  5
59
  8
1
  6
CONTINUOUS
 62
     7
 10
1799.422179782041
 20
4250.76137826516
 30
0.0
 11
1819.12217978204
 21
4250.76137826516
 31
0.0
  0
LINE
  5
5A
  8
1
  6
CONTINUOUS
 62
     7
 10
1819.12217978204
 20
4254.76137826516
 30
0.0
 11
1799.422179782041
 21
4254.76137826516
 31
0.0
  0
LINE
  5
5B
  8
1
  6
CONTINUOUS
 62
     7
 10
1825.52217978204
 20
4247.96137826516
 30
0.0
 11
1825.52217978204
 21
4257.561378265159
 31
0.0
  0
LINE
  5
5C
  8
1
  6
CONTINUOUS
 62
     7
 10
1731.52217978204
 20
4250.76137826516
 30
0.0
 11
1733.183504554625
 21
4250.76137826516
 31
0.0
  0
LINE
  5
5D
  8
1
  6
CONTINUOUS
 62
     7
 10
1731.52217978204
 20
4254.76137826516
 30
0.0
 11
1733.183504554625
 21
4254.76137826516
 31
0.0
  0
LINE
  5
5E
  8
1
  6
CONTINUOUS
 62
     7
 10
1729.02217978204
 20
4250.76137826516
 30
0.0
 11
1729.02217978204
 21
4254.76137826516
 31
0.0
  0
LINE
  5
5F
  8
1
  6
CONTINUOUS
 62
     7
 10
1759.02217978204
 20
4254.76137826516
 30
0.0
 11
1759.02217978204
 21
4250.76137826516
 31
0.0
  0
LINE
  5
60
  8
1
  6
CONTINUOUS
 62
     7
 10
1754.860855009456
 20
4254.76137826516
 30
0.0
 11
1756.52217978204
 21
4254.76137826516
 31
0.0
  0
LINE
  5
61
  8
1
  6
CONTINUOUS
 62
     7
 10
1754.860855009456
 20
4250.76137826516
 30
0.0
 11
1756.52217978204
 21
4250.76137826516
 31
0.0
  0
LINE
  5
62
  8
1
  6
CONTINUOUS
 62
     7
 10
1759.02217978204
 20
4254.76137826516
 30
0.0
 11
1756.52217978204
 21
4254.76137826516
 31
0.0
  0
LINE
  5
63
  8
1
  6
CONTINUOUS
 62
     7
 10
1759.02217978204
 20
4250.76137826516
 30
0.0
 11
1756.52217978204
 21
4250.76137826516
 31
0.0
  0
LINE
  5
64
  8
1
  6
CONTINUOUS
 62
     7
 10
1731.52217978204
 20
4250.76137826516
 30
0.0
 11
1729.02217978204
 21
4250.76137826516
 31
0.0
  0
LINE
  5
65
  8
1
  6
CONTINUOUS
 62
     7
 10
1731.52217978204
 20
4254.76137826516
 30
0.0
 11
1729.02217978204
 21
4254.76137826516
 31
0.0
  0
LINE
  5
66
  8
0
  6
CONTINUOUS
 62
     7
 10
1820.12218588554
 20
4257.561378265159
 30
0.0
 11
1820.12218588554
 21
4260.76137826516
 31
0.0
  0
LINE
  5
67
  8
0
  6
CONTINUOUS
 62
     7
 10
1824.02217978204
 20
4247.96137826516
 30
0.0
 11
1824.02217978204
 21
4235.11138436866
 31
0.0
  0
LINE
  5
68
  8
1
  6
CONTINUOUS
 62
     7
 10
1819.02217978204
 20
4260.76137826516
 30
0.0
 11
1819.02217978204
 21
4254.76137826516
 31
0.0
  0
LINE
  5
69
  8
1
  6
CONTINUOUS
 62
     7
 10
1819.02217978204
 20
4244.76137826516
 30
0.0
 11
1819.02217978204
 21
4250.76137826516
 31
0.0
  0
LINE
  5
6A
  8
1
  6
CONTINUOUS
 62
     7
 10
1810.02217978204
 20
4240.26137826516
 30
0.0
 11
1810.02217978204
 21
4250.76137826516
 31
0.0
  0
LINE
  5
6B
  8
1
  6
CONTINUOUS
 62
     7
 10
1810.02217978204
 20
4265.26137826516
 30
0.0
 11
1810.02217978204
 21
4254.76137826516
 31
0.0
  0
LINE
  5
6C
  8
1
  6
CONTINUOUS
 62
     7
 10
1803.02217978204
 20
4266.26137826516
 30
0.0
 11
1803.02217978204
 21
4254.76137826516
 31
0.0
  0
LINE
  5
6D
  8
1
  6
CONTINUOUS
 62
     7
 10
1803.02217361334
 20
4239.26136059576
 30
0.0
 11
1803.02217361334
 21
4250.76137826516
 31
0.0
  0
LINE
  5
6E
  8
0
  6
CONTINUOUS
 62
     7
 10
1820.12218588554
 20
4244.76139352396
 30
0.0
 11
1820.12218588554
 21
4247.96137826516
 31
0.0
  0
LINE
  5
6F
  8
0
  6
CONTINUOUS
 62
     7
 10
1824.02217978204
 20
4270.41137216166
 30
0.0
 11
1824.02217978204
 21
4257.561378265159
 31
0.0
  0
LINE
  5
70
  8
0
  6
CONTINUOUS
 62
     7
 10
1809.82218283384
 20
4229.76137826516
 30
0.0
 11
1809.82218283384
 21
4220.76137826516
 31
0.0
  0
LINE
  5
71
  8
0
  6
CONTINUOUS
 62
     7
 10
1828.02217978204
 20
4235.11138436866
 30
0.0
 11
1828.02217978204
 21
4219.18638131696
 31
0.0
  0
LINE
  5
72
  8
0
  6
CONTINUOUS
 62
     7
 10
1759.02217978204
 20
4250.66137216166
 30
0.0
 11
1759.02217978204
 21
4220.76137826516
 31
0.0
  0
LINE
  5
73
  8
0
  6
CONTINUOUS
 62
     7
 10
1729.02217978204
 20
4250.66137216166
 30
0.0
 11
1729.02217978204
 21
4220.76137826516
 31
0.0
  0
LINE
  5
74
  8
0
  6
CONTINUOUS
 62
     7
 10
1754.12218195214
 20
4227.26138478586
 30
0.0
 11
1755.52217492464
 21
4225.86139193136
 31
0.0
  0
LINE
  5
75
  8
0
  6
CONTINUOUS
 62
     7
 10
1753.32216779994
 20
4225.06139030496
 30
0.0
 11
1756.32217123764
 21
4228.06139348976
 31
0.0
  0
LINE
  5
76
  8
0
  6
CONTINUOUS
 62
     7
 10
1757.82218283384
 20
4223.56138131696
 30
0.0
 11
1751.82218283384
 21
4223.56138131696
 31
0.0
  0
LINE
  5
77
  8
0
  6
CONTINUOUS
 62
     7
 10
1757.82218283384
 20
4221.26137826516
 30
0.0
 11
1751.82218283384
 21
4221.26137826516
 31
0.0
  0
LINE
  5
78
  8
0
  6
CONTINUOUS
 62
     7
 10
1757.82218283384
 20
4223.26137826516
 30
0.0
 11
1751.82218283384
 21
4223.26137826516
 31
0.0
  0
LINE
  5
79
  8
0
  6
CONTINUOUS
 62
     7
 10
1744.62218588554
 20
4220.76137826516
 30
0.0
 11
1759.02217978204
 21
4220.76137826516
 31
0.0
  0
LINE
  5
7A
  8
0
  6
CONTINUOUS
 62
     7
 10
1738.92217132744
 20
4225.06138012226
 30
0.0
 11
1741.92217476514
 21
4228.06138330706
 31
0.0
  0
LINE
  5
7B
  8
0
  6
CONTINUOUS
 62
     7
 10
1737.42218893734
 20
4223.56138131696
 30
0.0
 11
1743.42218893734
 21
4223.56138131696
 31
0.0
  0
LINE
  5
7C
  8
0
  6
CONTINUOUS
 62
     7
 10
1739.57219809264
 20
4219.18638131696
 30
0.0
 11
1743.42218893734
 21
4219.18638131696
 31
0.0
  0
LINE
  5
7D
  8
0
  6
CONTINUOUS
 62
     7
 10
1737.42218893734
 20
4223.26137826516
 30
0.0
 11
1743.42218893734
 21
4223.26137826516
 31
0.0
  0
LINE
  5
7E
  8
0
  6
CONTINUOUS
 62
     7
 10
1737.42218893734
 20
4221.26137826516
 30
0.0
 11
1743.42218893734
 21
4221.26137826516
 31
0.0
  0
LINE
  5
7F
  8
0
  6
CONTINUOUS
 62
     7
 10
1729.02217978204
 20
4220.76137826516
 30
0.0
 11
1743.42218893734
 21
4220.76137826516
 31
0.0
  0
LINE
  5
80
  8
0
  6
CONTINUOUS
 62
     7
 10
1730.22217673024
 20
4223.56138131696
 30
0.0
 11
1736.22219198904
 21
4223.56138131696
 31
0.0
  0
LINE
  5
81
  8
0
  6
CONTINUOUS
 62
     7
 10
1730.22217673024
 20
4223.26137826516
 30
0.0
 11
1736.22219198904
 21
4223.26137826516
 31
0.0
  0
LINE
  5
82
  8
0
  6
CONTINUOUS
 62
     7
 10
1730.22217673024
 20
4221.26137826516
 30
0.0
 11
1736.22219198904
 21
4221.26137826516
 31
0.0
  0
LINE
  5
83
  8
0
  6
CONTINUOUS
 62
     7
 10
1733.72217673024
 20
4222.26137826516
 30
0.0
 11
1730.22217673024
 21
4222.26137826516
 31
0.0
  0
LINE
  5
84
  8
0
  6
CONTINUOUS
 62
     7
 10
1730.22217673024
 20
4223.56138131696
 30
0.0
 11
1730.22217673024
 21
4220.76137826516
 31
0.0
  0
LINE
  5
85
  8
0
  6
CONTINUOUS
 62
     7
 10
1730.66043966974
 20
4227.56138131696
 30
0.0
 11
1730.76810568534
 21
4227.56138131696
 31
0.0
  0
LINE
  5
86
  8
0
  6
CONTINUOUS
 62
     7
 10
1730.66043966974
 20
4225.56138131696
 30
0.0
 11
1730.76810568534
 21
4225.56138131696
 31
0.0
  0
LINE
  5
87
  8
0
  6
CONTINUOUS
 62
     7
 10
1733.72217673024
 20
4223.26137826516
 30
0.0
 11
1733.72217673024
 21
4222.26137826516
 31
0.0
  0
LINE
  5
88
  8
0
  6
CONTINUOUS
 62
     7
 10
1732.52217105894
 20
4227.26138387546
 30
0.0
 11
1733.92216403154
 21
4225.86139102096
 31
0.0
  0
LINE
  5
89
  8
0
  6
CONTINUOUS
 62
     7
 10
1731.72217848594
 20
4225.06139121536
 30
0.0
 11
1734.72217113404
 21
4228.06138361046
 31
0.0
  0
LINE
  5
8A
  8
0
  6
CONTINUOUS
 62
     7
 10
1732.22217673024
 20
4224.10731027196
 30
0.0
 11
1732.22217673024
 21
4223.99964425636
 31
0.0
  0
LINE
  5
8B
  8
0
  6
CONTINUOUS
 62
     7
 10
1732.22217673024
 20
4229.12311837746
 30
0.0
 11
1732.22217673024
 21
4229.01545236186
 31
0.0
  0
LINE
  5
8C
  8
0
  6
CONTINUOUS
 62
     7
 10
1734.22219198904
 20
4224.10731027196
 30
0.0
 11
1734.22219198904
 21
4223.99964425636
 31
0.0
  0
LINE
  5
8D
  8
0
  6
CONTINUOUS
 62
     7
 10
1734.22219198904
 20
4229.12311837746
 30
0.0
 11
1734.22219198904
 21
4229.01545236186
 31
0.0
  0
LINE
  5
8E
  8
0
  6
CONTINUOUS
 62
     7
 10
1736.22219198904
 20
4223.56138131696
 30
0.0
 11
1736.22219198904
 21
4220.76137826516
 31
0.0
  0
LINE
  5
8F
  8
0
  6
CONTINUOUS
 62
     7
 10
1737.42218893734
 20
4223.56138131696
 30
0.0
 11
1737.42218893734
 21
4220.76137826516
 31
0.0
  0
LINE
  5
90
  8
0
  6
CONTINUOUS
 62
     7
 10
1735.67626303404
 20
4225.56138131696
 30
0.0
 11
1735.78392904964
 21
4225.56138131696
 31
0.0
  0
LINE
  5
91
  8
0
  6
CONTINUOUS
 62
     7
 10
1735.67626303404
 20
4227.56138131696
 30
0.0
 11
1735.78392904964
 21
4227.56138131696
 31
0.0
  0
LINE
  5
92
  8
0
  6
CONTINUOUS
 62
     7
 10
1737.86045187674
 20
4227.56138131696
 30
0.0
 11
1737.96810263364
 21
4227.56138131696
 31
0.0
  0
LINE
  5
93
  8
0
  6
CONTINUOUS
 62
     7
 10
1737.86045187674
 20
4225.56138131696
 30
0.0
 11
1737.96810263364
 21
4225.56138131696
 31
0.0
  0
LINE
  5
94
  8
0
  6
CONTINUOUS
 62
     7
 10
1738.57219809264
 20
4220.76137826516
 30
0.0
 11
1738.57219809264
 21
4220.18638131696
 31
0.0
  0
LINE
  5
95
  8
0
  6
CONTINUOUS
 62
     7
 10
1739.72217469004
 20
4227.26138417896
 30
0.0
 11
1741.12216766254
 21
4225.86139132446
 31
0.0
  0
LINE
  5
96
  8
0
  6
CONTINUOUS
 62
     7
 10
1739.42218893734
 20
4224.10731027196
 30
0.0
 11
1739.42218893734
 21
4223.99964425636
 31
0.0
  0
LINE
  5
97
  8
0
  6
CONTINUOUS
 62
     7
 10
1739.42218893734
 20
4229.12311837746
 30
0.0
 11
1739.42218893734
 21
4229.01545236186
 31
0.0
  0
LINE
  5
98
  8
0
  6
CONTINUOUS
 62
     7
 10
1741.42218893734
 20
4224.10731027196
 30
0.0
 11
1741.42218893734
 21
4223.99964425636
 31
0.0
  0
LINE
  5
99
  8
0
  6
CONTINUOUS
 62
     7
 10
1741.42218893734
 20
4229.12311837746
 30
0.0
 11
1741.42218893734
 21
4229.01545236186
 31
0.0
  0
LINE
  5
9A
  8
0
  6
CONTINUOUS
 62
     7
 10
1746.12217495854
 20
4225.06137981886
 30
0.0
 11
1749.12217839614
 21
4228.06138300356
 31
0.0
  0
LINE
  5
9B
  8
0
  6
CONTINUOUS
 62
     7
 10
1750.62218588554
 20
4223.56138131696
 30
0.0
 11
1744.62218588554
 21
4223.56138131696
 31
0.0
  0
LINE
  5
9C
  8
0
  6
CONTINUOUS
 62
     7
 10
1750.62218588554
 20
4221.26137826516
 30
0.0
 11
1744.62218588554
 21
4221.26137826516
 31
0.0
  0
LINE
  5
9D
  8
0
  6
CONTINUOUS
 62
     7
 10
1750.62218588554
 20
4223.26137826516
 30
0.0
 11
1744.62218588554
 21
4223.26137826516
 31
0.0
  0
LINE
  5
9E
  8
0
  6
CONTINUOUS
 62
     7
 10
1745.06044882504
 20
4227.56138131696
 30
0.0
 11
1745.16809958184
 21
4227.56138131696
 31
0.0
  0
LINE
  5
9F
  8
0
  6
CONTINUOUS
 62
     7
 10
1745.06044882504
 20
4225.56138131696
 30
0.0
 11
1745.16809958184
 21
4225.56138131696
 31
0.0
  0
LINE
  5
A0
  8
0
  6
CONTINUOUS
 62
     7
 10
1744.62218588554
 20
4219.18638131696
 30
0.0
 11
1748.47217673024
 21
4219.18638131696
 31
0.0
  0
LINE
  5
A1
  8
0
  6
CONTINUOUS
 62
     7
 10
1743.42218893734
 20
4218.76137826516
 30
0.0
 11
1744.62218588554
 21
4218.76137826516
 31
0.0
  0
LINE
  5
A2
  8
0
  6
CONTINUOUS
 62
     7
 10
1743.42218893734
 20
4223.56138131696
 30
0.0
 11
1743.42218893734
 21
4218.76137826516
 31
0.0
  0
LINE
  5
A3
  8
0
  6
CONTINUOUS
 62
     7
 10
1744.62218588554
 20
4223.56138131696
 30
0.0
 11
1744.62218588554
 21
4218.76137826516
 31
0.0
  0
LINE
  5
A4
  8
0
  6
CONTINUOUS
 62
     7
 10
1742.87625998224
 20
4227.56138131696
 30
0.0
 11
1742.98392599784
 21
4227.56138131696
 31
0.0
  0
LINE
  5
A5
  8
0
  6
CONTINUOUS
 62
     7
 10
1742.87625998224
 20
4225.56138131696
 30
0.0
 11
1742.98392599784
 21
4225.56138131696
 31
0.0
  0
LINE
  5
A6
  8
0
  6
CONTINUOUS
 62
     7
 10
1746.62218588554
 20
4224.10731027196
 30
0.0
 11
1746.62218588554
 21
4223.99964425636
 31
0.0
  0
LINE
  5
A7
  8
0
  6
CONTINUOUS
 62
     7
 10
1746.62218588554
 20
4229.12311837746
 30
0.0
 11
1746.62218588554
 21
4229.01545236186
 31
0.0
  0
LINE
  5
A8
  8
0
  6
CONTINUOUS
 62
     7
 10
1746.92217832104
 20
4227.26138448246
 30
0.0
 11
1748.32217129364
 21
4225.86139162786
 31
0.0
  0
LINE
  5
A9
  8
0
  6
CONTINUOUS
 62
     7
 10
1751.82218283384
 20
4222.26137826516
 30
0.0
 11
1755.32218283384
 21
4222.26137826516
 31
0.0
  0
LINE
  5
AA
  8
0
  6
CONTINUOUS
 62
     7
 10
1749.47217673024
 20
4220.76137826516
 30
0.0
 11
1749.47217673024
 21
4220.18638131696
 31
0.0
  0
LINE
  5
AB
  8
0
  6
CONTINUOUS
 62
     7
 10
1751.82218283384
 20
4223.56138131696
 30
0.0
 11
1751.82218283384
 21
4220.76137826516
 31
0.0
  0
LINE
  5
AC
  8
0
  6
CONTINUOUS
 62
     7
 10
1750.62218588554
 20
4223.56138131696
 30
0.0
 11
1750.62218588554
 21
4220.76137826516
 31
0.0
  0
LINE
  5
AD
  8
0
  6
CONTINUOUS
 62
     7
 10
1750.07625693044
 20
4225.56138131696
 30
0.0
 11
1750.18392294614
 21
4225.56138131696
 31
0.0
  0
LINE
  5
AE
  8
0
  6
CONTINUOUS
 62
     7
 10
1750.07625693044
 20
4227.56138131696
 30
0.0
 11
1750.18392294614
 21
4227.56138131696
 31
0.0
  0
LINE
  5
AF
  8
0
  6
CONTINUOUS
 62
     7
 10
1748.62218588554
 20
4224.10731027196
 30
0.0
 11
1748.62218588554
 21
4223.99964425636
 31
0.0
  0
LINE
  5
B0
  8
0
  6
CONTINUOUS
 62
     7
 10
1748.62218588554
 20
4229.12311837746
 30
0.0
 11
1748.62218588554
 21
4229.01545236186
 31
0.0
  0
LINE
  5
B1
  8
0
  6
CONTINUOUS
 62
     7
 10
1755.32218283384
 20
4223.26137826516
 30
0.0
 11
1755.32218283384
 21
4222.26137826516
 31
0.0
  0
LINE
  5
B2
  8
0
  6
CONTINUOUS
 62
     7
 10
1752.26044577324
 20
4227.56138131696
 30
0.0
 11
1752.36811178884
 21
4227.56138131696
 31
0.0
  0
LINE
  5
B3
  8
0
  6
CONTINUOUS
 62
     7
 10
1752.26044577324
 20
4225.56138131696
 30
0.0
 11
1752.36811178884
 21
4225.56138131696
 31
0.0
  0
LINE
  5
B4
  8
0
  6
CONTINUOUS
 62
     7
 10
1753.82218283384
 20
4224.10731027196
 30
0.0
 11
1753.82218283384
 21
4223.99964425636
 31
0.0
  0
LINE
  5
B5
  8
0
  6
CONTINUOUS
 62
     7
 10
1753.82218283384
 20
4229.12311837746
 30
0.0
 11
1753.82218283384
 21
4229.01545236186
 31
0.0
  0
LINE
  5
B6
  8
0
  6
CONTINUOUS
 62
     7
 10
1757.82218283384
 20
4223.56138131696
 30
0.0
 11
1757.82218283384
 21
4220.76137826516
 31
0.0
  0
LINE
  5
B7
  8
0
  6
CONTINUOUS
 62
     7
 10
1755.82218283384
 20
4224.10731027196
 30
0.0
 11
1755.82218283384
 21
4223.99964425636
 31
0.0
  0
LINE
  5
B8
  8
0
  6
CONTINUOUS
 62
     7
 10
1755.82218283384
 20
4229.12311837746
 30
0.0
 11
1755.82218283384
 21
4229.01545236186
 31
0.0
  0
LINE
  5
B9
  8
0
  6
CONTINUOUS
 62
     7
 10
1757.27626913754
 20
4225.56138131696
 30
0.0
 11
1757.38391989434
 21
4225.56138131696
 31
0.0
  0
LINE
  5
BA
  8
0
  6
CONTINUOUS
 62
     7
 10
1757.27626913754
 20
4227.56138131696
 30
0.0
 11
1757.38391989434
 21
4227.56138131696
 31
0.0
  0
LINE
  5
BB
  8
0
  6
CONTINUOUS
 62
     7
 10
1824.02217978204
 20
4219.18638131696
 30
0.0
 11
1828.02217978204
 21
4219.18638131696
 31
0.0
  0
LINE
  5
BC
  8
0
  6
CONTINUOUS
 62
     7
 10
1811.82218283384
 20
4220.76137826516
 30
0.0
 11
1828.02217978204
 21
4220.76137826516
 31
0.0
  0
LINE
  5
BD
  8
0
  6
CONTINUOUS
 62
     7
 10
1824.02217978204
 20
4220.76137826516
 30
0.0
 11
1824.02217978204
 21
4219.18638131696
 31
0.0
  0
LINE
  5
BE
  8
0
  6
CONTINUOUS
 62
     7
 10
1826.02217978204
 20
4220.76137826516
 30
0.0
 11
1826.02217978204
 21
4219.18638131696
 31
0.0
  0
LINE
  5
BF
  8
0
  6
CONTINUOUS
 62
     7
 10
1810.02217978204
 20
4254.86138436866
 30
0.0
 11
1819.02217978204
 21
4254.86138436866
 31
0.0
  0
LINE
  5
C0
  8
0
  6
CONTINUOUS
 62
     7
 10
1810.02217978204
 20
4250.66137216166
 30
0.0
 11
1819.02217978204
 21
4250.66137216166
 31
0.0
  0
LINE
  5
C1
  8
0
  6
CONTINUOUS
 62
     7
 10
1754.32218283384
 20
4283.26137826516
 30
0.0
 11
1757.82218283384
 21
4283.26137826516
 31
0.0
  0
LINE
  5
C2
  8
0
  6
CONTINUOUS
 62
     7
 10
1754.12216895404
 20
4279.66138004206
 30
0.0
 11
1755.52216192664
 21
4278.26138718746
 31
0.0
  0
LINE
  5
C3
  8
0
  6
CONTINUOUS
 62
     7
 10
1753.32217000844
 20
4277.46137477146
 30
0.0
 11
1756.32217344614
 21
4280.46137795626
 31
0.0
  0
LINE
  5
C4
  8
0
  6
CONTINUOUS
 62
     7
 10
1754.12218011034
 20
4270.961374755359
 30
0.0
 11
1755.52217308284
 21
4269.561381900759
 31
0.0
  0
LINE
  5
C5
  8
0
  6
CONTINUOUS
 62
     7
 10
1757.82218283384
 20
4282.26137826516
 30
0.0
 11
1751.82218283384
 21
4282.26137826516
 31
0.0
  0
LINE
  5
C6
  8
0
  6
CONTINUOUS
 62
     7
 10
1757.82218283384
 20
4281.96137521336
 30
0.0
 11
1751.82218283384
 21
4281.96137521336
 31
0.0
  0
LINE
  5
C7
  8
0
  6
CONTINUOUS
 62
     7
 10
1757.82218283384
 20
4284.26137826516
 30
0.0
 11
1751.82218283384
 21
4284.26137826516
 31
0.0
  0
LINE
  5
C8
  8
0
  6
CONTINUOUS
 62
     7
 10
1757.82218283384
 20
4273.26137826516
 30
0.0
 11
1751.82218283384
 21
4273.26137826516
 31
0.0
  0
LINE
  5
C9
  8
0
  6
CONTINUOUS
 62
     7
 10
1757.82218283384
 20
4274.76137826516
 30
0.0
 11
1751.82218283384
 21
4274.76137826516
 31
0.0
  0
LINE
  5
CA
  8
0
  6
CONTINUOUS
 62
     7
 10
1757.82218283384
 20
4273.56138131696
 30
0.0
 11
1751.82218283384
 21
4273.56138131696
 31
0.0
  0
LINE
  5
CB
  8
0
  6
CONTINUOUS
 62
     7
 10
1754.52217978204
 20
4260.76137826516
 30
0.0
 11
1755.52217978204
 21
4260.76137826516
 31
0.0
  0
LINE
  5
CC
  8
0
  6
CONTINUOUS
 62
     7
 10
1757.82218283384
 20
4262.46137521336
 30
0.0
 11
1755.02217978204
 21
4262.46137521336
 31
0.0
  0
LINE
  5
CD
  8
0
  6
CONTINUOUS
 62
     7
 10
1757.82218283384
 20
4261.76137826516
 30
0.0
 11
1755.02217978204
 21
4261.76137826516
 31
0.0
  0
LINE
  5
CE
  8
0
  6
CONTINUOUS
 62
     7
 10
1754.52217978204
 20
4256.76137826516
 30
0.0
 11
1755.52217978204
 21
4256.76137826516
 31
0.0
  0
LINE
  5
CF
  8
0
  6
CONTINUOUS
 62
     7
 10
1754.52217978204
 20
4248.76137826516
 30
0.0
 11
1755.52217978204
 21
4248.76137826516
 31
0.0
  0
LINE
  5
D0
  8
0
  6
CONTINUOUS
 62
     7
 10
1759.02217978204
 20
4265.26137826516
 30
0.0
 11
1753.77217978204
 21
4265.26137826516
 31
0.0
  0
LINE
  5
D1
  8
0
  6
CONTINUOUS
 62
     7
 10
1754.52217978204
 20
4244.76137826516
 30
0.0
 11
1755.52217978204
 21
4244.76137826516
 31
0.0
  0
LINE
  5
D2
  8
0
  6
CONTINUOUS
 62
     7
 10
1757.82218283384
 20
4243.06138131696
 30
0.0
 11
1755.02217978204
 21
4243.06138131696
 31
0.0
  0
LINE
  5
D3
  8
0
  6
CONTINUOUS
 62
     7
 10
1757.82218283384
 20
4243.76137826516
 30
0.0
 11
1755.02217978204
 21
4243.76137826516
 31
0.0
  0
LINE
  5
D4
  8
0
  6
CONTINUOUS
 62
     7
 10
1759.02217978204
 20
4238.46137521336
 30
0.0
 11
1755.02217978204
 21
4238.46137521336
 31
0.0
  0
LINE
  5
D5
  8
0
  6
CONTINUOUS
 62
     7
 10
1755.02217978204
 20
4238.76137826516
 30
0.0
 11
1759.02217978204
 21
4238.76137826516
 31
0.0
  0
LINE
  5
D6
  8
0
  6
CONTINUOUS
 62
     7
 10
1755.02217978204
 20
4239.26137826516
 30
0.0
 11
1759.02217978204
 21
4239.26137826516
 31
0.0
  0
LINE
  5
D7
  8
0
  6
CONTINUOUS
 62
     7
 10
1754.12218158544
 20
4235.96137928296
 30
0.0
 11
1755.52217455804
 21
4234.56138642836
 31
0.0
  0
LINE
  5
D8
  8
0
  6
CONTINUOUS
 62
     7
 10
1753.32216816664
 20
4233.76138480206
 30
0.0
 11
1756.32217160434
 21
4236.76138798676
 31
0.0
  0
LINE
  5
D9
  8
0
  6
CONTINUOUS
 62
     7
 10
1759.02217978204
 20
4240.26137826516
 30
0.0
 11
1753.77217978204
 21
4240.26137826516
 31
0.0
  0
LINE
  5
DA
  8
0
  6
CONTINUOUS
 62
     7
 10
1757.82218283384
 20
4232.26137826516
 30
0.0
 11
1751.82218283384
 21
4232.26137826516
 31
0.0
  0
LINE
  5
DB
  8
0
  6
CONTINUOUS
 62
     7
 10
1757.82218283384
 20
4231.96137521336
 30
0.0
 11
1751.82218283384
 21
4231.96137521336
 31
0.0
  0
LINE
  5
DC
  8
0
  6
CONTINUOUS
 62
     7
 10
1757.82218283384
 20
4230.76137826516
 30
0.0
 11
1751.82218283384
 21
4230.76137826516
 31
0.0
  0
LINE
  5
DD
  8
0
  6
CONTINUOUS
 62
     7
 10
1753.32216964184
 20
4268.76138027446
 30
0.0
 11
1756.32217307944
 21
4271.76138345916
 31
0.0
  0
LINE
  5
DE
  8
0
  6
CONTINUOUS
 62
     7
 10
1729.02217978204
 20
4275.76137826516
 30
0.0
 11
1759.02217978204
 21
4275.76137826516
 31
0.0
  0
LINE
  5
DF
  8
0
  6
CONTINUOUS
 62
     7
 10
1729.02217978204
 20
4266.26137826516
 30
0.0
 11
1759.02217978204
 21
4266.26137826516
 31
0.0
  0
LINE
  5
E0
  8
0
  6
CONTINUOUS
 62
     7
 10
1729.02217978204
 20
4266.76137826516
 30
0.0
 11
1759.02217978204
 21
4266.76137826516
 31
0.0
  0
LINE
  5
E1
  8
0
  6
CONTINUOUS
 62
     7
 10
1729.02217978204
 20
4284.76137826516
 30
0.0
 11
1759.02217978204
 21
4284.76137826516
 31
0.0
  0
LINE
  5
E2
  8
0
  6
CONTINUOUS
 62
     7
 10
1729.02217978204
 20
4229.76137826516
 30
0.0
 11
1759.02217978204
 21
4229.76137826516
 31
0.0
  0
LINE
  5
E3
  8
0
  6
CONTINUOUS
 62
     7
 10
1751.82218283384
 20
4273.26137826516
 30
0.0
 11
1751.82218283384
 21
4275.76137826516
 31
0.0
  0
LINE
  5
E4
  8
0
  6
CONTINUOUS
 62
     7
 10
1750.62218588554
 20
4273.26137826516
 30
0.0
 11
1750.62218588554
 21
4275.76137826516
 31
0.0
  0
LINE
  5
E5
  8
0
  6
CONTINUOUS
 62
     7
 10
1744.62218588554
 20
4273.26137826516
 30
0.0
 11
1744.62218588554
 21
4275.76137826516
 31
0.0
  0
LINE
  5
E6
  8
0
  6
CONTINUOUS
 62
     7
 10
1743.42218893734
 20
4273.26137826516
 30
0.0
 11
1743.42218893734
 21
4275.76137826516
 31
0.0
  0
LINE
  5
E7
  8
0
  6
CONTINUOUS
 62
     7
 10
1737.42218893734
 20
4273.26137826516
 30
0.0
 11
1737.42218893734
 21
4275.76137826516
 31
0.0
  0
LINE
  5
E8
  8
0
  6
CONTINUOUS
 62
     7
 10
1736.22219198904
 20
4273.26137826516
 30
0.0
 11
1736.22219198904
 21
4275.76137826516
 31
0.0
  0
LINE
  5
E9
  8
0
  6
CONTINUOUS
 62
     7
 10
1730.22217673024
 20
4273.26137826516
 30
0.0
 11
1730.22217673024
 21
4275.76137826516
 31
0.0
  0
LINE
  5
EA
  8
0
  6
CONTINUOUS
 62
     7
 10
1729.02217978204
 20
4284.76137826516
 30
0.0
 11
1729.02217978204
 21
4254.86138436866
 31
0.0
  0
LINE
  5
EB
  8
0
  6
CONTINUOUS
 62
     7
 10
1737.42218893734
 20
4274.76137826516
 30
0.0
 11
1743.42218893734
 21
4274.76137826516
 31
0.0
  0
LINE
  5
EC
  8
0
  6
CONTINUOUS
 62
     7
 10
1737.42218893734
 20
4273.56138131696
 30
0.0
 11
1743.42218893734
 21
4273.56138131696
 31
0.0
  0
LINE
  5
ED
  8
0
  6
CONTINUOUS
 62
     7
 10
1737.42218893734
 20
4273.26137826516
 30
0.0
 11
1743.42218893734
 21
4273.26137826516
 31
0.0
  0
LINE
  5
EE
  8
0
  6
CONTINUOUS
 62
     7
 10
1740.22219198904
 20
4261.61138436866
 30
0.0
 11
1743.42218893734
 21
4261.61138436866
 31
0.0
  0
LINE
  5
EF
  8
0
  6
CONTINUOUS
 62
     7
 10
1740.22219198904
 20
4260.71137521336
 30
0.0
 11
1743.42218893734
 21
4260.71137521336
 31
0.0
  0
LINE
  5
F0
  8
0
  6
CONTINUOUS
 62
     7
 10
1740.22219198904
 20
4260.01137826516
 30
0.0
 11
1743.42218893734
 21
4260.01137826516
 31
0.0
  0
LINE
  5
F1
  8
0
  6
CONTINUOUS
 62
     7
 10
1740.22219198904
 20
4262.31138131696
 30
0.0
 11
1743.42218893734
 21
4262.31138131696
 31
0.0
  0
LINE
  5
F2
  8
0
  6
CONTINUOUS
 62
     7
 10
1740.22219198904
 20
4256.61138436866
 30
0.0
 11
1743.42218893734
 21
4256.61138436866
 31
0.0
  0
LINE
  5
F3
  8
0
  6
CONTINUOUS
 62
     7
 10
1740.22219198904
 20
4257.51137826516
 30
0.0
 11
1743.42218893734
 21
4257.51137826516
 31
0.0
  0
LINE
  5
F4
  8
0
  6
CONTINUOUS
 62
     7
 10
1740.22219198904
 20
4255.91137216166
 30
0.0
 11
1743.42218893734
 21
4255.91137216166
 31
0.0
  0
LINE
  5
F5
  8
0
  6
CONTINUOUS
 62
     7
 10
1740.22219198904
 20
4258.21137521336
 30
0.0
 11
1743.42218893734
 21
4258.21137521336
 31
0.0
  0
LINE
  5
F6
  8
0
  6
CONTINUOUS
 62
     7
 10
1740.22219198904
 20
4250.31138131696
 30
0.0
 11
1743.42218893734
 21
4250.31138131696
 31
0.0
  0
LINE
  5
F7
  8
0
  6
CONTINUOUS
 62
     7
 10
1740.22219198904
 20
4251.21137521336
 30
0.0
 11
1743.42218893734
 21
4251.21137521336
 31
0.0
  0
LINE
  5
F8
  8
0
  6
CONTINUOUS
 62
     7
 10
1740.22219198904
 20
4249.61138436866
 30
0.0
 11
1743.42218893734
 21
4249.61138436866
 31
0.0
  0
LINE
  5
F9
  8
0
  6
CONTINUOUS
 62
     7
 10
1740.22219198904
 20
4251.91137216166
 30
0.0
 11
1743.42218893734
 21
4251.91137216166
 31
0.0
  0
LINE
  5
FA
  8
0
  6
CONTINUOUS
 62
     7
 10
1738.92217316924
 20
4268.76139167096
 30
0.0
 11
1741.92217660694
 21
4271.76139485566
 31
0.0
  0
LINE
  5
FB
  8
0
  6
CONTINUOUS
 62
     7
 10
1738.92218893734
 20
4239.26137826516
 30
0.0
 11
1749.12218588554
 21
4239.26137826516
 31
0.0
  0
LINE
  5
FC
  8
0
  6
CONTINUOUS
 62
     7
 10
1737.42218893734
 20
4230.76137826516
 30
0.0
 11
1750.62218588554
 21
4230.76137826516
 31
0.0
  0
LINE
  5
FD
  8
0
  6
CONTINUOUS
 62
     7
 10
1737.42218893734
 20
4231.96137521336
 30
0.0
 11
1750.62218588554
 21
4231.96137521336
 31
0.0
  0
LINE
  5
FE
  8
0
  6
CONTINUOUS
 62
     7
 10
1730.22217673024
 20
4230.76137826516
 30
0.0
 11
1736.22219198904
 21
4230.76137826516
 31
0.0
  0
LINE
  5
FF
  8
0
  6
CONTINUOUS
 62
     7
 10
1730.22217673024
 20
4231.96137521336
 30
0.0
 11
1736.22219198904
 21
4231.96137521336
 31
0.0
  0
LINE
  5
100
  8
0
  6
CONTINUOUS
 62
     7
 10
1730.22217673024
 20
4232.26137826516
 30
0.0
 11
1736.22219198904
 21
4232.26137826516
 31
0.0
  0
LINE
  5
101
  8
0
  6
CONTINUOUS
 62
     7
 10
1734.27217978204
 20
4250.26188180516
 30
0.0
 11
1734.27217978204
 21
4240.26137826516
 31
0.0
  0
LINE
  5
102
  8
0
  6
CONTINUOUS
 62
     7
 10
1733.02217978204
 20
4243.76137826516
 30
0.0
 11
1733.02217978204
 21
4240.26137826516
 31
0.0
  0
LINE
  5
103
  8
0
  6
CONTINUOUS
 62
     7
 10
1730.22217673024
 20
4243.76137826516
 30
0.0
 11
1730.22217673024
 21
4240.26137826516
 31
0.0
  0
LINE
  5
104
  8
0
  6
CONTINUOUS
 62
     7
 10
1729.02217978204
 20
4238.76137826516
 30
0.0
 11
1733.02217978204
 21
4238.76137826516
 31
0.0
  0
LINE
  5
105
  8
0
  6
CONTINUOUS
 62
     7
 10
1729.02217978204
 20
4239.26137826516
 30
0.0
 11
1733.02217978204
 21
4239.26137826516
 31
0.0
  0
LINE
  5
106
  8
0
  6
CONTINUOUS
 62
     7
 10
1729.02217978204
 20
4238.46137521336
 30
0.0
 11
1733.02217978204
 21
4238.46137521336
 31
0.0
  0
LINE
  5
107
  8
0
  6
CONTINUOUS
 62
     7
 10
1729.02217978204
 20
4240.26137826516
 30
0.0
 11
1734.27217978204
 21
4240.26137826516
 31
0.0
  0
LINE
  5
108
  8
0
  6
CONTINUOUS
 62
     7
 10
1730.66043966974
 20
4234.26137826516
 30
0.0
 11
1730.76810568534
 21
4234.26137826516
 31
0.0
  0
LINE
  5
109
  8
0
  6
CONTINUOUS
 62
     7
 10
1730.22217673024
 20
4232.26137826516
 30
0.0
 11
1730.22217673024
 21
4229.76137826516
 31
0.0
  0
LINE
  5
10A
  8
0
  6
CONTINUOUS
 62
     7
 10
1730.66043966974
 20
4236.26137826516
 30
0.0
 11
1730.76810568534
 21
4236.26137826516
 31
0.0
  0
LINE
  5
10B
  8
0
  6
CONTINUOUS
 62
     7
 10
1732.52217069224
 20
4235.96137837256
 30
0.0
 11
1733.92216366484
 21
4234.56138551806
 31
0.0
  0
LINE
  5
10C
  8
0
  6
CONTINUOUS
 62
     7
 10
1731.72217885264
 20
4233.76138571236
 30
0.0
 11
1734.72218229034
 21
4236.76138889716
 31
0.0
  0
LINE
  5
10D
  8
0
  6
CONTINUOUS
 62
     7
 10
1732.22217673024
 20
4232.80730722026
 30
0.0
 11
1732.22217673024
 21
4232.69964120466
 31
0.0
  0
LINE
  5
10E
  8
0
  6
CONTINUOUS
 62
     7
 10
1734.22219198904
 20
4232.80730722026
 30
0.0
 11
1734.22219198904
 21
4232.69964120466
 31
0.0
  0
LINE
  5
10F
  8
0
  6
CONTINUOUS
 62
     7
 10
1733.02217978204
 20
4239.26137826516
 30
0.0
 11
1733.02217978204
 21
4238.00409982276
 31
0.0
  0
LINE
  5
110
  8
0
  6
CONTINUOUS
 62
     7
 10
1732.22217673024
 20
4237.82311532566
 30
0.0
 11
1732.22217673024
 21
4237.71544931006
 31
0.0
  0
LINE
  5
111
  8
0
  6
CONTINUOUS
 62
     7
 10
1734.22219198904
 20
4237.82311532566
 30
0.0
 11
1734.22219198904
 21
4237.71544931006
 31
0.0
  0
LINE
  5
112
  8
0
  6
CONTINUOUS
 62
     7
 10
1731.52217978204
 20
4250.66137216166
 30
0.0
 11
1729.02217978204
 21
4250.66137216166
 31
0.0
  0
LINE
  5
113
  8
0
  6
CONTINUOUS
 62
     7
 10
1730.22217673024
 20
4243.06138131696
 30
0.0
 11
1733.02217978204
 21
4243.06138131696
 31
0.0
  0
LINE
  5
114
  8
0
  6
CONTINUOUS
 62
     7
 10
1730.22217673024
 20
4243.76137826516
 30
0.0
 11
1733.02217978204
 21
4243.76137826516
 31
0.0
  0
LINE
  5
115
  8
0
  6
CONTINUOUS
 62
     7
 10
1732.92218893734
 20
4247.76137826516
 30
0.0
 11
1732.92218893734
 21
4245.76137826516
 31
0.0
  0
LINE
  5
116
  8
0
  6
CONTINUOUS
 62
     7
 10
1733.52217978204
 20
4248.76137826516
 30
0.0
 11
1733.52217978204
 21
4244.76137826516
 31
0.0
  0
LINE
  5
117
  8
0
  6
CONTINUOUS
 62
     7
 10
1732.52217978204
 20
4244.76137826516
 30
0.0
 11
1732.52217978204
 21
4248.76137826516
 31
0.0
  0
LINE
  5
118
  8
0
  6
CONTINUOUS
 62
     7
 10
1733.52217978204
 20
4244.76137826516
 30
0.0
 11
1732.52217978204
 21
4244.76137826516
 31
0.0
  0
LINE
  5
119
  8
0
  6
CONTINUOUS
 62
     7
 10
1732.92218893734
 20
4245.76137826516
 30
0.0
 11
1732.82218283384
 21
4245.76137826516
 31
0.0
  0
LINE
  5
11A
  8
0
  6
CONTINUOUS
 62
     7
 10
1732.82218283384
 20
4245.76137826516
 30
0.0
 11
1732.82218283384
 21
4244.76137826516
 31
0.0
  0
LINE
  5
11B
  8
0
  6
CONTINUOUS
 62
     7
 10
1733.52217978204
 20
4248.76137826516
 30
0.0
 11
1732.52217978204
 21
4248.76137826516
 31
0.0
  0
LINE
  5
11C
  8
0
  6
CONTINUOUS
 62
     7
 10
1732.92218893734
 20
4247.76137826516
 30
0.0
 11
1732.82218283384
 21
4247.76137826516
 31
0.0
  0
LINE
  5
11D
  8
0
  6
CONTINUOUS
 62
     7
 10
1732.82218283384
 20
4248.76137826516
 30
0.0
 11
1732.82218283384
 21
4247.76137826516
 31
0.0
  0
LINE
  5
11E
  8
0
  6
CONTINUOUS
 62
     7
 10
1737.42218893734
 20
4237.36138436866
 30
0.0
 11
1737.42218893734
 21
4229.76137826516
 31
0.0
  0
LINE
  5
11F
  8
0
  6
CONTINUOUS
 62
     7
 10
1735.67626303404
 20
4234.26137826516
 30
0.0
 11
1735.78392904964
 21
4234.26137826516
 31
0.0
  0
LINE
  5
120
  8
0
  6
CONTINUOUS
 62
     7
 10
1736.22219198904
 20
4232.26137826516
 30
0.0
 11
1736.22219198904
 21
4229.76137826516
 31
0.0
  0
LINE
  5
121
  8
0
  6
CONTINUOUS
 62
     7
 10
1734.99771994314
 20
4237.36138436866
 30
0.0
 11
1737.42218893734
 21
4237.36138436866
 31
0.0
  0
LINE
  5
122
  8
0
  6
CONTINUOUS
 62
     7
 10
1735.30124777524
 20
4237.06138131696
 30
0.0
 11
1737.42218893734
 21
4237.06138131696
 31
0.0
  0
LINE
  5
123
  8
0
  6
CONTINUOUS
 62
     7
 10
1735.67626303404
 20
4236.26137826516
 30
0.0
 11
1735.78392904964
 21
4236.26137826516
 31
0.0
  0
LINE
  5
124
  8
0
  6
CONTINUOUS
 62
     7
 10
1738.92218893734
 20
4239.26137826516
 30
0.0
 11
1738.92218893734
 21
4231.96137521336
 31
0.0
  0
LINE
  5
125
  8
0
  6
CONTINUOUS
 62
     7
 10
1735.82218283384
 20
4249.61138436866
 30
0.0
 11
1739.02217978204
 21
4249.61138436866
 31
0.0
  0
LINE
  5
126
  8
0
  6
CONTINUOUS
 62
     7
 10
1735.82218283384
 20
4251.91137216166
 30
0.0
 11
1739.02217978204
 21
4251.91137216166
 31
0.0
  0
LINE
  5
127
  8
0
  6
CONTINUOUS
 62
     7
 10
1735.82218283384
 20
4250.31138131696
 30
0.0
 11
1739.02217978204
 21
4250.31138131696
 31
0.0
  0
LINE
  5
128
  8
0
  6
CONTINUOUS
 62
     7
 10
1735.82218283384
 20
4251.21137521336
 30
0.0
 11
1739.02217978204
 21
4251.21137521336
 31
0.0
  0
LINE
  5
129
  8
0
  6
CONTINUOUS
 62
     7
 10
1735.82218283384
 20
4244.81138131696
 30
0.0
 11
1739.02217978204
 21
4244.81138131696
 31
0.0
  0
LINE
  5
12A
  8
0
  6
CONTINUOUS
 62
     7
 10
1735.82218283384
 20
4243.91137216166
 30
0.0
 11
1739.02217978204
 21
4243.91137216166
 31
0.0
  0
LINE
  5
12B
  8
0
  6
CONTINUOUS
 62
     7
 10
1735.82218283384
 20
4245.51137826516
 30
0.0
 11
1739.02217978204
 21
4245.51137826516
 31
0.0
  0
LINE
  5
12C
  8
0
  6
CONTINUOUS
 62
     7
 10
1735.82218283384
 20
4243.21137521336
 30
0.0
 11
1739.02217978204
 21
4243.21137521336
 31
0.0
  0
LINE
  5
12D
  8
0
  6
CONTINUOUS
 62
     7
 10
1735.82218283384
 20
4245.51137826516
 30
0.0
 11
1735.82218283384
 21
4243.21137521336
 31
0.0
  0
LINE
  5
12E
  8
0
  6
CONTINUOUS
 62
     7
 10
1735.82218283384
 20
4251.91137216166
 30
0.0
 11
1735.82218283384
 21
4249.61138436866
 31
0.0
  0
LINE
  5
12F
  8
0
  6
CONTINUOUS
 62
     7
 10
1739.02217978204
 20
4245.51137826516
 30
0.0
 11
1739.02217978204
 21
4243.21137521336
 31
0.0
  0
LINE
  5
130
  8
0
  6
CONTINUOUS
 62
     7
 10
1739.02217978204
 20
4251.91137216166
 30
0.0
 11
1739.02217978204
 21
4249.61138436866
 31
0.0
  0
LINE
  5
131
  8
0
  6
CONTINUOUS
 62
     7
 10
1740.22219198904
 20
4251.91137216166
 30
0.0
 11
1740.22219198904
 21
4249.61138436866
 31
0.0
  0
LINE
  5
132
  8
0
  6
CONTINUOUS
 62
     7
 10
1730.22217673024
 20
4274.76137826516
 30
0.0
 11
1736.22219198904
 21
4274.76137826516
 31
0.0
  0
LINE
  5
133
  8
0
  6
CONTINUOUS
 62
     7
 10
1730.22217673024
 20
4273.56138131696
 30
0.0
 11
1736.22219198904
 21
4273.56138131696
 31
0.0
  0
LINE
  5
134
  8
0
  6
CONTINUOUS
 62
     7
 10
1730.22217673024
 20
4273.26137826516
 30
0.0
 11
1736.22219198904
 21
4273.26137826516
 31
0.0
  0
LINE
  5
135
  8
0
  6
CONTINUOUS
 62
     7
 10
1734.27217978204
 20
4265.26137826516
 30
0.0
 11
1734.27217978204
 21
4255.26087472516
 31
0.0
  0
LINE
  5
136
  8
0
  6
CONTINUOUS
 62
     7
 10
1730.22217673024
 20
4261.76137826516
 30
0.0
 11
1730.22217673024
 21
4265.26137826516
 31
0.0
  0
LINE
  5
137
  8
0
  6
CONTINUOUS
 62
     7
 10
1733.02217978204
 20
4261.76137826516
 30
0.0
 11
1733.02217978204
 21
4265.26137826516
 31
0.0
  0
LINE
  5
138
  8
0
  6
CONTINUOUS
 62
     7
 10
1730.22217673024
 20
4262.46137521336
 30
0.0
 11
1733.02217978204
 21
4262.46137521336
 31
0.0
  0
LINE
  5
139
  8
0
  6
CONTINUOUS
 62
     7
 10
1730.22217673024
 20
4261.76137826516
 30
0.0
 11
1733.02217978204
 21
4261.76137826516
 31
0.0
  0
LINE
  5
13A
  8
0
  6
CONTINUOUS
 62
     7
 10
1731.52217978204
 20
4254.86138436866
 30
0.0
 11
1729.02217978204
 21
4254.86138436866
 31
0.0
  0
LINE
  5
13B
  8
0
  6
CONTINUOUS
 62
     7
 10
1732.52217978204
 20
4256.76137826516
 30
0.0
 11
1732.52217978204
 21
4260.76137826516
 31
0.0
  0
LINE
  5
13C
  8
0
  6
CONTINUOUS
 62
     7
 10
1732.92218893734
 20
4257.76137826516
 30
0.0
 11
1732.92218893734
 21
4259.76137826516
 31
0.0
  0
LINE
  5
13D
  8
0
  6
CONTINUOUS
 62
     7
 10
1733.52217978204
 20
4256.76137826516
 30
0.0
 11
1733.52217978204
 21
4260.76137826516
 31
0.0
  0
LINE
  5
13E
  8
0
  6
CONTINUOUS
 62
     7
 10
1733.52217978204
 20
4256.76137826516
 30
0.0
 11
1732.52217978204
 21
4256.76137826516
 31
0.0
  0
LINE
  5
13F
  8
0
  6
CONTINUOUS
 62
     7
 10
1732.92218893734
 20
4257.76137826516
 30
0.0
 11
1732.82218283384
 21
4257.76137826516
 31
0.0
  0
LINE
  5
140
  8
0
  6
CONTINUOUS
 62
     7
 10
1732.82218283384
 20
4256.76137826516
 30
0.0
 11
1732.82218283384
 21
4257.76137826516
 31
0.0
  0
LINE
  5
141
  8
0
  6
CONTINUOUS
 62
     7
 10
1733.52217978204
 20
4260.76137826516
 30
0.0
 11
1732.52217978204
 21
4260.76137826516
 31
0.0
  0
LINE
  5
142
  8
0
  6
CONTINUOUS
 62
     7
 10
1732.82218283384
 20
4259.76137826516
 30
0.0
 11
1732.82218283384
 21
4260.76137826516
 31
0.0
  0
LINE
  5
143
  8
0
  6
CONTINUOUS
 62
     7
 10
1732.92218893734
 20
4259.76137826516
 30
0.0
 11
1732.82218283384
 21
4259.76137826516
 31
0.0
  0
LINE
  5
144
  8
0
  6
CONTINUOUS
 62
     7
 10
1729.02217978204
 20
4265.26137826516
 30
0.0
 11
1734.27217978204
 21
4265.26137826516
 31
0.0
  0
LINE
  5
145
  8
0
  6
CONTINUOUS
 62
     7
 10
1730.66043966974
 20
4269.26137826516
 30
0.0
 11
1730.76810568534
 21
4269.26137826516
 31
0.0
  0
LINE
  5
146
  8
0
  6
CONTINUOUS
 62
     7
 10
1730.66043966974
 20
4271.26137826516
 30
0.0
 11
1730.76810568534
 21
4271.26137826516
 31
0.0
  0
LINE
  5
147
  8
0
  6
CONTINUOUS
 62
     7
 10
1732.52218000674
 20
4270.96138463456
 30
0.0
 11
1733.92217297924
 21
4269.56139178006
 31
0.0
  0
LINE
  5
148
  8
0
  6
CONTINUOUS
 62
     7
 10
1731.72218032784
 20
4268.76138118476
 30
0.0
 11
1734.72218376544
 21
4271.76138436956
 31
0.0
  0
LINE
  5
149
  8
0
  6
CONTINUOUS
 62
     7
 10
1732.22217673024
 20
4267.80730722026
 30
0.0
 11
1732.22217673024
 21
4267.69964120466
 31
0.0
  0
LINE
  5
14A
  8
0
  6
CONTINUOUS
 62
     7
 10
1734.22219198904
 20
4267.80730722026
 30
0.0
 11
1734.22219198904
 21
4267.69964120466
 31
0.0
  0
LINE
  5
14B
  8
0
  6
CONTINUOUS
 62
     7
 10
1732.22217673024
 20
4272.82311532566
 30
0.0
 11
1732.22217673024
 21
4272.71544931006
 31
0.0
  0
LINE
  5
14C
  8
0
  6
CONTINUOUS
 62
     7
 10
1734.22219198904
 20
4272.82311532566
 30
0.0
 11
1734.22219198904
 21
4272.71544931006
 31
0.0
  0
LINE
  5
14D
  8
0
  6
CONTINUOUS
 62
     7
 10
1735.82218283384
 20
4260.01137826516
 30
0.0
 11
1739.02217978204
 21
4260.01137826516
 31
0.0
  0
LINE
  5
14E
  8
0
  6
CONTINUOUS
 62
     7
 10
1735.82218283384
 20
4262.31138131696
 30
0.0
 11
1739.02217978204
 21
4262.31138131696
 31
0.0
  0
LINE
  5
14F
  8
0
  6
CONTINUOUS
 62
     7
 10
1735.82218283384
 20
4260.71137521336
 30
0.0
 11
1739.02217978204
 21
4260.71137521336
 31
0.0
  0
LINE
  5
150
  8
0
  6
CONTINUOUS
 62
     7
 10
1735.82218283384
 20
4261.61138436866
 30
0.0
 11
1739.02217978204
 21
4261.61138436866
 31
0.0
  0
LINE
  5
151
  8
0
  6
CONTINUOUS
 62
     7
 10
1735.82218283384
 20
4258.21137521336
 30
0.0
 11
1739.02217978204
 21
4258.21137521336
 31
0.0
  0
LINE
  5
152
  8
0
  6
CONTINUOUS
 62
     7
 10
1735.82218283384
 20
4255.91137216166
 30
0.0
 11
1739.02217978204
 21
4255.91137216166
 31
0.0
  0
LINE
  5
153
  8
0
  6
CONTINUOUS
 62
     7
 10
1735.82218283384
 20
4256.61138436866
 30
0.0
 11
1739.02217978204
 21
4256.61138436866
 31
0.0
  0
LINE
  5
154
  8
0
  6
CONTINUOUS
 62
     7
 10
1735.82218283384
 20
4257.51137826516
 30
0.0
 11
1739.02217978204
 21
4257.51137826516
 31
0.0
  0
LINE
  5
155
  8
0
  6
CONTINUOUS
 62
     7
 10
1735.82218283384
 20
4258.21137521336
 30
0.0
 11
1735.82218283384
 21
4255.91137216166
 31
0.0
  0
LINE
  5
156
  8
0
  6
CONTINUOUS
 62
     7
 10
1735.82218283384
 20
4262.31138131696
 30
0.0
 11
1735.82218283384
 21
4260.01137826516
 31
0.0
  0
LINE
  5
157
  8
0
  6
CONTINUOUS
 62
     7
 10
1740.22219198904
 20
4258.21137521336
 30
0.0
 11
1740.22219198904
 21
4255.91137216166
 31
0.0
  0
LINE
  5
158
  8
0
  6
CONTINUOUS
 62
     7
 10
1739.02217978204
 20
4258.21137521336
 30
0.0
 11
1739.02217978204
 21
4255.91137216166
 31
0.0
  0
LINE
  5
159
  8
0
  6
CONTINUOUS
 62
     7
 10
1739.02217978204
 20
4262.31138131696
 30
0.0
 11
1739.02217978204
 21
4260.01137826516
 31
0.0
  0
LINE
  5
15A
  8
0
  6
CONTINUOUS
 62
     7
 10
1740.22219198904
 20
4262.31138131696
 30
0.0
 11
1740.22219198904
 21
4260.01137826516
 31
0.0
  0
LINE
  5
15B
  8
0
  6
CONTINUOUS
 62
     7
 10
1735.67626303404
 20
4269.26137826516
 30
0.0
 11
1735.78392904964
 21
4269.26137826516
 31
0.0
  0
LINE
  5
15C
  8
0
  6
CONTINUOUS
 62
     7
 10
1737.86045187674
 20
4269.26137826516
 30
0.0
 11
1737.96810263364
 21
4269.26137826516
 31
0.0
  0
LINE
  5
15D
  8
0
  6
CONTINUOUS
 62
     7
 10
1735.67626303404
 20
4271.26137826516
 30
0.0
 11
1735.78392904964
 21
4271.26137826516
 31
0.0
  0
LINE
  5
15E
  8
0
  6
CONTINUOUS
 62
     7
 10
1737.86045187674
 20
4271.26137826516
 30
0.0
 11
1737.96810263364
 21
4271.26137826516
 31
0.0
  0
LINE
  5
15F
  8
0
  6
CONTINUOUS
 62
     7
 10
1739.72218363774
 20
4270.96138493806
 30
0.0
 11
1741.12217661034
 21
4269.56139208346
 31
0.0
  0
LINE
  5
160
  8
0
  6
CONTINUOUS
 62
     7
 10
1739.42218893734
 20
4267.80730722026
 30
0.0
 11
1739.42218893734
 21
4267.69964120466
 31
0.0
  0
LINE
  5
161
  8
0
  6
CONTINUOUS
 62
     7
 10
1741.42218893734
 20
4267.80730722026
 30
0.0
 11
1741.42218893734
 21
4267.69964120466
 31
0.0
  0
LINE
  5
162
  8
0
  6
CONTINUOUS
 62
     7
 10
1739.42218893734
 20
4272.82311532566
 30
0.0
 11
1739.42218893734
 21
4272.71544931006
 31
0.0
  0
LINE
  5
163
  8
0
  6
CONTINUOUS
 62
     7
 10
1741.42218893734
 20
4272.82311532566
 30
0.0
 11
1741.42218893734
 21
4272.71544931006
 31
0.0
  0
LINE
  5
164
  8
0
  6
CONTINUOUS
 62
     7
 10
1742.02217978204
 20
4232.96137521336
 30
0.0
 11
1746.02217978204
 21
4232.96137521336
 31
0.0
  0
LINE
  5
165
  8
0
  6
CONTINUOUS
 62
     7
 10
1742.02217978204
 20
4232.96137521336
 30
0.0
 11
1742.02217978204
 21
4231.96137521336
 31
0.0
  0
LINE
  5
166
  8
0
  6
CONTINUOUS
 62
     7
 10
1746.02217978204
 20
4232.96137521336
 30
0.0
 11
1746.02217978204
 21
4231.96137521336
 31
0.0
  0
LINE
  5
167
  8
0
  6
CONTINUOUS
 62
     7
 10
1747.82218283384
 20
4250.31138131696
 30
0.0
 11
1744.62218588554
 21
4250.31138131696
 31
0.0
  0
LINE
  5
168
  8
0
  6
CONTINUOUS
 62
     7
 10
1747.82218283384
 20
4251.21137521336
 30
0.0
 11
1744.62218588554
 21
4251.21137521336
 31
0.0
  0
LINE
  5
169
  8
0
  6
CONTINUOUS
 62
     7
 10
1747.82218283384
 20
4249.61138436866
 30
0.0
 11
1744.62218588554
 21
4249.61138436866
 31
0.0
  0
LINE
  5
16A
  8
0
  6
CONTINUOUS
 62
     7
 10
1747.82218283384
 20
4251.91137216166
 30
0.0
 11
1744.62218588554
 21
4251.91137216166
 31
0.0
  0
LINE
  5
16B
  8
0
  6
CONTINUOUS
 62
     7
 10
1744.62218588554
 20
4251.91137216166
 30
0.0
 11
1744.62218588554
 21
4249.61138436866
 31
0.0
  0
LINE
  5
16C
  8
0
  6
CONTINUOUS
 62
     7
 10
1743.42218893734
 20
4251.91137216166
 30
0.0
 11
1743.42218893734
 21
4249.61138436866
 31
0.0
  0
LINE
  5
16D
  8
0
  6
CONTINUOUS
 62
     7
 10
1747.82218283384
 20
4251.91137216166
 30
0.0
 11
1747.82218283384
 21
4249.61138436866
 31
0.0
  0
LINE
  5
16E
  8
0
  6
CONTINUOUS
 62
     7
 10
1755.02217978204
 20
4243.76137826516
 30
0.0
 11
1755.02217978204
 21
4240.26137826516
 31
0.0
  0
LINE
  5
16F
  8
0
  6
CONTINUOUS
 62
     7
 10
1753.77217978204
 20
4250.26188180516
 30
0.0
 11
1753.77217978204
 21
4240.26137826516
 31
0.0
  0
LINE
  5
170
  8
0
  6
CONTINUOUS
 62
     7
 10
1752.74312704764
 20
4237.06138131696
 30
0.0
 11
1750.62218588554
 21
4237.06138131696
 31
0.0
  0
LINE
  5
171
  8
0
  6
CONTINUOUS
 62
     7
 10
1753.04665487974
 20
4237.36138436866
 30
0.0
 11
1750.62218588554
 21
4237.36138436866
 31
0.0
  0
LINE
  5
172
  8
0
  6
CONTINUOUS
 62
     7
 10
1749.12218588554
 20
4239.26137826516
 30
0.0
 11
1749.12218588554
 21
4231.96137521336
 31
0.0
  0
LINE
  5
173
  8
0
  6
CONTINUOUS
 62
     7
 10
1750.62218588554
 20
4237.36138436866
 30
0.0
 11
1750.62218588554
 21
4229.76137826516
 31
0.0
  0
LINE
  5
174
  8
0
  6
CONTINUOUS
 62
     7
 10
1751.82218283384
 20
4232.26137826516
 30
0.0
 11
1751.82218283384
 21
4229.76137826516
 31
0.0
  0
LINE
  5
175
  8
0
  6
CONTINUOUS
 62
     7
 10
1752.26044577324
 20
4234.26137826516
 30
0.0
 11
1752.36811178884
 21
4234.26137826516
 31
0.0
  0
LINE
  5
176
  8
0
  6
CONTINUOUS
 62
     7
 10
1753.82218283384
 20
4232.80730722026
 30
0.0
 11
1753.82218283384
 21
4232.69964120466
 31
0.0
  0
LINE
  5
177
  8
0
  6
CONTINUOUS
 62
     7
 10
1752.26044577324
 20
4236.26137826516
 30
0.0
 11
1752.36811178884
 21
4236.26137826516
 31
0.0
  0
LINE
  5
178
  8
0
  6
CONTINUOUS
 62
     7
 10
1755.02217978204
 20
4239.26137826516
 30
0.0
 11
1755.02217978204
 21
4238.00409982276
 31
0.0
  0
LINE
  5
179
  8
0
  6
CONTINUOUS
 62
     7
 10
1753.82218283384
 20
4237.82311532566
 30
0.0
 11
1753.82218283384
 21
4237.71544931006
 31
0.0
  0
LINE
  5
17A
  8
0
  6
CONTINUOUS
 62
     7
 10
1752.22219198904
 20
4251.21137521336
 30
0.0
 11
1749.02217978204
 21
4251.21137521336
 31
0.0
  0
LINE
  5
17B
  8
0
  6
CONTINUOUS
 62
     7
 10
1752.22219198904
 20
4250.31138131696
 30
0.0
 11
1749.02217978204
 21
4250.31138131696
 31
0.0
  0
LINE
  5
17C
  8
0
  6
CONTINUOUS
 62
     7
 10
1752.22219198904
 20
4251.91137216166
 30
0.0
 11
1749.02217978204
 21
4251.91137216166
 31
0.0
  0
LINE
  5
17D
  8
0
  6
CONTINUOUS
 62
     7
 10
1752.22219198904
 20
4249.61138436866
 30
0.0
 11
1749.02217978204
 21
4249.61138436866
 31
0.0
  0
LINE
  5
17E
  8
0
  6
CONTINUOUS
 62
     7
 10
1752.22219198904
 20
4245.51137826516
 30
0.0
 11
1749.02217978204
 21
4245.51137826516
 31
0.0
  0
LINE
  5
17F
  8
0
  6
CONTINUOUS
 62
     7
 10
1752.22219198904
 20
4243.91137216166
 30
0.0
 11
1749.02217978204
 21
4243.91137216166
 31
0.0
  0
LINE
  5
180
  8
0
  6
CONTINUOUS
 62
     7
 10
1752.22219198904
 20
4244.81138131696
 30
0.0
 11
1749.02217978204
 21
4244.81138131696
 31
0.0
  0
LINE
  5
181
  8
0
  6
CONTINUOUS
 62
     7
 10
1752.22219198904
 20
4243.21137521336
 30
0.0
 11
1749.02217978204
 21
4243.21137521336
 31
0.0
  0
LINE
  5
182
  8
0
  6
CONTINUOUS
 62
     7
 10
1749.02217978204
 20
4245.51137826516
 30
0.0
 11
1749.02217978204
 21
4243.21137521336
 31
0.0
  0
LINE
  5
183
  8
0
  6
CONTINUOUS
 62
     7
 10
1749.02217978204
 20
4251.91137216166
 30
0.0
 11
1749.02217978204
 21
4249.61138436866
 31
0.0
  0
LINE
  5
184
  8
0
  6
CONTINUOUS
 62
     7
 10
1755.12218588554
 20
4247.76137826516
 30
0.0
 11
1755.12218588554
 21
4245.76137826516
 31
0.0
  0
LINE
  5
185
  8
0
  6
CONTINUOUS
 62
     7
 10
1754.52217978204
 20
4248.76137826516
 30
0.0
 11
1754.52217978204
 21
4244.76137826516
 31
0.0
  0
LINE
  5
186
  8
0
  6
CONTINUOUS
 62
     7
 10
1752.22219198904
 20
4245.51137826516
 30
0.0
 11
1752.22219198904
 21
4243.21137521336
 31
0.0
  0
LINE
  5
187
  8
0
  6
CONTINUOUS
 62
     7
 10
1755.22219198904
 20
4245.76137826516
 30
0.0
 11
1755.22219198904
 21
4244.76137826516
 31
0.0
  0
LINE
  5
188
  8
0
  6
CONTINUOUS
 62
     7
 10
1755.12218588554
 20
4245.76137826516
 30
0.0
 11
1755.22219198904
 21
4245.76137826516
 31
0.0
  0
LINE
  5
189
  8
0
  6
CONTINUOUS
 62
     7
 10
1752.22219198904
 20
4251.91137216166
 30
0.0
 11
1752.22219198904
 21
4249.61138436866
 31
0.0
  0
LINE
  5
18A
  8
0
  6
CONTINUOUS
 62
     7
 10
1755.22219198904
 20
4248.76137826516
 30
0.0
 11
1755.22219198904
 21
4247.76137826516
 31
0.0
  0
LINE
  5
18B
  8
0
  6
CONTINUOUS
 62
     7
 10
1755.12218588554
 20
4247.76137826516
 30
0.0
 11
1755.22219198904
 21
4247.76137826516
 31
0.0
  0
LINE
  5
18C
  8
0
  6
CONTINUOUS
 62
     7
 10
1746.12216601074
 20
4268.76138057786
 30
0.0
 11
1749.12216944834
 21
4271.76138376266
 31
0.0
  0
LINE
  5
18D
  8
0
  6
CONTINUOUS
 62
     7
 10
1744.62218588554
 20
4274.76137826516
 30
0.0
 11
1750.62218588554
 21
4274.76137826516
 31
0.0
  0
LINE
  5
18E
  8
0
  6
CONTINUOUS
 62
     7
 10
1744.62218588554
 20
4273.56138131696
 30
0.0
 11
1750.62218588554
 21
4273.56138131696
 31
0.0
  0
LINE
  5
18F
  8
0
  6
CONTINUOUS
 62
     7
 10
1744.62218588554
 20
4273.26137826516
 30
0.0
 11
1750.62218588554
 21
4273.26137826516
 31
0.0
  0
LINE
  5
190
  8
0
  6
CONTINUOUS
 62
     7
 10
1747.82218283384
 20
4260.71137521336
 30
0.0
 11
1744.62218588554
 21
4260.71137521336
 31
0.0
  0
LINE
  5
191
  8
0
  6
CONTINUOUS
 62
     7
 10
1747.82218283384
 20
4261.61138436866
 30
0.0
 11
1744.62218588554
 21
4261.61138436866
 31
0.0
  0
LINE
  5
192
  8
0
  6
CONTINUOUS
 62
     7
 10
1747.82218283384
 20
4260.01137826516
 30
0.0
 11
1744.62218588554
 21
4260.01137826516
 31
0.0
  0
LINE
  5
193
  8
0
  6
CONTINUOUS
 62
     7
 10
1747.82218283384
 20
4262.31138131696
 30
0.0
 11
1744.62218588554
 21
4262.31138131696
 31
0.0
  0
LINE
  5
194
  8
0
  6
CONTINUOUS
 62
     7
 10
1747.82218283384
 20
4256.61138436866
 30
0.0
 11
1744.62218588554
 21
4256.61138436866
 31
0.0
  0
LINE
  5
195
  8
0
  6
CONTINUOUS
 62
     7
 10
1747.82218283384
 20
4257.51137826516
 30
0.0
 11
1744.62218588554
 21
4257.51137826516
 31
0.0
  0
LINE
  5
196
  8
0
  6
CONTINUOUS
 62
     7
 10
1747.82218283384
 20
4255.91137216166
 30
0.0
 11
1744.62218588554
 21
4255.91137216166
 31
0.0
  0
LINE
  5
197
  8
0
  6
CONTINUOUS
 62
     7
 10
1747.82218283384
 20
4258.21137521336
 30
0.0
 11
1744.62218588554
 21
4258.21137521336
 31
0.0
  0
LINE
  5
198
  8
0
  6
CONTINUOUS
 62
     7
 10
1743.42218893734
 20
4258.21137521336
 30
0.0
 11
1743.42218893734
 21
4255.91137216166
 31
0.0
  0
LINE
  5
199
  8
0
  6
CONTINUOUS
 62
     7
 10
1744.62218588554
 20
4258.21137521336
 30
0.0
 11
1744.62218588554
 21
4255.91137216166
 31
0.0
  0
LINE
  5
19A
  8
0
  6
CONTINUOUS
 62
     7
 10
1744.62218588554
 20
4262.31138131696
 30
0.0
 11
1744.62218588554
 21
4260.01137826516
 31
0.0
  0
LINE
  5
19B
  8
0
  6
CONTINUOUS
 62
     7
 10
1743.42218893734
 20
4262.31138131696
 30
0.0
 11
1743.42218893734
 21
4260.01137826516
 31
0.0
  0
LINE
  5
19C
  8
0
  6
CONTINUOUS
 62
     7
 10
1747.82218283384
 20
4258.21137521336
 30
0.0
 11
1747.82218283384
 21
4255.91137216166
 31
0.0
  0
LINE
  5
19D
  8
0
  6
CONTINUOUS
 62
     7
 10
1747.82218283384
 20
4262.31138131696
 30
0.0
 11
1747.82218283384
 21
4260.01137826516
 31
0.0
  0
LINE
  5
19E
  8
0
  6
CONTINUOUS
 62
     7
 10
1745.06044882504
 20
4271.26137826516
 30
0.0
 11
1745.16809958184
 21
4271.26137826516
 31
0.0
  0
LINE
  5
19F
  8
0
  6
CONTINUOUS
 62
     7
 10
1745.06044882504
 20
4269.26137826516
 30
0.0
 11
1745.16809958184
 21
4269.26137826516
 31
0.0
  0
LINE
  5
1A0
  8
0
  6
CONTINUOUS
 62
     7
 10
1742.87625998224
 20
4269.26137826516
 30
0.0
 11
1742.98392599784
 21
4269.26137826516
 31
0.0
  0
LINE
  5
1A1
  8
0
  6
CONTINUOUS
 62
     7
 10
1742.87625998224
 20
4271.26137826516
 30
0.0
 11
1742.98392599784
 21
4271.26137826516
 31
0.0
  0
LINE
  5
1A2
  8
0
  6
CONTINUOUS
 62
     7
 10
1746.92217647924
 20
4270.96137445186
 30
0.0
 11
1748.32216945184
 21
4269.56138159736
 31
0.0
  0
LINE
  5
1A3
  8
0
  6
CONTINUOUS
 62
     7
 10
1746.62218588554
 20
4267.80730722026
 30
0.0
 11
1746.62218588554
 21
4267.69964120466
 31
0.0
  0
LINE
  5
1A4
  8
0
  6
CONTINUOUS
 62
     7
 10
1746.62218588554
 20
4272.82311532566
 30
0.0
 11
1746.62218588554
 21
4272.71544931006
 31
0.0
  0
LINE
  5
1A5
  8
0
  6
CONTINUOUS
 62
     7
 10
1755.02217978204
 20
4261.76137826516
 30
0.0
 11
1755.02217978204
 21
4265.26137826516
 31
0.0
  0
LINE
  5
1A6
  8
0
  6
CONTINUOUS
 62
     7
 10
1753.77217978204
 20
4265.26137826516
 30
0.0
 11
1753.77217978204
 21
4255.26087472516
 31
0.0
  0
LINE
  5
1A7
  8
0
  6
CONTINUOUS
 62
     7
 10
1752.22219198904
 20
4261.61138436866
 30
0.0
 11
1749.02217978204
 21
4261.61138436866
 31
0.0
  0
LINE
  5
1A8
  8
0
  6
CONTINUOUS
 62
     7
 10
1752.22219198904
 20
4260.71137521336
 30
0.0
 11
1749.02217978204
 21
4260.71137521336
 31
0.0
  0
LINE
  5
1A9
  8
0
  6
CONTINUOUS
 62
     7
 10
1752.22219198904
 20
4260.01137826516
 30
0.0
 11
1749.02217978204
 21
4260.01137826516
 31
0.0
  0
LINE
  5
1AA
  8
0
  6
CONTINUOUS
 62
     7
 10
1752.22219198904
 20
4262.31138131696
 30
0.0
 11
1749.02217978204
 21
4262.31138131696
 31
0.0
  0
LINE
  5
1AB
  8
0
  6
CONTINUOUS
 62
     7
 10
1752.22219198904
 20
4258.21137521336
 30
0.0
 11
1749.02217978204
 21
4258.21137521336
 31
0.0
  0
LINE
  5
1AC
  8
0
  6
CONTINUOUS
 62
     7
 10
1752.22219198904
 20
4257.51137826516
 30
0.0
 11
1749.02217978204
 21
4257.51137826516
 31
0.0
  0
LINE
  5
1AD
  8
0
  6
CONTINUOUS
 62
     7
 10
1752.22219198904
 20
4256.61138436866
 30
0.0
 11
1749.02217978204
 21
4256.61138436866
 31
0.0
  0
LINE
  5
1AE
  8
0
  6
CONTINUOUS
 62
     7
 10
1752.22219198904
 20
4255.91137216166
 30
0.0
 11
1749.02217978204
 21
4255.91137216166
 31
0.0
  0
LINE
  5
1AF
  8
0
  6
CONTINUOUS
 62
     7
 10
1749.02217978204
 20
4258.21137521336
 30
0.0
 11
1749.02217978204
 21
4255.91137216166
 31
0.0
  0
LINE
  5
1B0
  8
0
  6
CONTINUOUS
 62
     7
 10
1749.02217978204
 20
4262.31138131696
 30
0.0
 11
1749.02217978204
 21
4260.01137826516
 31
0.0
  0
LINE
  5
1B1
  8
0
  6
CONTINUOUS
 62
     7
 10
1755.12218588554
 20
4257.76137826516
 30
0.0
 11
1755.12218588554
 21
4259.76137826516
 31
0.0
  0
LINE
  5
1B2
  8
0
  6
CONTINUOUS
 62
     7
 10
1754.52217978204
 20
4256.76137826516
 30
0.0
 11
1754.52217978204
 21
4260.76137826516
 31
0.0
  0
LINE
  5
1B3
  8
0
  6
CONTINUOUS
 62
     7
 10
1752.22219198904
 20
4258.21137521336
 30
0.0
 11
1752.22219198904
 21
4255.91137216166
 31
0.0
  0
LINE
  5
1B4
  8
0
  6
CONTINUOUS
 62
     7
 10
1755.22219198904
 20
4256.76137826516
 30
0.0
 11
1755.22219198904
 21
4257.76137826516
 31
0.0
  0
LINE
  5
1B5
  8
0
  6
CONTINUOUS
 62
     7
 10
1755.12218588554
 20
4257.76137826516
 30
0.0
 11
1755.22219198904
 21
4257.76137826516
 31
0.0
  0
LINE
  5
1B6
  8
0
  6
CONTINUOUS
 62
     7
 10
1752.22219198904
 20
4262.31138131696
 30
0.0
 11
1752.22219198904
 21
4260.01137826516
 31
0.0
  0
LINE
  5
1B7
  8
0
  6
CONTINUOUS
 62
     7
 10
1755.22219198904
 20
4259.76137826516
 30
0.0
 11
1755.22219198904
 21
4260.76137826516
 31
0.0
  0
LINE
  5
1B8
  8
0
  6
CONTINUOUS
 62
     7
 10
1755.12218588554
 20
4259.76137826516
 30
0.0
 11
1755.22219198904
 21
4259.76137826516
 31
0.0
  0
LINE
  5
1B9
  8
0
  6
CONTINUOUS
 62
     7
 10
1750.07625693044
 20
4269.26137826516
 30
0.0
 11
1750.18392294614
 21
4269.26137826516
 31
0.0
  0
LINE
  5
1BA
  8
0
  6
CONTINUOUS
 62
     7
 10
1748.62218588554
 20
4267.80730722026
 30
0.0
 11
1748.62218588554
 21
4267.69964120466
 31
0.0
  0
LINE
  5
1BB
  8
0
  6
CONTINUOUS
 62
     7
 10
1750.07625693044
 20
4271.26137826516
 30
0.0
 11
1750.18392294614
 21
4271.26137826516
 31
0.0
  0
LINE
  5
1BC
  8
0
  6
CONTINUOUS
 62
     7
 10
1748.62218588554
 20
4272.82311532566
 30
0.0
 11
1748.62218588554
 21
4272.71544931006
 31
0.0
  0
LINE
  5
1BD
  8
0
  6
CONTINUOUS
 62
     7
 10
1752.26044577324
 20
4269.26137826516
 30
0.0
 11
1752.36811178884
 21
4269.26137826516
 31
0.0
  0
LINE
  5
1BE
  8
0
  6
CONTINUOUS
 62
     7
 10
1753.82218283384
 20
4267.80730722026
 30
0.0
 11
1753.82218283384
 21
4267.69964120466
 31
0.0
  0
LINE
  5
1BF
  8
0
  6
CONTINUOUS
 62
     7
 10
1752.26044577324
 20
4271.26137826516
 30
0.0
 11
1752.36811178884
 21
4271.26137826516
 31
0.0
  0
LINE
  5
1C0
  8
0
  6
CONTINUOUS
 62
     7
 10
1753.82218283384
 20
4272.82311532566
 30
0.0
 11
1753.82218283384
 21
4272.71544931006
 31
0.0
  0
LINE
  5
1C1
  8
0
  6
CONTINUOUS
 62
     7
 10
1738.92217353594
 20
4277.46138616806
 30
0.0
 11
1741.92217697364
 21
4280.46138935276
 31
0.0
  0
LINE
  5
1C2
  8
0
  6
CONTINUOUS
 62
     7
 10
1737.42218893734
 20
4284.26137826516
 30
0.0
 11
1743.42218893734
 21
4284.26137826516
 31
0.0
  0
LINE
  5
1C3
  8
0
  6
CONTINUOUS
 62
     7
 10
1737.42218893734
 20
4282.26137826516
 30
0.0
 11
1743.42218893734
 21
4282.26137826516
 31
0.0
  0
LINE
  5
1C4
  8
0
  6
CONTINUOUS
 62
     7
 10
1737.42218893734
 20
4281.96137521336
 30
0.0
 11
1743.42218893734
 21
4281.96137521336
 31
0.0
  0
LINE
  5
1C5
  8
0
  6
CONTINUOUS
 62
     7
 10
1730.22217673024
 20
4281.96137521336
 30
0.0
 11
1736.22219198904
 21
4281.96137521336
 31
0.0
  0
LINE
  5
1C6
  8
0
  6
CONTINUOUS
 62
     7
 10
1736.22219198904
 20
4283.26137826516
 30
0.0
 11
1732.72217673024
 21
4283.26137826516
 31
0.0
  0
LINE
  5
1C7
  8
0
  6
CONTINUOUS
 62
     7
 10
1730.22217673024
 20
4282.26137826516
 30
0.0
 11
1736.22219198904
 21
4282.26137826516
 31
0.0
  0
LINE
  5
1C8
  8
0
  6
CONTINUOUS
 62
     7
 10
1730.22217673024
 20
4284.26137826516
 30
0.0
 11
1736.22219198904
 21
4284.26137826516
 31
0.0
  0
LINE
  5
1C9
  8
0
  6
CONTINUOUS
 62
     7
 10
1730.66043966974
 20
4279.96137521336
 30
0.0
 11
1730.76810568534
 21
4279.96137521336
 31
0.0
  0
LINE
  5
1CA
  8
0
  6
CONTINUOUS
 62
     7
 10
1730.66043966974
 20
4277.96137521336
 30
0.0
 11
1730.76810568534
 21
4277.96137521336
 31
0.0
  0
LINE
  5
1CB
  8
0
  6
CONTINUOUS
 62
     7
 10
1730.22217673024
 20
4281.96137521336
 30
0.0
 11
1730.22217673024
 21
4284.76137826516
 31
0.0
  0
LINE
  5
1CC
  8
0
  6
CONTINUOUS
 62
     7
 10
1732.52217964004
 20
4279.66137913166
 30
0.0
 11
1733.92217261254
 21
4278.26138627706
 31
0.0
  0
LINE
  5
1CD
  8
0
  6
CONTINUOUS
 62
     7
 10
1731.72216990484
 20
4277.46138647146
 30
0.0
 11
1734.72217334254
 21
4280.46138965626
 31
0.0
  0
LINE
  5
1CE
  8
0
  6
CONTINUOUS
 62
     7
 10
1732.22217673024
 20
4276.50730416846
 30
0.0
 11
1732.22217673024
 21
4276.39963815286
 31
0.0
  0
LINE
  5
1CF
  8
0
  6
CONTINUOUS
 62
     7
 10
1734.22219198904
 20
4276.50730416846
 30
0.0
 11
1734.22219198904
 21
4276.39963815286
 31
0.0
  0
LINE
  5
1D0
  8
0
  6
CONTINUOUS
 62
     7
 10
1732.22217673024
 20
4281.52311227396
 30
0.0
 11
1732.22217673024
 21
4281.41544625836
 31
0.0
  0
LINE
  5
1D1
  8
0
  6
CONTINUOUS
 62
     7
 10
1732.72217673024
 20
4282.26137826516
 30
0.0
 11
1732.72217673024
 21
4283.26137826516
 31
0.0
  0
LINE
  5
1D2
  8
0
  6
CONTINUOUS
 62
     7
 10
1734.22219198904
 20
4281.52311227396
 30
0.0
 11
1734.22219198904
 21
4281.41544625836
 31
0.0
  0
LINE
  5
1D3
  8
0
  6
CONTINUOUS
 62
     7
 10
1735.67626303404
 20
4277.96137521336
 30
0.0
 11
1735.78392904964
 21
4277.96137521336
 31
0.0
  0
LINE
  5
1D4
  8
0
  6
CONTINUOUS
 62
     7
 10
1735.67626303404
 20
4279.96137521336
 30
0.0
 11
1735.78392904964
 21
4279.96137521336
 31
0.0
  0
LINE
  5
1D5
  8
0
  6
CONTINUOUS
 62
     7
 10
1737.86045187674
 20
4279.96137521336
 30
0.0
 11
1737.96810263364
 21
4279.96137521336
 31
0.0
  0
LINE
  5
1D6
  8
0
  6
CONTINUOUS
 62
     7
 10
1737.86045187674
 20
4277.96137521336
 30
0.0
 11
1737.96810263364
 21
4277.96137521336
 31
0.0
  0
LINE
  5
1D7
  8
0
  6
CONTINUOUS
 62
     7
 10
1736.22219198904
 20
4281.96137521336
 30
0.0
 11
1736.22219198904
 21
4284.76137826516
 31
0.0
  0
LINE
  5
1D8
  8
0
  6
CONTINUOUS
 62
     7
 10
1737.42218893734
 20
4281.96137521336
 30
0.0
 11
1737.42218893734
 21
4284.76137826516
 31
0.0
  0
LINE
  5
1D9
  8
0
  6
CONTINUOUS
 62
     7
 10
1739.72218327114
 20
4279.66137943506
 30
0.0
 11
1741.12217624364
 21
4278.26138658056
 31
0.0
  0
LINE
  5
1DA
  8
0
  6
CONTINUOUS
 62
     7
 10
1739.42218893734
 20
4276.50730416846
 30
0.0
 11
1739.42218893734
 21
4276.39963815286
 31
0.0
  0
LINE
  5
1DB
  8
0
  6
CONTINUOUS
 62
     7
 10
1741.42218893734
 20
4276.50730416846
 30
0.0
 11
1741.42218893734
 21
4276.39963815286
 31
0.0
  0
LINE
  5
1DC
  8
0
  6
CONTINUOUS
 62
     7
 10
1739.42218893734
 20
4281.52311227396
 30
0.0
 11
1739.42218893734
 21
4281.41544625836
 31
0.0
  0
LINE
  5
1DD
  8
0
  6
CONTINUOUS
 62
     7
 10
1741.42218893734
 20
4281.52311227396
 30
0.0
 11
1741.42218893734
 21
4281.41544625836
 31
0.0
  0
LINE
  5
1DE
  8
0
  6
CONTINUOUS
 62
     7
 10
1746.12217716704
 20
4277.46138586456
 30
0.0
 11
1749.12218060464
 21
4280.46138904936
 31
0.0
  0
LINE
  5
1DF
  8
0
  6
CONTINUOUS
 62
     7
 10
1750.62218588554
 20
4284.26137826516
 30
0.0
 11
1744.62218588554
 21
4284.26137826516
 31
0.0
  0
LINE
  5
1E0
  8
0
  6
CONTINUOUS
 62
     7
 10
1750.62218588554
 20
4282.26137826516
 30
0.0
 11
1744.62218588554
 21
4282.26137826516
 31
0.0
  0
LINE
  5
1E1
  8
0
  6
CONTINUOUS
 62
     7
 10
1750.62218588554
 20
4281.96137521336
 30
0.0
 11
1744.62218588554
 21
4281.96137521336
 31
0.0
  0
LINE
  5
1E2
  8
0
  6
CONTINUOUS
 62
     7
 10
1745.06044882504
 20
4279.96137521336
 30
0.0
 11
1745.16809958184
 21
4279.96137521336
 31
0.0
  0
LINE
  5
1E3
  8
0
  6
CONTINUOUS
 62
     7
 10
1745.06044882504
 20
4277.96137521336
 30
0.0
 11
1745.16809958184
 21
4277.96137521336
 31
0.0
  0
LINE
  5
1E4
  8
0
  6
CONTINUOUS
 62
     7
 10
1742.87625998224
 20
4277.96137521336
 30
0.0
 11
1742.98392599784
 21
4277.96137521336
 31
0.0
  0
LINE
  5
1E5
  8
0
  6
CONTINUOUS
 62
     7
 10
1742.87625998224
 20
4279.96137521336
 30
0.0
 11
1742.98392599784
 21
4279.96137521336
 31
0.0
  0
LINE
  5
1E6
  8
0
  6
CONTINUOUS
 62
     7
 10
1744.62218588554
 20
4281.96137521336
 30
0.0
 11
1744.62218588554
 21
4284.76137826516
 31
0.0
  0
LINE
  5
1E7
  8
0
  6
CONTINUOUS
 62
     7
 10
1743.42218893734
 20
4281.96137521336
 30
0.0
 11
1743.42218893734
 21
4284.76137826516
 31
0.0
  0
LINE
  5
1E8
  8
0
  6
CONTINUOUS
 62
     7
 10
1746.62218588554
 20
4276.50730416846
 30
0.0
 11
1746.62218588554
 21
4276.39963815286
 31
0.0
  0
LINE
  5
1E9
  8
0
  6
CONTINUOUS
 62
     7
 10
1746.92217611254
 20
4279.66136894896
 30
0.0
 11
1748.32216908514
 21
4278.26137609446
 31
0.0
  0
LINE
  5
1EA
  8
0
  6
CONTINUOUS
 62
     7
 10
1746.62218588554
 20
4281.52311227396
 30
0.0
 11
1746.62218588554
 21
4281.41544625836
 31
0.0
  0
LINE
  5
1EB
  8
0
  6
CONTINUOUS
 62
     7
 10
1750.07625693044
 20
4277.96137521336
 30
0.0
 11
1750.18392294614
 21
4277.96137521336
 31
0.0
  0
LINE
  5
1EC
  8
0
  6
CONTINUOUS
 62
     7
 10
1750.07625693044
 20
4279.96137521336
 30
0.0
 11
1750.18392294614
 21
4279.96137521336
 31
0.0
  0
LINE
  5
1ED
  8
0
  6
CONTINUOUS
 62
     7
 10
1748.62218588554
 20
4276.50730416846
 30
0.0
 11
1748.62218588554
 21
4276.39963815286
 31
0.0
  0
LINE
  5
1EE
  8
0
  6
CONTINUOUS
 62
     7
 10
1748.62218588554
 20
4281.52311227396
 30
0.0
 11
1748.62218588554
 21
4281.41544625836
 31
0.0
  0
LINE
  5
1EF
  8
0
  6
CONTINUOUS
 62
     7
 10
1751.82218283384
 20
4281.96137521336
 30
0.0
 11
1751.82218283384
 21
4284.76137826516
 31
0.0
  0
LINE
  5
1F0
  8
0
  6
CONTINUOUS
 62
     7
 10
1750.62218588554
 20
4281.96137521336
 30
0.0
 11
1750.62218588554
 21
4284.76137826516
 31
0.0
  0
LINE
  5
1F1
  8
0
  6
CONTINUOUS
 62
     7
 10
1752.26044577324
 20
4279.96137521336
 30
0.0
 11
1752.36811178884
 21
4279.96137521336
 31
0.0
  0
LINE
  5
1F2
  8
0
  6
CONTINUOUS
 62
     7
 10
1752.26044577324
 20
4277.96137521336
 30
0.0
 11
1752.36811178884
 21
4277.96137521336
 31
0.0
  0
LINE
  5
1F3
  8
0
  6
CONTINUOUS
 62
     7
 10
1753.82218283384
 20
4276.50730416846
 30
0.0
 11
1753.82218283384
 21
4276.39963815286
 31
0.0
  0
LINE
  5
1F4
  8
0
  6
CONTINUOUS
 62
     7
 10
1754.32218283384
 20
4282.26137826516
 30
0.0
 11
1754.32218283384
 21
4283.26137826516
 31
0.0
  0
LINE
  5
1F5
  8
0
  6
CONTINUOUS
 62
     7
 10
1753.82218283384
 20
4281.52311227396
 30
0.0
 11
1753.82218283384
 21
4281.41544625836
 31
0.0
  0
LINE
  5
1F6
  8
0
  6
CONTINUOUS
 62
     7
 10
1757.82218283384
 20
4273.26137826516
 30
0.0
 11
1757.82218283384
 21
4275.76137826516
 31
0.0
  0
LINE
  5
1F7
  8
0
  6
CONTINUOUS
 62
     7
 10
1759.02217978204
 20
4284.76137826516
 30
0.0
 11
1759.02217978204
 21
4254.86138436866
 31
0.0
  0
LINE
  5
1F8
  8
0
  6
CONTINUOUS
 62
     7
 10
1757.82218283384
 20
4243.76137826516
 30
0.0
 11
1757.82218283384
 21
4240.26137826516
 31
0.0
  0
LINE
  5
1F9
  8
0
  6
CONTINUOUS
 62
     7
 10
1755.82218283384
 20
4232.80730722026
 30
0.0
 11
1755.82218283384
 21
4232.69964120466
 31
0.0
  0
LINE
  5
1FA
  8
0
  6
CONTINUOUS
 62
     7
 10
1757.82218283384
 20
4232.26137826516
 30
0.0
 11
1757.82218283384
 21
4229.76137826516
 31
0.0
  0
LINE
  5
1FB
  8
0
  6
CONTINUOUS
 62
     7
 10
1757.27626913754
 20
4234.26137826516
 30
0.0
 11
1757.38391989434
 21
4234.26137826516
 31
0.0
  0
LINE
  5
1FC
  8
0
  6
CONTINUOUS
 62
     7
 10
1755.82218283384
 20
4237.82311532566
 30
0.0
 11
1755.82218283384
 21
4237.71544931006
 31
0.0
  0
LINE
  5
1FD
  8
0
  6
CONTINUOUS
 62
     7
 10
1757.27626913754
 20
4236.26137826516
 30
0.0
 11
1757.38391989434
 21
4236.26137826516
 31
0.0
  0
LINE
  5
1FE
  8
0
  6
CONTINUOUS
 62
     7
 10
1756.52217978204
 20
4250.66137216166
 30
0.0
 11
1759.02217978204
 21
4250.66137216166
 31
0.0
  0
LINE
  5
1FF
  8
0
  6
CONTINUOUS
 62
     7
 10
1755.52217978204
 20
4244.76137826516
 30
0.0
 11
1755.52217978204
 21
4248.76137826516
 31
0.0
  0
LINE
  5
200
  8
0
  6
CONTINUOUS
 62
     7
 10
1757.82218283384
 20
4261.76137826516
 30
0.0
 11
1757.82218283384
 21
4265.26137826516
 31
0.0
  0
LINE
  5
201
  8
0
  6
CONTINUOUS
 62
     7
 10
1756.52217978204
 20
4254.86138436866
 30
0.0
 11
1759.02217978204
 21
4254.86138436866
 31
0.0
  0
LINE
  5
202
  8
0
  6
CONTINUOUS
 62
     7
 10
1755.52217978204
 20
4256.76137826516
 30
0.0
 11
1755.52217978204
 21
4260.76137826516
 31
0.0
  0
LINE
  5
203
  8
0
  6
CONTINUOUS
 62
     7
 10
1755.82218283384
 20
4267.80730722026
 30
0.0
 11
1755.82218283384
 21
4267.69964120466
 31
0.0
  0
LINE
  5
204
  8
0
  6
CONTINUOUS
 62
     7
 10
1757.27626913754
 20
4269.26137826516
 30
0.0
 11
1757.38391989434
 21
4269.26137826516
 31
0.0
  0
LINE
  5
205
  8
0
  6
CONTINUOUS
 62
     7
 10
1755.82218283384
 20
4272.82311532566
 30
0.0
 11
1755.82218283384
 21
4272.71544931006
 31
0.0
  0
LINE
  5
206
  8
0
  6
CONTINUOUS
 62
     7
 10
1757.27626913754
 20
4271.26137826516
 30
0.0
 11
1757.38391989434
 21
4271.26137826516
 31
0.0
  0
LINE
  5
207
  8
0
  6
CONTINUOUS
 62
     7
 10
1755.82218283384
 20
4276.50730416846
 30
0.0
 11
1755.82218283384
 21
4276.39963815286
 31
0.0
  0
LINE
  5
208
  8
0
  6
CONTINUOUS
 62
     7
 10
1757.27626913754
 20
4277.96137521336
 30
0.0
 11
1757.38391989434
 21
4277.96137521336
 31
0.0
  0
LINE
  5
209
  8
0
  6
CONTINUOUS
 62
     7
 10
1757.27626913754
 20
4279.96137521336
 30
0.0
 11
1757.38391989434
 21
4279.96137521336
 31
0.0
  0
LINE
  5
20A
  8
0
  6
CONTINUOUS
 62
     7
 10
1755.82218283384
 20
4281.52311227396
 30
0.0
 11
1755.82218283384
 21
4281.41544625836
 31
0.0
  0
LINE
  5
20B
  8
0
  6
CONTINUOUS
 62
     7
 10
1757.82218283384
 20
4281.96137521336
 30
0.0
 11
1757.82218283384
 21
4284.76137826516
 31
0.0
  0
LINE
  5
20C
  8
0
  6
CONTINUOUS
 62
     7
 10
1803.02217978204
 20
4250.26188180516
 30
0.0
 11
1810.02217978204
 21
4250.26188180516
 31
0.0
  0
LINE
  5
20D
  8
0
  6
CONTINUOUS
 62
     7
 10
1803.02217978204
 20
4240.26137826516
 30
0.0
 11
1810.02217978204
 21
4240.26137826516
 31
0.0
  0
LINE
  5
20E
  8
0
  6
CONTINUOUS
 62
     7
 10
1801.02217978204
 20
4229.76137826516
 30
0.0
 11
1809.82218283384
 21
4229.76137826516
 31
0.0
  0
LINE
  5
20F
  8
0
  6
CONTINUOUS
 62
     7
 10
1799.32218283384
 20
4238.76137826516
 30
0.0
 11
1802.52217978204
 21
4238.76137826516
 31
0.0
  0
LINE
  5
210
  8
0
  6
CONTINUOUS
 62
     7
 10
1799.02217978204
 20
4238.46137521336
 30
0.0
 11
1799.02217978204
 21
4231.76137826516
 31
0.0
  0
LINE
  5
211
  8
0
  6
CONTINUOUS
 62
     7
 10
1799.02219158704
 20
4238.46135499596
 30
0.0
 11
1799.32218591224
 21
4238.76134836016
 31
0.0
  0
LINE
  5
212
  8
0
  6
CONTINUOUS
 62
     7
 10
1803.02217361334
 20
4239.26136059576
 30
0.0
 11
1802.52218387214
 21
4238.76137085456
 31
0.0
  0
LINE
  5
213
  8
0
  6
CONTINUOUS
 62
     7
 10
1803.02217978204
 20
4265.26137826516
 30
0.0
 11
1810.02217978204
 21
4265.26137826516
 31
0.0
  0
LINE
  5
214
  8
0
  6
CONTINUOUS
 62
     7
 10
1803.02217978204
 20
4255.26087472516
 30
0.0
 11
1810.02217978204
 21
4255.26087472516
 31
0.0
  0
LINE
  5
215
  8
0
  6
CONTINUOUS
 62
     7
 10
1799.52217978204
 20
4266.26137826516
 30
0.0
 11
1803.02217978204
 21
4266.26137826516
 31
0.0
  0
LINE
  5
216
  8
0
  6
CONTINUOUS
 62
     7
 10
1799.02217978204
 20
4273.76137826516
 30
0.0
 11
1799.02217978204
 21
4266.76137826516
 31
0.0
  0
LINE
  5
217
  8
0
  6
CONTINUOUS
 62
     7
 10
1799.52215910814
 20
4266.26134610026
 30
0.0
 11
1799.02215857734
 21
4266.76134663106
 31
0.0
  0
LINE
  5
218
  8
0
  6
CONTINUOUS
 62
     7
 10
1801.02217978204
 20
4275.76137826516
 30
0.0
 11
1809.82218283384
 21
4275.76137826516
 31
0.0
  0
LINE
  5
219
  8
0
  6
CONTINUOUS
 62
     7
 10
1809.82218283384
 20
4282.76137826516
 30
0.0
 11
1809.82218283384
 21
4275.76137826516
 31
0.0
  0
LINE
  5
21A
  8
0
  6
CONTINUOUS
 62
     7
 10
1828.02217978204
 20
4284.76137826516
 30
0.0
 11
1828.02217978204
 21
4270.41137216166
 31
0.0
  0
LINE
  5
21B
  8
0
  6
DOTTED
 62
     7
 10
1824.02217978204
 20
4270.26136300636
 30
0.0
 11
1825.02217978204
 21
4270.26136300636
 31
0.0
  0
LINE
  5
21C
  8
0
  6
CONTINUOUS
 62
     7
 10
1824.02217978204
 20
4270.41137216166
 30
0.0
 11
1828.02217978204
 21
4270.41137216166
 31
0.0
  0
LINE
  5
21D
  8
0
  6
CONTINUOUS
 62
     7
 10
1824.42213104004
 20
4267.26135831896
 30
0.0
 11
1824.02213240684
 21
4268.76135506736
 31
0.0
  0
LINE
  5
21E
  8
0
  6
CONTINUOUS
 62
     7
 10
1819.02217978204
 20
4257.76137826516
 30
0.0
 11
1828.02217978204
 21
4257.76137826516
 31
0.0
  0
LINE
  5
21F
  8
0
  6
CONTINUOUS
 62
     7
 10
1819.02217978204
 20
4247.76137826516
 30
0.0
 11
1828.02217978204
 21
4247.76137826516
 31
0.0
  0
LINE
  5
220
  8
0
  6
CONTINUOUS
 62
     7
 10
1819.02217978204
 20
4260.76137826516
 30
0.0
 11
1828.02217978204
 21
4260.76137826516
 31
0.0
  0
LINE
  5
221
  8
0
  6
DOTTED
 62
     7
 10
1824.02217978204
 20
4235.26137826516
 30
0.0
 11
1825.02217978204
 21
4235.26137826516
 31
0.0
  0
LINE
  5
222
  8
0
  6
CONTINUOUS
 62
     7
 10
1824.02217978204
 20
4235.36138436866
 30
0.0
 11
1825.42217367854
 21
4235.36138436866
 31
0.0
  0
LINE
  5
223
  8
0
  6
CONTINUOUS
 62
     7
 10
1824.02217978204
 20
4235.11138436866
 30
0.0
 11
1828.02217978204
 21
4235.11138436866
 31
0.0
  0
LINE
  5
224
  8
0
  6
CONTINUOUS
 62
     7
 10
1819.02217978204
 20
4244.76137826516
 30
0.0
 11
1828.02217978204
 21
4244.76137826516
 31
0.0
  0
LINE
  5
225
  8
0
  6
CONTINUOUS
 62
     7
 10
1819.02217978204
 20
4245.76137826516
 30
0.0
 11
1820.12218588554
 21
4245.76137826516
 31
0.0
  0
LINE
  5
226
  8
0
  6
CONTINUOUS
 62
     7
 10
1819.02217978204
 20
4259.76137826516
 30
0.0
 11
1820.12218588554
 21
4259.76137826516
 31
0.0
  0
LINE
  5
227
  8
0
  6
DOTTED
 62
     7
 10
1830.32218283384
 20
4241.06138131696
 30
0.0
 11
1830.32218283384
 21
4264.46137521336
 31
0.0
  0
LINE
  5
228
  8
0
  6
DOTTED
 62
     7
 10
1831.32218283384
 20
4240.06138131696
 30
0.0
 11
1831.32218283384
 21
4265.46137521336
 31
0.0
  0
LINE
  5
229
  8
0
  6
DOTTED
 62
     7
 10
1824.82219809264
 20
4240.26136300636
 30
0.0
 11
1829.52217978204
 21
4240.26136300636
 31
0.0
  0
LINE
  5
22A
  8
0
  6
CONTINUOUS
 62
     7
 10
1827.68018837544
 20
4235.11140743626
 30
0.0
 11
1826.12218431454
 21
4237.16141361156
 31
0.0
  0
LINE
  5
22B
  8
0
  6
DOTTED
 62
     7
 10
1825.82219809264
 20
4239.26136300636
 30
0.0
 11
1830.52217978204
 21
4239.26136300636
 31
0.0
  0
LINE
  5
22C
  8
0
  6
CONTINUOUS
 62
     7
 10
1825.35826986994
 20
4237.16138742046
 30
0.0
 11
1826.12218588554
 21
4237.16138742046
 31
0.0
  0
LINE
  5
22D
  8
0
  6
DOTTED
 62
     7
 10
1825.02217978204
 20
4235.26137826516
 30
0.0
 11
1825.02217978204
 21
4238.46137521336
 31
0.0
  0
LINE
  5
22E
  8
0
  6
CONTINUOUS
 62
     7
 10
1825.16098433624
 20
4236.928514946359
 30
0.0
 11
1825.42216671434
 21
4235.36141641646
 31
0.0
  0
LINE
  5
22F
  8
0
  6
CONTINUOUS
 62
     7
 10
1828.02217978204
 20
4244.76139352396
 30
0.0
 11
1828.02217978204
 21
4247.76139352396
 31
0.0
  0
LINE
  5
230
  8
0
  6
CONTINUOUS
 62
     7
 10
1828.02217978204
 20
4257.76139352396
 30
0.0
 11
1828.02217978204
 21
4260.76139352396
 31
0.0
  0
LINE
  5
231
  8
0
  6
DOTTED
 62
     7
 10
1824.82219809264
 20
4265.26136300636
 30
0.0
 11
1829.52217978204
 21
4265.26136300636
 31
0.0
  0
LINE
  5
232
  8
0
  6
CONTINUOUS
 62
     7
 10
1826.52202057744
 20
4268.91160001436
 30
0.0
 11
1828.02202229634
 21
4270.411601480359
 31
0.0
  0
LINE
  5
233
  8
0
  6
DOTTED
 62
     7
 10
1825.82219809264
 20
4266.26136300636
 30
0.0
 11
1830.52217978204
 21
4266.26136300636
 31
0.0
  0
LINE
  5
234
  8
0
  6
DOTTED
 62
     7
 10
1825.02217978204
 20
4267.06138131696
 30
0.0
 11
1825.02217978204
 21
4270.26137826516
 31
0.0
  0
LINE
  5
235
  8
0
  6
CONTINUOUS
 62
     7
 10
1825.12219327824
 20
4270.41140641146
 30
0.0
 11
1825.32219395734
 21
4268.91140591846
 31
0.0
  0
LINE
  5
236
  8
0
  6
CONTINUOUS
 62
     7
 10
1825.32218283384
 20
4268.91138742046
 30
0.0
 11
1826.52217978204
 21
4268.91138742046
 31
0.0
  0
LINE
  5
237
  8
0
  6
CONTINUOUS
 62
     7
 10
1811.82218283384
 20
4284.76137826516
 30
0.0
 11
1828.02217978204
 21
4284.76137826516
 31
0.0
  0
ARC
  5
238
  8
1
  6
CONTINUOUS
 62
     7
 10
1756.52217978204
 20
4252.76137826516
 30
0.0
 40
1.5
 50
90.0
 51
270.0
  0
ARC
  5
239
  8
1
  6
CONTINUOUS
 62
     7
 10
1731.52217978204
 20
4252.76137826516
 30
0.0
 40
1.5
 50
270.0
 51
90.0
  0
ARC
  5
23A
  8
1
  6
CONTINUOUS
 62
     7
 10
1731.52217978204
 20
4252.76137826516
 30
0.0
 40
2.60000000000087
 50
309.7151372318493
 51
50.28486276815072
  0
ARC
  5
23B
  8
1
  6
CONTINUOUS
 62
     7
 10
1756.52217978204
 20
4252.76137826516
 30
0.0
 40
2.600000000000289
 50
129.7151372318339
 51
230.2848627681661
  0
ARC
  5
23C
  8
1
  6
CONTINUOUS
 62
     7
 10
1756.52217978204
 20
4252.76137826516
 30
0.0
 40
2.0
 50
90.0
 51
270.0
  0
ARC
  5
23D
  8
1
  6
CONTINUOUS
 62
     7
 10
1731.52217978204
 20
4252.76137826516
 30
0.0
 40
2.0
 50
270.0
 51
90.0
  0
ARC
  5
23E
  8
0
  6
CONTINUOUS
 62
     7
 10
1756.52217978204
 20
4252.76137826516
 30
0.0
 40
2.099999427800061
 50
89.9999820138963
 51
107.7527413990105
  0
ARC
  5
23F
  8
0
  6
CONTINUOUS
 62
     7
 10
1731.52217978204
 20
4252.76137826516
 30
0.0
 40
2.099999427800388
 50
269.9999633446089
 51
287.7527413989042
  0
ARC
  5
240
  8
0
  6
CONTINUOUS
 62
     7
 10
1801.02217978204
 20
4231.76137826516
 30
0.0
 40
2.000000000000106
 50
179.9999813306842
 51
270.0000179860923
  0
ARC
  5
241
  8
0
  6
CONTINUOUS
 62
     7
 10
1811.82218283384
 20
4222.76137826516
 30
0.0
 40
2.000000000000106
 50
179.9999813307103
 51
270.0000179860858
  0
ARC
  5
242
  8
0
  6
CONTINUOUS
 62
     7
 10
1811.82218283384
 20
4220.76137826516
 30
0.0
 40
2.000000000000106
 50
179.9999813307103
 51
0.0
  0
ARC
  5
243
  8
0
  6
CONTINUOUS
 62
     7
 10
1739.57219809264
 20
4220.18638131696
 30
0.0
 40
1.000000000000053
 50
179.9999813306842
 51
270.0000179861119
  0
ARC
  5
244
  8
0
  6
CONTINUOUS
 62
     7
 10
1748.47217673024
 20
4220.18638131696
 30
0.0
 40
1.000000000000049
 50
270.0000179861119
 51
0.0
  0
ARC
  5
245
  8
0
  6
CONTINUOUS
 62
     7
 10
1811.82218283384
 20
4282.76137826516
 30
0.0
 40
2.000000000000099
 50
89.99998201391422
 51
179.9999640277763
  0
ARC
  5
246
  8
0
  6
CONTINUOUS
 62
     7
 10
1731.02217978204
 20
4252.76137826516
 30
0.0
 40
4.099999427800008
 50
322.4369511877962
 51
37.56299417070722
  0
ARC
  5
247
  8
0
  6
CONTINUOUS
 62
     7
 10
1731.52217978204
 20
4252.76137826516
 30
0.0
 40
2.09999942780014
 50
72.24725860098948
 51
89.9999820138963
  0
ARC
  5
248
  8
0
  6
CONTINUOUS
 62
     7
 10
1757.02217978204
 20
4252.76137826516
 30
0.0
 40
4.09999942780019
 50
142.4369288759979
 51
217.5629991796947
  0
ARC
  5
249
  8
0
  6
CONTINUOUS
 62
     7
 10
1756.52217978204
 20
4252.76137826516
 30
0.0
 40
2.099999427799793
 50
252.247258601019
 51
270.0000726276047
  0
ARC
  5
24A
  8
0
  6
CONTINUOUS
 62
     7
 10
1801.02217978204
 20
4273.76137826516
 30
0.0
 40
2.000000000000099
 50
89.9999820139077
 51
179.9999640277763
  0
ARC
  5
24B
  8
0
  6
DOTTED
 62
     7
 10
1824.82219809264
 20
4266.06138131696
 30
0.0
 40
0.8000000119001682
 50
179.9999640278029
 51
269.9999460416881
  0
ARC
  5
24C
  8
0
  6
CONTINUOUS
 62
     7
 10
1823.42217367854
 20
4267.26139352396
 30
0.0
 40
1.000000000000213
 50
306.8699118806123
 51
0.00021173586427
  0
ARC
  5
24D
  8
0
  6
DOTTED
 62
     7
 10
1824.82219809264
 20
4239.46137521336
 30
0.0
 40
0.80000001190005
 50
89.99998201393403
 51
179.9999640278029
  0
ARC
  5
24E
  8
0
  6
DOTTED
 62
     7
 10
1830.52217978204
 20
4240.06138131696
 30
0.0
 40
0.80000001190005
 50
270.0000179860822
 51
0.0
  0
ARC
  5
24F
  8
0
  6
DOTTED
 62
     7
 10
1829.52217978204
 20
4241.06138131696
 30
0.0
 40
0.80000001190005
 50
270.0000179860822
 51
0.0
  0
ARC
  5
250
  8
0
  6
DOTTED
 62
     7
 10
1825.82219809264
 20
4238.46137521336
 30
0.0
 40
0.80000001190005
 50
89.99998201393403
 51
179.9999640278029
  0
ARC
  5
251
  8
0
  6
CONTINUOUS
 62
     7
 10
1825.35826986994
 20
4236.96139047216
 30
0.0
 40
0.1999999880999993
 50
89.99998201396525
 51
189.4623441795094
  0
ARC
  5
252
  8
0
  6
DOTTED
 62
     7
 10
1830.52217978204
 20
4265.46137521336
 30
0.0
 40
0.8000000119000106
 50
0.0
 51
89.99998201391774
  0
ARC
  5
253
  8
0
  6
DOTTED
 62
     7
 10
1825.82219809264
 20
4267.06138131696
 30
0.0
 40
0.8000000119001682
 50
179.9999640278029
 51
269.9999460416881
  0
ARC
  5
254
  8
0
  6
DOTTED
 62
     7
 10
1829.52217978204
 20
4264.46137521336
 30
0.0
 40
0.8000000119000106
 50
0.0
 51
89.99998201391774
  0
CIRCLE
  5
255
  8
0
  6
CONTINUOUS
 62
     7
 10
1754.82218283384
 20
4226.56138131696
 30
0.0
 40
2.75
  0
CIRCLE
  5
256
  8
0
  6
CONTINUOUS
 62
     7
 10
1754.82218283384
 20
4226.56138131696
 30
0.0
 40
2.649999618499805
  0
CIRCLE
  5
257
  8
0
  6
CONTINUOUS
 62
     7
 10
1740.42218893734
 20
4226.56138131696
 30
0.0
 40
2.649999618500033
  0
CIRCLE
  5
258
  8
0
  6
CONTINUOUS
 62
     7
 10
1740.42218893734
 20
4226.56138131696
 30
0.0
 40
2.75
  0
CIRCLE
  5
259
  8
0
  6
CONTINUOUS
 62
     7
 10
1733.22219198904
 20
4226.56138131696
 30
0.0
 40
2.649999618499805
  0
CIRCLE
  5
25A
  8
0
  6
CONTINUOUS
 62
     7
 10
1733.22219198904
 20
4226.56138131696
 30
0.0
 40
2.75
  0
CIRCLE
  5
25B
  8
0
  6
CONTINUOUS
 62
     7
 10
1747.62218588554
 20
4226.56138131696
 30
0.0
 40
2.75
  0
CIRCLE
  5
25C
  8
0
  6
CONTINUOUS
 62
     7
 10
1747.62218588554
 20
4226.56138131696
 30
0.0
 40
2.649999618500033
  0
CIRCLE
  5
25D
  8
0
  6
CONTINUOUS
 62
     7
 10
1754.82218283384
 20
4278.96137521336
 30
0.0
 40
2.75
  0
CIRCLE
  5
25E
  8
0
  6
CONTINUOUS
 62
     7
 10
1754.82218283384
 20
4278.96137521336
 30
0.0
 40
2.649999618499805
  0
CIRCLE
  5
25F
  8
0
  6
CONTINUOUS
 62
     7
 10
1754.82218283384
 20
4235.26137826516
 30
0.0
 40
2.75
  0
CIRCLE
  5
260
  8
0
  6
CONTINUOUS
 62
     7
 10
1754.82218283384
 20
4235.26137826516
 30
0.0
 40
2.649999618499805
  0
CIRCLE
  5
261
  8
0
  6
CONTINUOUS
 62
     7
 10
1754.82218283384
 20
4270.26137826516
 30
0.0
 40
2.75
  0
CIRCLE
  5
262
  8
0
  6
CONTINUOUS
 62
     7
 10
1754.82218283384
 20
4270.26137826516
 30
0.0
 40
2.649999618499805
  0
CIRCLE
  5
263
  8
0
  6
CONTINUOUS
 62
     7
 10
1740.42218893734
 20
4270.26137826516
 30
0.0
 40
2.75
  0
CIRCLE
  5
264
  8
0
  6
CONTINUOUS
 62
     7
 10
1740.42218893734
 20
4270.26137826516
 30
0.0
 40
2.649999618500033
  0
CIRCLE
  5
265
  8
0
  6
CONTINUOUS
 62
     7
 10
1733.22219198904
 20
4235.26137826516
 30
0.0
 40
2.649999618499805
  0
CIRCLE
  5
266
  8
0
  6
CONTINUOUS
 62
     7
 10
1733.22219198904
 20
4235.26137826516
 30
0.0
 40
2.75
  0
CIRCLE
  5
267
  8
0
  6
CONTINUOUS
 62
     7
 10
1733.22219198904
 20
4270.26137826516
 30
0.0
 40
2.75
  0
CIRCLE
  5
268
  8
0
  6
CONTINUOUS
 62
     7
 10
1733.22219198904
 20
4270.26137826516
 30
0.0
 40
2.649999618499805
  0
CIRCLE
  5
269
  8
0
  6
CONTINUOUS
 62
     7
 10
1744.02217978204
 20
4244.81138131696
 30
0.0
 40
1.599999427799958
  0
CIRCLE
  5
26A
  8
0
  6
CONTINUOUS
 62
     7
 10
1747.62218588554
 20
4270.26137826516
 30
0.0
 40
2.75
  0
CIRCLE
  5
26B
  8
0
  6
CONTINUOUS
 62
     7
 10
1747.62218588554
 20
4270.26137826516
 30
0.0
 40
2.649999618500033
  0
CIRCLE
  5
26C
  8
0
  6
CONTINUOUS
 62
     7
 10
1740.42218893734
 20
4278.96137521336
 30
0.0
 40
2.75
  0
CIRCLE
  5
26D
  8
0
  6
CONTINUOUS
 62
     7
 10
1740.42218893734
 20
4278.96137521336
 30
0.0
 40
2.649999618500033
  0
CIRCLE
  5
26E
  8
0
  6
CONTINUOUS
 62
     7
 10
1733.22219198904
 20
4278.96137521336
 30
0.0
 40
2.75
  0
CIRCLE
  5
26F
  8
0
  6
CONTINUOUS
 62
     7
 10
1733.22219198904
 20
4278.96137521336
 30
0.0
 40
2.649999618499805
  0
CIRCLE
  5
270
  8
0
  6
CONTINUOUS
 62
     7
 10
1747.62218588554
 20
4278.96137521336
 30
0.0
 40
2.75
  0
CIRCLE
  5
271
  8
0
  6
CONTINUOUS
 62
     7
 10
1747.62218588554
 20
4278.96137521336
 30
0.0
 40
2.649999618500033
  0
ENDSEC
  0
EOF
