  0
SECTION
  2
HEADER
  9
$ACADVER
  1
AC1014
  9
$ACADMAINTVER
 70
     9
  9
$DWGCODEPAGE
  3
ANSI_932
  9
$INSBASE
 10
0.0
 20
0.0
 30
0.0
  9
$EXTMIN
 10
-193.04205
 20
-69.130818
 30
0.0
  9
$EXTMAX
 10
230.362355402492
 20
251.8108
 30
0.0
  9
$LIMMIN
 10
0.0
 20
0.0
  9
$LIMMAX
 10
12.0
 20
9.0
  9
$ORTHOMODE
 70
     0
  9
$REGENMODE
 70
     1
  9
$FILLMODE
 70
     1
  9
$QTEXTMODE
 70
     0
  9
$MIRRTEXT
 70
     1
  9
$DRAGMODE
 70
     2
  9
$LTSCALE
 40
1.0
  9
$OSMODE
 70
    37
  9
$ATTMODE
 70
     1
  9
$TEXTSIZE
 40
0.2
  9
$TRACEWID
 40
0.05
  9
$TEXTSTYLE
  7
STANDARD
  9
$CLAYER
  8
0
  9
$CELTYPE
  6
BYLAYER
  9
$CECOLOR
 62
   256
  9
$CELTSCALE
 40
1.0
  9
$DELOBJ
 70
     1
  9
$DISPSILH
 70
     0
  9
$DIMSCALE
 40
1.0
  9
$DIMASZ
 40
0.18
  9
$DIMEXO
 40
0.0625
  9
$DIMDLI
 40
0.38
  9
$DIMRND
 40
0.0
  9
$DIMDLE
 40
0.0
  9
$DIMEXE
 40
0.18
  9
$DIMTP
 40
0.0
  9
$DIMTM
 40
0.0
  9
$DIMTXT
 40
0.18
  9
$DIMCEN
 40
0.09
  9
$DIMTSZ
 40
0.0
  9
$DIMTOL
 70
     0
  9
$DIMLIM
 70
     0
  9
$DIMTIH
 70
     1
  9
$DIMTOH
 70
     1
  9
$DIMSE1
 70
     0
  9
$DIMSE2
 70
     0
  9
$DIMTAD
 70
     0
  9
$DIMZIN
 70
     0
  9
$DIMBLK
  1

  9
$DIMASO
 70
     1
  9
$DIMSHO
 70
     1
  9
$DIMPOST
  1

  9
$DIMAPOST
  1

  9
$DIMALT
 70
     0
  9
$DIMALTD
 70
     2
  9
$DIMALTF
 40
25.4
  9
$DIMLFAC
 40
1.0
  9
$DIMTOFL
 70
     0
  9
$DIMTVP
 40
0.0
  9
$DIMTIX
 70
     0
  9
$DIMSOXD
 70
     0
  9
$DIMSAH
 70
     0
  9
$DIMBLK1
  1

  9
$DIMBLK2
  1

  9
$DIMSTYLE
  2
STANDARD
  9
$DIMCLRD
 70
     0
  9
$DIMCLRE
 70
     0
  9
$DIMCLRT
 70
     0
  9
$DIMTFAC
 40
1.0
  9
$DIMGAP
 40
0.09
  9
$DIMJUST
 70
     0
  9
$DIMSD1
 70
     0
  9
$DIMSD2
 70
     0
  9
$DIMTOLJ
 70
     1
  9
$DIMTZIN
 70
     0
  9
$DIMALTZ
 70
     0
  9
$DIMALTTZ
 70
     0
  9
$DIMFIT
 70
     3
  9
$DIMUPT
 70
     0
  9
$DIMUNIT
 70
     2
  9
$DIMDEC
 70
     4
  9
$DIMTDEC
 70
     4
  9
$DIMALTU
 70
     2
  9
$DIMALTTD
 70
     2
  9
$DIMTXSTY
  7
STANDARD
  9
$DIMAUNIT
 70
     0
  9
$LUNITS
 70
     2
  9
$LUPREC
 70
     4
  9
$SKETCHINC
 40
0.1
  9
$FILLETRAD
 40
0.5
  9
$AUNITS
 70
     0
  9
$AUPREC
 70
     0
  9
$MENU
  1
.
  9
$ELEVATION
 40
0.0
  9
$PELEVATION
 40
0.0
  9
$THICKNESS
 40
0.0
  9
$LIMCHECK
 70
     0
  9
$CHAMFERA
 40
0.0
  9
$CHAMFERB
 40
0.0
  9
$CHAMFERC
 40
0.0
  9
$CHAMFERD
 40
0.0
  9
$SKPOLY
 70
     0
  9
$TDCREATE
 40
2458906.592771215
  9
$TDUPDATE
 40
2458906.592771505
  9
$TDINDWG
 40
0.0000000116
  9
$TDUSRTIMER
 40
0.0000000116
  9
$USRTIMER
 70
     1
  9
$ANGBASE
 50
0.0
  9
$ANGDIR
 70
     0
  9
$PDMODE
 70
     0
  9
$PDSIZE
 40
0.0
  9
$PLINEWID
 40
0.0
  9
$COORDS
 70
     1
  9
$SPLFRAME
 70
     0
  9
$SPLINETYPE
 70
     6
  9
$SPLINESEGS
 70
     8
  9
$ATTDIA
 70
     0
  9
$ATTREQ
 70
     1
  9
$HANDLING
 70
     1
  9
$HANDSEED
  5
662
  9
$SURFTAB1
 70
     6
  9
$SURFTAB2
 70
     6
  9
$SURFTYPE
 70
     6
  9
$SURFU
 70
     6
  9
$SURFV
 70
     6
  9
$UCSNAME
  2

  9
$UCSORG
 10
0.0
 20
0.0
 30
0.0
  9
$UCSXDIR
 10
1.0
 20
0.0
 30
0.0
  9
$UCSYDIR
 10
0.0
 20
1.0
 30
0.0
  9
$PUCSNAME
  2

  9
$PUCSORG
 10
0.0
 20
0.0
 30
0.0
  9
$PUCSXDIR
 10
1.0
 20
0.0
 30
0.0
  9
$PUCSYDIR
 10
0.0
 20
1.0
 30
0.0
  9
$USERI1
 70
     0
  9
$USERI2
 70
     0
  9
$USERI3
 70
     0
  9
$USERI4
 70
     0
  9
$USERI5
 70
     0
  9
$USERR1
 40
20.0
  9
$USERR2
 40
0.0
  9
$USERR3
 40
0.0
  9
$USERR4
 40
0.0
  9
$USERR5
 40
0.0
  9
$WORLDVIEW
 70
     1
  9
$SHADEDGE
 70
     3
  9
$SHADEDIF
 70
    70
  9
$TILEMODE
 70
     1
  9
$MAXACTVP
 70
    64
  9
$PINSBASE
 10
0.0
 20
0.0
 30
0.0
  9
$PLIMCHECK
 70
     0
  9
$PEXTMIN
 10
1.00000000000000E+20
 20
1.00000000000000E+20
 30
1.00000000000000E+20
  9
$PEXTMAX
 10
-1.00000000000000E+20
 20
-1.00000000000000E+20
 30
-1.00000000000000E+20
  9
$PLIMMIN
 10
0.0
 20
0.0
  9
$PLIMMAX
 10
12.0
 20
9.0
  9
$UNITMODE
 70
     0
  9
$VISRETAIN
 70
     1
  9
$PLINEGEN
 70
     0
  9
$PSLTSCALE
 70
     1
  9
$TREEDEPTH
 70
  3020
  9
$PICKSTYLE
 70
     1
  9
$CMLSTYLE
  2
STANDARD
  9
$CMLJUST
 70
     0
  9
$CMLSCALE
 40
1.0
  9
$PROXYGRAPHICS
 70
     1
  9
$MEASUREMENT
 70
     1
  0
ENDSEC
  0
SECTION
  2
CLASSES
  0
CLASS
  1
ACDBDICTIONARYWDFLT
  2
AcDbDictionaryWithDefault
  3
ObjectDBX Classes
 90
        0
280
     0
281
     0
  0
CLASS
  1
VISUALSTYLE
  2
AcDbVisualStyle
  3
ObjectDBX Classes
 90
     4095
280
     0
281
     0
  0
CLASS
  1
MATERIAL
  2
AcDbMaterial
  3
ObjectDBX Classes
 90
     1153
280
     0
281
     0
  0
CLASS
  1
SCALE
  2
AcDbScale
  3
ObjectDBX Classes
 90
     1153
280
     0
281
     0
  0
CLASS
  1
TABLESTYLE
  2
AcDbTableStyle
  3
ObjectDBX Classes
 90
     4095
280
     0
281
     0
  0
CLASS
  1
MLEADERSTYLE
  2
AcDbMLeaderStyle
  3
ACDB_MLEADERSTYLE_CLASS
 90
     4095
280
     0
281
     0
  0
CLASS
  1
SUN
  2
AcDbSun
  3
SCENEOE
 90
     1153
280
     0
281
     0
  0
CLASS
  1
DICTIONARYVAR
  2
AcDbDictionaryVar
  3
ObjectDBX Classes
 90
        0
280
     0
281
     0
  0
CLASS
  1
XRECORD
  2
AcDbXrecord
  3
ObjectDBX Classes
 90
        0
280
     0
281
     0
  0
CLASS
  1
LWPOLYLINE
  2
AcDbPolyline
  3
ObjectDBX Classes
 90
        0
280
     0
281
     1
  0
CLASS
  1
HATCH
  2
AcDbHatch
  3
ObjectDBX Classes
 90
        0
280
     0
281
     1
  0
CLASS
  1
ACDBPLACEHOLDER
  2
AcDbPlaceHolder
  3
ObjectDBX Classes
 90
        0
280
     0
281
     0
  0
CLASS
  1
LAYOUT
  2
AcDbLayout
  3
ObjectDBX Classes
 90
        0
280
     0
281
     0
  0
ENDSEC
  0
SECTION
  2
TABLES
  0
TABLE
  2
VPORT
  5
8
102
{ACAD_XDICTIONARY
360
657
102
}
330
0
100
AcDbSymbolTable
 70
     1
  0
VPORT
  5
29
330
8
100
AcDbSymbolTableRecord
100
AcDbViewportTableRecord
  2
*ACTIVE
 70
     0
 10
0.0
 20
0.0
 11
1.0
 21
1.0
 12
18.66015270124601
 22
91.339991
 13
0.0
 23
0.0
 14
0.5
 24
0.5
 15
0.5
 25
0.5
 16
0.0
 26
0.0
 36
1.0
 17
0.0
 27
0.0
 37
0.0
 40
353.0357798000001
 41
1.60267857142857
 42
50.0
 43
0.0
 44
0.0
 50
0.0
 51
0.0
 71
     0
 72
   100
 73
     1
 74
     3
 75
     0
 76
     0
 77
     0
 78
     0
  0
ENDTAB
  0
TABLE
  2
LTYPE
  5
5
330
0
100
AcDbSymbolTable
 70
     8
  0
LTYPE
  5
14
330
5
100
AcDbSymbolTableRecord
100
AcDbLinetypeTableRecord
  2
BYBLOCK
 70
     0
  3

 72
    65
 73
     0
 40
0.0
  0
LTYPE
  5
15
330
5
100
AcDbSymbolTableRecord
100
AcDbLinetypeTableRecord
  2
BYLAYER
 70
     0
  3

 72
    65
 73
     0
 40
0.0
  0
LTYPE
  5
16
330
5
100
AcDbSymbolTableRecord
100
AcDbLinetypeTableRecord
  2
CONTINUOUS
 70
     0
  3
Solid line
 72
    65
 73
     0
 40
0.0
  0
LTYPE
  5
6E
330
5
100
AcDbSymbolTableRecord
100
AcDbLinetypeTableRecord
  2
DASHED
 70
     0
  3
Dashed
 72
    65
 73
     2
 40
15.0
 49
7.0
 74
     0
 49
-8.0
 74
     0
  0
LTYPE
  5
6F
330
5
100
AcDbSymbolTableRecord
100
AcDbLinetypeTableRecord
  2
DOTTED
 70
     0
  3
Dotted
 72
    65
 73
     2
 40
1.0
 49
0.0
 74
     0
 49
-1.0
 74
     0
  0
LTYPE
  5
70
330
5
100
AcDbSymbolTableRecord
100
AcDbLinetypeTableRecord
  2
DOT_CENTER
 70
     0
  3
Dot_Center
 72
    65
 73
     4
 40
14.0
 49
12.0
 74
     0
 49
-1.0
 74
     0
 49
0.0
 74
     0
 49
-1.0
 74
     0
  0
LTYPE
  5
71
330
5
100
AcDbSymbolTableRecord
100
AcDbLinetypeTableRecord
  2
LONG_DASHED
 70
     0
  3
Long_Dashed
 72
    65
 73
     2
 40
15.0
 49
10.0
 74
     0
 49
-5.0
 74
     0
  0
LTYPE
  5
72
330
5
100
AcDbSymbolTableRecord
100
AcDbLinetypeTableRecord
  2
DASH_CENTER
 70
     0
  3
Dash_Center
 72
    65
 73
     4
 40
14.0
 49
11.0
 74
     0
 49
-1.0
 74
     0
 49
1.0
 74
     0
 49
-1.0
 74
     0
  0
LTYPE
  5
73
330
5
100
AcDbSymbolTableRecord
100
AcDbLinetypeTableRecord
  2
PHANTOM
 70
     0
  3
Phantom
 72
    65
 73
     6
 40
13.0
 49
10.0
 74
     0
 49
-1.0
 74
     0
 49
0.0
 74
     0
 49
-1.0
 74
     0
 49
0.0
 74
     0
 49
-1.0
 74
     0
  0
LTYPE
  5
74
330
5
100
AcDbSymbolTableRecord
100
AcDbLinetypeTableRecord
  2
CENTER_DASH_DASH
 70
     0
  3
Center_Dash_Dash
 72
    65
 73
     6
 40
14.0
 49
9.0
 74
     0
 49
-1.0
 74
     0
 49
1.0
 74
     0
 49
-1.0
 74
     0
 49
1.0
 74
     0
 49
-1.0
 74
     0
  0
ENDTAB
  0
TABLE
  2
LAYER
  5
2
330
0
100
AcDbSymbolTable
 70
     3
  0
LAYER
  5
10
330
2
100
AcDbSymbolTableRecord
100
AcDbLayerTableRecord
  2
0
 70
     0
 62
     7
  6
CONTINUOUS
  0
LAYER
  5
75
330
2
100
AcDbSymbolTableRecord
100
AcDbLayerTableRecord
  2
1
 70
     0
 62
     7
  6
CONTINUOUS
  0
LAYER
  5
76
330
2
100
AcDbSymbolTableRecord
100
AcDbLayerTableRecord
  2
一般
 70
     0
 62
     7
  6
CONTINUOUS
  0
ENDTAB
  0
TABLE
  2
STYLE
  5
3
330
0
100
AcDbSymbolTable
 70
     1
  0
STYLE
  5
11
330
3
100
AcDbSymbolTableRecord
100
AcDbTextStyleTableRecord
  2
STANDARD
 70
     0
 40
0.0
 41
1.0
 50
0.0
 71
     0
 42
0.2
  3
txt
  4

  0
ENDTAB
  0
TABLE
  2
VIEW
  5
6
330
0
100
AcDbSymbolTable
 70
     0
  0
ENDTAB
  0
TABLE
  2
UCS
  5
7
330
0
100
AcDbSymbolTable
 70
     0
  0
ENDTAB
  0
TABLE
  2
APPID
  5
9
330
0
100
AcDbSymbolTable
 70
     2
  0
APPID
  5
12
330
9
100
AcDbSymbolTableRecord
100
AcDbRegAppTableRecord
  2
ACAD
 70
     0
  0
APPID
  5
661
330
9
100
AcDbSymbolTableRecord
100
AcDbRegAppTableRecord
  2
ACAD_MLEADERVER
 70
     0
  0
ENDTAB
  0
TABLE
  2
DIMSTYLE
  5
A
330
0
100
AcDbSymbolTable
 70
     1
  0
DIMSTYLE
105
27
330
A
100
AcDbSymbolTableRecord
100
AcDbDimStyleTableRecord
  2
STANDARD
 70
     0
  3

  4

  5

  6

  7

 40
1.0
 41
0.18
 42
0.0625
 43
0.38
 44
0.18
 45
0.0
 46
0.0
 47
0.0
 48
0.0
140
0.18
141
0.09
142
0.0
143
25.4
144
1.0
145
0.0
146
1.0
147
0.09
 71
     0
 72
     0
 73
     1
 74
     1
 75
     0
 76
     0
 77
     0
 78
     0
170
     0
171
     2
172
     0
173
     0
174
     0
175
     0
176
     0
177
     0
178
     0
270
     2
271
     4
272
     4
273
     2
274
     2
340
11
275
     0
280
     0
281
     0
282
     0
283
     1
284
     0
285
     0
286
     0
287
     3
288
     0
  0
ENDTAB
  0
TABLE
  2
BLOCK_RECORD
  5
1
330
0
100
AcDbSymbolTable
 70
     1
  0
BLOCK_RECORD
  5
1F
330
1
100
AcDbSymbolTableRecord
100
AcDbBlockTableRecord
  2
*MODEL_SPACE
  0
BLOCK_RECORD
  5
1B
330
1
100
AcDbSymbolTableRecord
100
AcDbBlockTableRecord
  2
*PAPER_SPACE
  0
ENDTAB
  0
ENDSEC
  0
SECTION
  2
BLOCKS
  0
BLOCK
  5
20
330
1F
100
AcDbEntity
  8
0
100
AcDbBlockBegin
  2
*MODEL_SPACE
 70
     0
 10
0.0
 20
0.0
 30
0.0
  3
*MODEL_SPACE
  1

  0
ENDBLK
  5
21
330
1F
100
AcDbEntity
  8
0
100
AcDbBlockEnd
  0
BLOCK
  5
1C
330
1B
100
AcDbEntity
 67
     1
  8
0
100
AcDbBlockBegin
  2
*PAPER_SPACE
 70
     0
 10
0.0
 20
0.0
 30
0.0
  3
*PAPER_SPACE
  1

  0
ENDBLK
  5
1D
330
1B
100
AcDbEntity
 67
     1
  8
0
100
AcDbBlockEnd
  0
ENDSEC
  0
SECTION
  2
ENTITIES
  0
POINT
  5
77
330
1F
100
AcDbEntity
  8
1
 62
     3
 60
     1
100
AcDbPoint
 10
223.1741521112092
 20
71.70679998431646
 30
0.0
  0
POINT
  5
78
330
1F
100
AcDbEntity
  8
1
 62
     3
 60
     1
100
AcDbPoint
 10
230.16885
 20
71.70657614682122
 30
0.0
  0
POINT
  5
79
330
1F
100
AcDbEntity
  8
1
 62
     3
 60
     1
100
AcDbPoint
 10
223.1721318148075
 20
7.70680001619795
 30
0.0
  0
POINT
  5
7A
330
1F
100
AcDbEntity
  8
1
 62
     3
 60
     1
100
AcDbPoint
 10
230.16885
 20
7.70657611405113
 30
0.0
  0
POINT
  5
7B
330
1F
100
AcDbEntity
  8
1
 62
     3
 60
     1
100
AcDbPoint
 10
223.1746256181784
 20
86.70679997684427
 30
0.0
  0
POINT
  5
7C
330
1F
100
AcDbEntity
  8
1
 62
     3
 60
     1
100
AcDbPoint
 10
230.16885
 20
86.70657615450173
 30
0.0
  0
POINT
  5
7D
330
1F
100
AcDbEntity
  8
1
 62
     3
 60
     1
100
AcDbPoint
 10
223.1716583078384
 20
-7.29319997632984
 30
0.0
  0
POINT
  5
7E
330
1F
100
AcDbEntity
  8
1
 62
     3
 60
     1
100
AcDbPoint
 10
230.16885
 20
-7.29342389362936
 30
0.0
  0
POINT
  5
7F
330
1F
100
AcDbEntity
  8
1
 62
     3
 60
     1
100
AcDbPoint
 10
51.763236
 20
-69.13081799999999
 30
0.0
  0
POINT
  5
80
330
1F
100
AcDbEntity
  8
1
 62
     3
 60
     1
100
AcDbPoint
 10
223.17065
 20
-39.2349
 30
0.0
  0
POINT
  5
81
330
1F
100
AcDbEntity
  8
1
 62
     3
 60
     1
100
AcDbPoint
 10
3.17545
 20
-39.2349
 30
0.0
  0
POINT
  5
82
330
1F
100
AcDbEntity
  8
1
 62
     3
 60
     1
100
AcDbPoint
 10
-9.32601880064465
 20
-25.7349
 30
0.0
  0
POINT
  5
83
330
1F
100
AcDbEntity
  8
1
 62
     3
 60
     1
100
AcDbPoint
 10
-9.32601880064465
 20
-26.7349
 30
0.0
  0
POINT
  5
84
330
1F
100
AcDbEntity
  8
1
 62
     3
 60
     1
100
AcDbPoint
 10
113.17305
 20
-73.13081799999999
 30
0.0
  0
POINT
  5
85
330
1F
100
AcDbEntity
  8
1
 62
     3
 60
     1
100
AcDbPoint
 10
206.16305
 20
99.4305
 30
0.0
  0
POINT
  5
86
330
1F
100
AcDbEntity
  8
1
 62
     3
 60
     1
100
AcDbPoint
 10
206.12665
 20
-25.5695
 30
0.0
  0
POINT
  5
87
330
1F
100
AcDbEntity
  8
1
 62
     3
 60
     1
100
AcDbPoint
 10
20.28515
 20
99.4305
 30
0.0
  0
POINT
  5
88
330
1F
100
AcDbEntity
  8
1
 62
     3
 60
     1
100
AcDbPoint
 10
11.78515000000002
 20
-25.5695
 30
0.0
  0
POINT
  5
89
330
1F
100
AcDbEntity
  8
1
 62
     3
 60
     1
100
AcDbPoint
 10
28.78515000000002
 20
-25.5695
 30
0.0
  0
POINT
  5
8A
330
1F
100
AcDbEntity
  8
1
 62
     3
 60
     1
100
AcDbPoint
 10
20.28515
 20
-34.06950000000001
 30
0.0
  0
POINT
  5
8B
330
1F
100
AcDbEntity
  8
1
 62
     3
 60
     1
100
AcDbPoint
 10
20.28515
 20
-17.06950000000001
 30
0.0
  0
POINT
  5
8C
330
1F
100
AcDbEntity
  8
1
 62
     3
 60
     1
100
AcDbPoint
 10
206.12665
 20
-34.06950000000001
 30
0.0
  0
POINT
  5
8D
330
1F
100
AcDbEntity
  8
1
 62
     3
 60
     1
100
AcDbPoint
 10
206.12665
 20
-17.06950000000001
 30
0.0
  0
POINT
  5
8E
330
1F
100
AcDbEntity
  8
1
 62
     3
 60
     1
100
AcDbPoint
 10
197.62665
 20
-25.5695
 30
0.0
  0
POINT
  5
8F
330
1F
100
AcDbEntity
  8
1
 62
     3
 60
     1
100
AcDbPoint
 10
214.62665
 20
-25.5695
 30
0.0
  0
POINT
  5
90
330
1F
100
AcDbEntity
  8
1
 62
     3
 60
     1
100
AcDbPoint
 10
197.62665
 20
99.4305
 30
0.0
  0
POINT
  5
91
330
1F
100
AcDbEntity
  8
1
 62
     3
 60
     1
100
AcDbPoint
 10
214.62665
 20
99.4305
 30
0.0
  0
POINT
  5
92
330
1F
100
AcDbEntity
  8
1
 62
     3
 60
     1
100
AcDbPoint
 10
206.12665
 20
90.9305
 30
0.0
  0
POINT
  5
93
330
1F
100
AcDbEntity
  8
1
 62
     3
 60
     1
100
AcDbPoint
 10
206.12665
 20
107.9305
 30
0.0
  0
POINT
  5
94
330
1F
100
AcDbEntity
  8
1
 62
     3
 60
     1
100
AcDbPoint
 10
20.28515
 20
90.9305
 30
0.0
  0
POINT
  5
95
330
1F
100
AcDbEntity
  8
1
 62
     3
 60
     1
100
AcDbPoint
 10
20.28515
 20
107.9305
 30
0.0
  0
POINT
  5
96
330
1F
100
AcDbEntity
  8
1
 62
     3
 60
     1
100
AcDbPoint
 10
11.78515000000002
 20
99.4305
 30
0.0
  0
POINT
  5
97
330
1F
100
AcDbEntity
  8
1
 62
     3
 60
     1
100
AcDbPoint
 10
28.78515000000002
 20
99.4305
 30
0.0
  0
POINT
  5
98
330
1F
100
AcDbEntity
  8
1
 62
     3
 60
     1
100
AcDbPoint
 10
20.28515
 20
247.8108
 30
0.0
  0
POINT
  5
99
330
1F
100
AcDbEntity
  8
1
 62
     3
 60
     1
100
AcDbPoint
 10
113.17305
 20
171.7787242032113
 30
0.0
  0
POINT
  5
9A
330
1F
100
AcDbEntity
  8
1
 62
     3
 60
     1
100
AcDbPoint
 10
113.17305
 20
167.7787242032113
 30
0.0
  0
POINT
  5
9B
330
1F
100
AcDbEntity
  8
1
 62
     3
 60
     1
100
AcDbPoint
 10
113.17305
 20
251.8108
 30
0.0
  0
POINT
  5
9C
330
1F
100
AcDbEntity
  8
1
 62
     3
 60
     1
100
AcDbPoint
 10
20.28515
 20
241.8108
 30
0.0
  0
POINT
  5
9D
330
1F
100
AcDbEntity
  8
1
 62
     3
 60
     1
100
AcDbPoint
 10
20.28515
 20
251.8108
 30
0.0
  0
POINT
  5
9E
330
1F
100
AcDbEntity
  8
1
 62
     3
 60
     1
100
AcDbPoint
 10
206.12665
 20
241.8108
 30
0.0
  0
POINT
  5
9F
330
1F
100
AcDbEntity
  8
1
 62
     3
 60
     1
100
AcDbPoint
 10
206.12665
 20
251.8108
 30
0.0
  0
POINT
  5
A0
330
1F
100
AcDbEntity
  8
1
 62
     3
 60
     1
100
AcDbPoint
 10
-193.04205
 20
99.4305
 30
0.0
  0
POINT
  5
A1
330
1F
100
AcDbEntity
  8
1
 62
     3
 60
     1
100
AcDbPoint
 10
-183.04205
 20
99.4305
 30
0.0
  0
POINT
  5
A2
330
1F
100
AcDbEntity
  8
1
 62
     3
 60
     1
100
AcDbPoint
 10
-193.04205
 20
-25.5695
 30
0.0
  0
POINT
  5
A3
330
1F
100
AcDbEntity
  8
1
 62
     3
 60
     1
100
AcDbPoint
 10
-183.04205
 20
-25.5695
 30
0.0
  0
POINT
  5
A4
330
1F
100
AcDbEntity
  8
1
 62
     3
 60
     1
100
AcDbPoint
 10
-139.21695
 20
-23.4302
 30
0.0
  0
POINT
  5
A5
330
1F
100
AcDbEntity
  8
1
 62
     3
 60
     1
100
AcDbPoint
 10
-124.06945
 20
-23.4302
 30
0.0
  0
POINT
  5
A6
330
1F
100
AcDbEntity
  8
1
 62
     3
 60
     1
100
AcDbPoint
 10
-2.32604999999998
 20
-23.4302
 30
0.0
  0
POINT
  5
A7
330
1F
100
AcDbEntity
  8
1
 62
     3
 60
     1
100
AcDbPoint
 10
-10.82604999999996
 20
-23.4302
 30
0.0
  0
POINT
  5
A8
330
1F
100
AcDbEntity
  8
1
 62
     3
 60
     1
100
AcDbPoint
 10
6.17395
 20
-23.4302
 30
0.0
  0
POINT
  5
A9
330
1F
100
AcDbEntity
  8
1
 62
     3
 60
     1
100
AcDbPoint
 10
-2.32604999999998
 20
-31.93019999999998
 30
0.0
  0
POINT
  5
AA
330
1F
100
AcDbEntity
  8
1
 62
     3
 60
     1
100
AcDbPoint
 10
-2.32604999999998
 20
-14.93020000000002
 30
0.0
  0
LINE
  5
AB
330
1F
100
AcDbEntity
  8
0
  6
CONTINUOUS
 62
     7
100
AcDbLine
 10
102.419541
 20
-56.13081800000001
 30
0.0
 11
101.6666
 21
-56.13081800000001
 31
0.0
  0
LINE
  5
AC
330
1F
100
AcDbEntity
  8
0
  6
CONTINUOUS
 62
     7
100
AcDbLine
 10
113.1666
 20
-58.63081800000001
 30
0.0
 11
113.1666
 21
-66.13081799999999
 31
0.0
  0
LINE
  5
AD
330
1F
100
AcDbEntity
  8
0
  6
CONTINUOUS
 62
     7
100
AcDbLine
 10
113.548526
 20
-54.13081800000001
 30
0.0
 11
114.6666
 21
-53.83666000000001
 31
0.0
  0
LINE
  5
AE
330
1F
100
AcDbEntity
  8
0
  6
CONTINUOUS
 62
     7
100
AcDbLine
 10
113.1666
 20
-53.28033600000001
 30
0.0
 11
114.6666
 21
-53.54785800000001
 31
0.0
  0
LINE
  5
AF
330
1F
100
AcDbEntity
  8
0
  6
CONTINUOUS
 62
     7
100
AcDbLine
 10
114.6666
 20
-53.83666000000001
 30
0.0
 11
113.1666
 21
-54.03033600000001
 31
0.0
  0
LINE
  5
B0
330
1F
100
AcDbEntity
  8
0
  6
CONTINUOUS
 62
     7
100
AcDbLine
 10
114.6666
 20
-53.54785800000001
 30
0.0
 11
114.6666
 21
-53.83666000000001
 31
0.0
  0
LINE
  5
B1
330
1F
100
AcDbEntity
  8
0
  6
CONTINUOUS
 62
     7
100
AcDbLine
 10
113.1666
 20
-53.481301
 30
0.0
 11
114.6666
 21
-53.54785800000001
 31
0.0
  0
LINE
  5
B2
330
1F
100
AcDbEntity
  8
0
  6
CONTINUOUS
 62
     7
100
AcDbLine
 10
121.2666
 20
-54.13081800000001
 30
0.0
 11
121.2666
 21
-49.23490000000001
 31
0.0
  0
LINE
  5
B3
330
1F
100
AcDbEntity
  8
0
  6
CONTINUOUS
 62
     7
100
AcDbLine
 10
123.366474
 20
-58.63081800000001
 30
0.0
 11
123.366474
 21
-65.352644
 31
0.0
  0
LINE
  5
B4
330
1F
100
AcDbEntity
  8
0
  6
CONTINUOUS
 62
     7
100
AcDbLine
 10
122.866474
 20
-58.63081800000001
 30
0.0
 11
122.866474
 21
-65.352644
 31
0.0
  0
LINE
  5
B5
330
1F
100
AcDbEntity
  8
0
  6
CONTINUOUS
 62
     7
100
AcDbLine
 10
123.153433
 20
-66.13081799999999
 30
0.0
 11
123.366474
 21
-65.352644
 31
0.0
  0
LINE
  5
B6
330
1F
100
AcDbEntity
  8
0
  6
CONTINUOUS
 62
     7
100
AcDbLine
 10
123.6666
 20
-65.352644
 30
0.0
 11
123.153433
 21
-66.13081799999999
 31
0.0
  0
LINE
  5
B7
330
1F
100
AcDbEntity
  8
0
  6
CONTINUOUS
 62
     7
100
AcDbLine
 10
122.692879
 20
-66.13081799999999
 30
0.0
 11
122.866474
 21
-65.352644
 31
0.0
  0
LINE
  5
B8
330
1F
100
AcDbEntity
  8
0
  6
CONTINUOUS
 62
     7
100
AcDbLine
 10
123.366474
 20
-65.352644
 30
0.0
 11
122.692879
 21
-66.13081799999999
 31
0.0
  0
LINE
  5
B9
330
1F
100
AcDbEntity
  8
0
  6
CONTINUOUS
 62
     7
100
AcDbLine
 10
122.866474
 20
-65.352644
 30
0.0
 11
122.1666
 21
-66.13081799999999
 31
0.0
  0
LINE
  5
BA
330
1F
100
AcDbEntity
  8
0
  6
CONTINUOUS
 62
     7
100
AcDbLine
 10
122.1666
 20
-66.13081799999999
 30
0.0
 11
122.1666
 21
-58.63081800000001
 31
0.0
  0
LINE
  5
BB
330
1F
100
AcDbEntity
  8
0
  6
CONTINUOUS
 62
     7
100
AcDbLine
 10
113.6666
 20
-65.352644
 30
0.0
 11
113.1666
 21
-66.13081799999999
 31
0.0
  0
LINE
  5
BC
330
1F
100
AcDbEntity
  8
0
  6
CONTINUOUS
 62
     7
100
AcDbLine
 10
114.166275
 20
-66.13081799999999
 30
0.0
 11
113.6666
 21
-65.352644
 31
0.0
  0
LINE
  5
BD
330
1F
100
AcDbEntity
  8
0
  6
CONTINUOUS
 62
     7
100
AcDbLine
 10
114.6666
 20
-65.352644
 30
0.0
 11
114.166275
 21
-66.13081799999999
 31
0.0
  0
LINE
  5
BE
330
1F
100
AcDbEntity
  8
0
  6
CONTINUOUS
 62
     7
100
AcDbLine
 10
114.6666
 20
-58.63081800000001
 30
0.0
 11
114.6666
 21
-65.352644
 31
0.0
  0
LINE
  5
BF
330
1F
100
AcDbEntity
  8
0
  6
CONTINUOUS
 62
     7
100
AcDbLine
 10
113.6666
 20
-58.63081800000001
 30
0.0
 11
113.6666
 21
-65.352644
 31
0.0
  0
LINE
  5
C0
330
1F
100
AcDbEntity
  8
0
  6
CONTINUOUS
 62
     7
100
AcDbLine
 10
114.166275
 20
-58.63081800000001
 30
0.0
 11
114.166275
 21
-66.13081799999999
 31
0.0
  0
LINE
  5
C1
330
1F
100
AcDbEntity
  8
0
  6
CONTINUOUS
 62
     7
100
AcDbLine
 10
124.0666
 20
-56.13081800000001
 30
0.0
 11
123.6666
 21
-56.13081800000001
 31
0.0
  0
LINE
  5
C2
330
1F
100
AcDbEntity
  8
0
  6
CONTINUOUS
 62
     7
100
AcDbLine
 10
123.6666
 20
-56.13081800000001
 30
0.0
 11
123.6666
 21
-55.63081800000001
 31
0.0
  0
LINE
  5
C3
330
1F
100
AcDbEntity
  8
0
  6
CONTINUOUS
 62
     7
100
AcDbLine
 10
123.6666
 20
-55.63081800000001
 30
0.0
 11
123.6666
 21
-54.63081800000001
 31
0.0
  0
LINE
  5
C4
330
1F
100
AcDbEntity
  8
0
  6
CONTINUOUS
 62
     7
100
AcDbLine
 10
121.718533
 20
-54.930818
 30
0.0
 11
121.718533
 21
-56.13081800000001
 31
0.0
  0
LINE
  5
C5
330
1F
100
AcDbEntity
  8
0
  6
CONTINUOUS
 62
     7
100
AcDbLine
 10
122.976431
 20
-56.13081800000001
 30
0.0
 11
122.976431
 21
-54.930818
 31
0.0
  0
LINE
  5
C6
330
1F
100
AcDbEntity
  8
0
  6
CONTINUOUS
 62
     7
100
AcDbLine
 10
122.676431
 20
-54.63081800000001
 30
0.0
 11
122.018533
 21
-54.63081800000001
 31
0.0
  0
LINE
  5
C7
330
1F
100
AcDbEntity
  8
0
  6
CONTINUOUS
 62
     7
100
AcDbLine
 10
119.361249
 20
-56.13081800000001
 30
0.0
 11
119.361249
 21
-54.930818
 31
0.0
  0
LINE
  5
C8
330
1F
100
AcDbEntity
  8
0
  6
CONTINUOUS
 62
     7
100
AcDbLine
 10
119.061249
 20
-54.63081800000001
 30
0.0
 11
117.826711
 21
-54.63081800000001
 31
0.0
  0
LINE
  5
C9
330
1F
100
AcDbEntity
  8
0
  6
CONTINUOUS
 62
     7
100
AcDbLine
 10
117.526711
 20
-54.930818
 30
0.0
 11
117.526711
 21
-56.13081800000001
 31
0.0
  0
LINE
  5
CA
330
1F
100
AcDbEntity
  8
0
  6
CONTINUOUS
 62
     7
100
AcDbLine
 10
114.1666
 20
-56.13081800000001
 30
0.0
 11
114.1666
 21
-54.930818
 31
0.0
  0
LINE
  5
CB
330
1F
100
AcDbEntity
  8
0
  6
CONTINUOUS
 62
     7
100
AcDbLine
 10
121.256054
 20
-43.73490000000001
 30
0.0
 11
124.1666
 21
-43.73490000000001
 31
0.0
  0
LINE
  5
CC
330
1F
100
AcDbEntity
  8
0
  6
CONTINUOUS
 62
     7
100
AcDbLine
 10
122.983806
 20
-43.73490000000001
 30
0.0
 11
122.983806
 21
-48.73490000000001
 31
0.0
  0
LINE
  5
CD
330
1F
100
AcDbEntity
  8
0
  6
CONTINUOUS
 62
     7
100
AcDbLine
 10
113.849394
 20
-48.73490000000001
 30
0.0
 11
113.849394
 21
-43.73490000000001
 31
0.0
  0
LINE
  5
CE
330
1F
100
AcDbEntity
  8
0
  6
CONTINUOUS
 62
     7
100
AcDbLine
 10
115.577146
 20
-43.73490000000001
 30
0.0
 11
121.256054
 21
-43.73490000000001
 31
0.0
  0
LINE
  5
CF
330
1F
100
AcDbEntity
  8
0
  6
CONTINUOUS
 62
     7
100
AcDbLine
 10
126.6666
 20
-40.7349
 30
0.0
 11
99.6666
 21
-40.7349
 31
0.0
  0
LINE
  5
D0
330
1F
100
AcDbEntity
  8
0
  6
CONTINUOUS
 62
     7
100
AcDbLine
 10
104.3166
 20
-54.13081800000001
 30
0.0
 11
104.3166
 21
-53.93303300000001
 31
0.0
  0
LINE
  5
D1
330
1F
100
AcDbEntity
  8
0
  6
CONTINUOUS
 62
     7
100
AcDbLine
 10
110.795217
 20
-54.13081800000001
 30
0.0
 11
113.1666
 21
-54.03033600000001
 31
0.0
  0
LINE
  5
D2
330
1F
100
AcDbEntity
  8
0
  6
CONTINUOUS
 62
     7
100
AcDbLine
 10
104.3166
 20
-53.856301
 30
0.0
 11
113.1666
 21
-53.481301
 31
0.0
  0
LINE
  5
D3
330
1F
100
AcDbEntity
  8
0
  6
CONTINUOUS
 62
     7
100
AcDbLine
 10
113.1666
 20
-53.28033600000001
 30
0.0
 11
105.0666
 21
-53.65533600000001
 31
0.0
  0
LINE
  5
D4
330
1F
100
AcDbEntity
  8
0
  6
CONTINUOUS
 62
     7
100
AcDbLine
 10
104.390718
 20
-53.83644100000001
 30
0.0
 11
104.992482
 21
-53.67519600000001
 31
0.0
  0
LINE
  5
D5
330
1F
100
AcDbEntity
  8
0
  6
CONTINUOUS
 62
     7
100
AcDbLine
 10
110.756054
 20
-43.73490000000001
 30
0.0
 11
115.577146
 21
-43.73490000000001
 31
0.0
  0
LINE
  5
D6
330
1F
100
AcDbEntity
  8
0
  6
CONTINUOUS
 62
     7
100
AcDbLine
 10
102.1666
 20
-43.73490000000001
 30
0.0
 11
105.077146
 21
-43.73490000000001
 31
0.0
  0
LINE
  5
D7
330
1F
100
AcDbEntity
  8
0
  6
CONTINUOUS
 62
     7
100
AcDbLine
 10
126.6666
 20
-43.23490000000001
 30
0.0
 11
126.6666
 21
-40.7349
 31
0.0
  0
LINE
  5
D8
330
1F
100
AcDbEntity
  8
0
  6
CONTINUOUS
 62
     7
100
AcDbLine
 10
126.1666
 20
-43.73490000000001
 30
0.0
 11
124.1666
 21
-43.73490000000001
 31
0.0
  0
LINE
  5
D9
330
1F
100
AcDbEntity
  8
0
  6
CONTINUOUS
 62
     7
100
AcDbLine
 10
123.6666
 20
-44.23490000000001
 30
0.0
 11
123.6666
 21
-48.23490000000001
 31
0.0
  0
LINE
  5
DA
330
1F
100
AcDbEntity
  8
0
  6
CONTINUOUS
 62
     7
100
AcDbLine
 10
102.6666
 20
-48.23490000000001
 30
0.0
 11
102.6666
 21
-44.23490000000001
 31
0.0
  0
LINE
  5
DB
330
1F
100
AcDbEntity
  8
0
  6
CONTINUOUS
 62
     7
100
AcDbLine
 10
121.7666
 20
-48.73490000000001
 30
0.0
 11
123.1666
 21
-48.73490000000001
 31
0.0
  0
LINE
  5
DC
330
1F
100
AcDbEntity
  8
0
  6
CONTINUOUS
 62
     7
100
AcDbLine
 10
105.077146
 20
-43.73490000000001
 30
0.0
 11
110.756054
 21
-43.73490000000001
 31
0.0
  0
LINE
  5
DD
330
1F
100
AcDbEntity
  8
0
  6
CONTINUOUS
 62
     7
100
AcDbLine
 10
103.1666
 20
-48.73490000000001
 30
0.0
 11
121.766599
 21
-48.73490000000001
 31
0.0
  0
LINE
  5
DE
330
1F
100
AcDbEntity
  8
0
  6
CONTINUOUS
 62
     7
100
AcDbLine
 10
105.0666
 20
-49.23490000000001
 30
0.0
 11
105.0666
 21
-53.57860400000001
 31
0.0
  0
LINE
  5
DF
330
1F
100
AcDbEntity
  8
0
  6
CONTINUOUS
 62
     7
100
AcDbLine
 10
100.1666
 20
-43.73490000000001
 30
0.0
 11
102.1666
 21
-43.73490000000001
 31
0.0
  0
LINE
  5
E0
330
1F
100
AcDbEntity
  8
0
  6
CONTINUOUS
 62
     7
100
AcDbLine
 10
99.6666
 20
-40.7349
 30
0.0
 11
99.6666
 21
-43.23490000000001
 31
0.0
  0
LINE
  5
E1
330
1F
100
AcDbEntity
  8
0
  6
CONTINUOUS
 62
     7
100
AcDbLine
 10
112.483806
 20
-43.73490000000001
 30
0.0
 11
112.483806
 21
-48.73490000000001
 31
0.0
  0
LINE
  5
E2
330
1F
100
AcDbEntity
  8
0
  6
CONTINUOUS
 62
     7
100
AcDbLine
 10
103.349394
 20
-48.73490000000001
 30
0.0
 11
103.349394
 21
-43.73490000000001
 31
0.0
  0
LINE
  5
E3
330
1F
100
AcDbEntity
  8
0
  6
CONTINUOUS
 62
     7
100
AcDbLine
 10
103.179767
 20
-66.13081799999999
 30
0.0
 11
102.6666
 21
-65.352644
 31
0.0
  0
LINE
  5
E4
330
1F
100
AcDbEntity
  8
0
  6
CONTINUOUS
 62
     7
100
AcDbLine
 10
102.966726
 20
-65.352644
 30
0.0
 11
103.179767
 21
-66.13081799999999
 31
0.0
  0
LINE
  5
E5
330
1F
100
AcDbEntity
  8
0
  6
CONTINUOUS
 62
     7
100
AcDbLine
 10
102.966726
 20
-65.352644
 30
0.0
 11
102.966726
 21
-58.63081800000001
 31
0.0
  0
LINE
  5
E6
330
1F
100
AcDbEntity
  8
0
  6
CONTINUOUS
 62
     7
100
AcDbLine
 10
103.640321
 20
-66.13081799999999
 30
0.0
 11
102.966726
 21
-65.352644
 31
0.0
  0
LINE
  5
E7
330
1F
100
AcDbEntity
  8
0
  6
CONTINUOUS
 62
     7
100
AcDbLine
 10
103.466726
 20
-65.352644
 30
0.0
 11
103.640321
 21
-66.13081799999999
 31
0.0
  0
LINE
  5
E8
330
1F
100
AcDbEntity
  8
0
  6
CONTINUOUS
 62
     7
100
AcDbLine
 10
103.466726
 20
-65.352644
 30
0.0
 11
103.466726
 21
-58.63081800000001
 31
0.0
  0
LINE
  5
E9
330
1F
100
AcDbEntity
  8
0
  6
CONTINUOUS
 62
     7
100
AcDbLine
 10
104.1666
 20
-66.13081799999999
 30
0.0
 11
103.466726
 21
-65.352644
 31
0.0
  0
LINE
  5
EA
330
1F
100
AcDbEntity
  8
0
  6
CONTINUOUS
 62
     7
100
AcDbLine
 10
104.1666
 20
-58.63081800000001
 30
0.0
 11
104.1666
 21
-66.13081799999999
 31
0.0
  0
LINE
  5
EB
330
1F
100
AcDbEntity
  8
0
  6
CONTINUOUS
 62
     7
100
AcDbLine
 10
112.166925
 20
-66.13081799999999
 30
0.0
 11
112.166925
 21
-58.63081800000001
 31
0.0
  0
LINE
  5
EC
330
1F
100
AcDbEntity
  8
0
  6
CONTINUOUS
 62
     7
100
AcDbLine
 10
112.6666
 20
-65.352644
 30
0.0
 11
112.6666
 21
-58.63081800000001
 31
0.0
  0
LINE
  5
ED
330
1F
100
AcDbEntity
  8
0
  6
CONTINUOUS
 62
     7
100
AcDbLine
 10
111.6666
 20
-65.352644
 30
0.0
 11
111.6666
 21
-58.63081800000001
 31
0.0
  0
LINE
  5
EE
330
1F
100
AcDbEntity
  8
0
  6
CONTINUOUS
 62
     7
100
AcDbLine
 10
112.166925
 20
-66.13081799999999
 30
0.0
 11
111.6666
 21
-65.352644
 31
0.0
  0
LINE
  5
EF
330
1F
100
AcDbEntity
  8
0
  6
CONTINUOUS
 62
     7
100
AcDbLine
 10
112.6666
 20
-65.352644
 30
0.0
 11
112.166925
 21
-66.13081799999999
 31
0.0
  0
LINE
  5
F0
330
1F
100
AcDbEntity
  8
0
  6
CONTINUOUS
 62
     7
100
AcDbLine
 10
113.1666
 20
-66.13081799999999
 30
0.0
 11
112.6666
 21
-65.352644
 31
0.0
  0
LINE
  5
F1
330
1F
100
AcDbEntity
  8
0
  6
CONTINUOUS
 62
     7
100
AcDbLine
 10
102.34793
 20
-54.91086300000001
 30
0.0
 11
102.2666
 21
-56.13081800000001
 31
0.0
  0
LINE
  5
F2
330
1F
100
AcDbEntity
  8
0
  6
CONTINUOUS
 62
     7
100
AcDbLine
 10
102.6666
 20
-54.63081800000001
 30
0.0
 11
102.647266
 21
-54.63081800000001
 31
0.0
  0
LINE
  5
F3
330
1F
100
AcDbEntity
  8
0
  6
CONTINUOUS
 62
     7
100
AcDbLine
 10
123.685934
 20
-54.63081800000001
 30
0.0
 11
123.6666
 21
-54.63081800000001
 31
0.0
  0
LINE
  5
F4
330
1F
100
AcDbEntity
  8
0
  6
CONTINUOUS
 62
     7
100
AcDbLine
 10
124.0666
 20
-56.13081800000001
 30
0.0
 11
124.6666
 21
-56.13081800000001
 31
0.0
  0
LINE
  5
F5
330
1F
100
AcDbEntity
  8
0
  6
CONTINUOUS
 62
     7
100
AcDbLine
 10
124.0666
 20
-56.13081800000001
 30
0.0
 11
123.98527
 21
-54.91086300000001
 31
0.0
  0
LINE
  5
F6
330
1F
100
AcDbEntity
  8
0
  6
CONTINUOUS
 62
     7
100
AcDbLine
 10
102.6666
 20
-65.716605
 30
0.0
 11
102.6666
 21
-58.83081800000001
 31
0.0
  0
LINE
  5
F7
330
1F
100
AcDbEntity
  8
0
  6
CONTINUOUS
 62
     7
100
AcDbLine
 10
123.1666
 20
-54.13081800000001
 30
0.0
 11
103.1666
 21
-54.13081800000001
 31
0.0
  0
LINE
  5
F8
330
1F
100
AcDbEntity
  8
0
  6
CONTINUOUS
 62
     7
100
AcDbLine
 10
102.6666
 20
-55.63081800000001
 30
0.0
 11
102.6666
 21
-56.13081800000001
 31
0.0
  0
LINE
  5
F9
330
1F
100
AcDbEntity
  8
0
  6
CONTINUOUS
 62
     7
100
AcDbLine
 10
113.8666
 20
-54.63081800000001
 30
0.0
 11
112.4666
 21
-54.63081800000001
 31
0.0
  0
LINE
  5
FA
330
1F
100
AcDbEntity
  8
0
  6
CONTINUOUS
 62
     7
100
AcDbLine
 10
104.614667
 20
-56.13081800000001
 30
0.0
 11
104.614667
 21
-54.930818
 31
0.0
  0
LINE
  5
FB
330
1F
100
AcDbEntity
  8
0
  6
CONTINUOUS
 62
     7
100
AcDbLine
 10
104.314667
 20
-54.63081800000001
 30
0.0
 11
103.656769
 21
-54.63081800000001
 31
0.0
  0
LINE
  5
FC
330
1F
100
AcDbEntity
  8
0
  6
CONTINUOUS
 62
     7
100
AcDbLine
 10
103.356769
 20
-54.930818
 30
0.0
 11
103.356769
 21
-56.13081800000001
 31
0.0
  0
LINE
  5
FD
330
1F
100
AcDbEntity
  8
0
  6
CONTINUOUS
 62
     7
100
AcDbLine
 10
108.806489
 20
-56.13081800000001
 30
0.0
 11
108.806489
 21
-54.930818
 31
0.0
  0
LINE
  5
FE
330
1F
100
AcDbEntity
  8
0
  6
CONTINUOUS
 62
     7
100
AcDbLine
 10
108.506489
 20
-54.63081800000001
 30
0.0
 11
107.271951
 21
-54.63081800000001
 31
0.0
  0
LINE
  5
FF
330
1F
100
AcDbEntity
  8
0
  6
CONTINUOUS
 62
     7
100
AcDbLine
 10
106.971951
 20
-54.930818
 30
0.0
 11
106.971951
 21
-56.13081800000001
 31
0.0
  0
LINE
  5
100
330
1F
100
AcDbEntity
  8
0
  6
CONTINUOUS
 62
     7
100
AcDbLine
 10
112.1666
 20
-54.930818
 30
0.0
 11
112.1666
 21
-56.13081800000001
 31
0.0
  0
LINE
  5
101
330
1F
100
AcDbEntity
  8
0
  6
CONTINUOUS
 62
     7
100
AcDbLine
 10
102.419541
 20
-56.13081800000001
 30
0.0
 11
123.6666
 21
-56.13081800000001
 31
0.0
  0
LINE
  5
102
330
1F
100
AcDbEntity
  8
0
  6
CONTINUOUS
 62
     7
100
AcDbLine
 10
101.6666
 20
-56.13081800000001
 30
0.0
 11
101.6666
 21
-58.430818
 31
0.0
  0
LINE
  5
103
330
1F
100
AcDbEntity
  8
0
  6
CONTINUOUS
 62
     7
100
AcDbLine
 10
124.6666
 20
-56.13081800000001
 30
0.0
 11
124.6666
 21
-58.430818
 31
0.0
  0
LINE
  5
104
330
1F
100
AcDbEntity
  8
0
  6
CONTINUOUS
 62
     7
100
AcDbLine
 10
124.4666
 20
-58.63081800000001
 30
0.0
 11
101.8666
 21
-58.63081800000001
 31
0.0
  0
LINE
  5
105
330
1F
100
AcDbEntity
  8
0
  6
CONTINUOUS
 62
     7
100
AcDbLine
 10
123.6666
 20
-58.83081800000001
 30
0.0
 11
123.6666
 21
-65.716605
 31
0.0
  0
LINE
  5
106
330
1F
100
AcDbEntity
  8
0
  6
CONTINUOUS
 62
     7
100
AcDbLine
 10
123.373707
 20
-66.42371199999998
 30
0.0
 11
120.459493
 21
-68.83792500000001
 31
0.0
  0
LINE
  5
107
330
1F
100
AcDbEntity
  8
0
  6
CONTINUOUS
 62
     7
100
AcDbLine
 10
119.752386
 20
-69.13081799999999
 30
0.0
 11
106.580814
 21
-69.13081799999999
 31
0.0
  0
LINE
  5
108
330
1F
100
AcDbEntity
  8
0
  6
CONTINUOUS
 62
     7
100
AcDbLine
 10
102.6666
 20
-54.63081800000001
 30
0.0
 11
102.6666
 21
-55.63081800000001
 31
0.0
  0
LINE
  5
109
330
1F
100
AcDbEntity
  8
0
  6
CONTINUOUS
 62
     7
100
AcDbLine
 10
105.873707
 20
-68.83792500000001
 30
0.0
 11
102.959493
 21
-66.42371199999998
 31
0.0
  0
LINE
  5
10A
330
1F
100
AcDbEntity
  8
0
  6
CONTINUOUS
 62
     7
100
AcDbLine
 10
-162.095109
 20
-55.5288653724634
 30
0.0
 11
-162.84805
 21
-55.5288653724634
 31
0.0
  0
LINE
  5
10B
330
1F
100
AcDbEntity
  8
0
  6
CONTINUOUS
 62
     7
100
AcDbLine
 10
-151.34805
 20
-58.0288653724634
 30
0.0
 11
-151.34805
 21
-65.5288653724634
 31
0.0
  0
LINE
  5
10C
330
1F
100
AcDbEntity
  8
0
  6
CONTINUOUS
 62
     7
100
AcDbLine
 10
-150.966124
 20
-53.5288653724634
 30
0.0
 11
-149.84805
 21
-53.2347073724634
 31
0.0
  0
LINE
  5
10D
330
1F
100
AcDbEntity
  8
0
  6
CONTINUOUS
 62
     7
100
AcDbLine
 10
-151.34805
 20
-52.6783833724634
 30
0.0
 11
-149.84805
 21
-52.9459053724634
 31
0.0
  0
LINE
  5
10E
330
1F
100
AcDbEntity
  8
0
  6
CONTINUOUS
 62
     7
100
AcDbLine
 10
-149.84805
 20
-53.2347073724634
 30
0.0
 11
-151.34805
 21
-53.4283833724634
 31
0.0
  0
LINE
  5
10F
330
1F
100
AcDbEntity
  8
0
  6
CONTINUOUS
 62
     7
100
AcDbLine
 10
-149.84805
 20
-52.9459053724634
 30
0.0
 11
-149.84805
 21
-53.2347073724634
 31
0.0
  0
LINE
  5
110
330
1F
100
AcDbEntity
  8
0
  6
CONTINUOUS
 62
     7
100
AcDbLine
 10
-151.34805
 20
-52.8793483724634
 30
0.0
 11
-149.84805
 21
-52.9459053724634
 31
0.0
  0
LINE
  5
111
330
1F
100
AcDbEntity
  8
0
  6
CONTINUOUS
 62
     7
100
AcDbLine
 10
-143.24805
 20
-53.5288653724634
 30
0.0
 11
-143.24805
 21
-48.63294737246341
 31
0.0
  0
LINE
  5
112
330
1F
100
AcDbEntity
  8
0
  6
CONTINUOUS
 62
     7
100
AcDbLine
 10
-141.148176
 20
-58.0288653724634
 30
0.0
 11
-141.148176
 21
-64.75069137246342
 31
0.0
  0
LINE
  5
113
330
1F
100
AcDbEntity
  8
0
  6
CONTINUOUS
 62
     7
100
AcDbLine
 10
-141.648176
 20
-58.0288653724634
 30
0.0
 11
-141.648176
 21
-64.75069137246342
 31
0.0
  0
LINE
  5
114
330
1F
100
AcDbEntity
  8
0
  6
CONTINUOUS
 62
     7
100
AcDbLine
 10
-141.361217
 20
-65.5288653724634
 30
0.0
 11
-141.148176
 21
-64.75069137246342
 31
0.0
  0
LINE
  5
115
330
1F
100
AcDbEntity
  8
0
  6
CONTINUOUS
 62
     7
100
AcDbLine
 10
-140.84805
 20
-64.75069137246342
 30
0.0
 11
-141.361217
 21
-65.5288653724634
 31
0.0
  0
LINE
  5
116
330
1F
100
AcDbEntity
  8
0
  6
CONTINUOUS
 62
     7
100
AcDbLine
 10
-141.821771
 20
-65.5288653724634
 30
0.0
 11
-141.648176
 21
-64.75069137246342
 31
0.0
  0
LINE
  5
117
330
1F
100
AcDbEntity
  8
0
  6
CONTINUOUS
 62
     7
100
AcDbLine
 10
-141.148176
 20
-64.75069137246342
 30
0.0
 11
-141.821771
 21
-65.5288653724634
 31
0.0
  0
LINE
  5
118
330
1F
100
AcDbEntity
  8
0
  6
CONTINUOUS
 62
     7
100
AcDbLine
 10
-141.648176
 20
-64.75069137246342
 30
0.0
 11
-142.34805
 21
-65.5288653724634
 31
0.0
  0
LINE
  5
119
330
1F
100
AcDbEntity
  8
0
  6
CONTINUOUS
 62
     7
100
AcDbLine
 10
-142.34805
 20
-65.5288653724634
 30
0.0
 11
-142.34805
 21
-58.0288653724634
 31
0.0
  0
LINE
  5
11A
330
1F
100
AcDbEntity
  8
0
  6
CONTINUOUS
 62
     7
100
AcDbLine
 10
-150.84805
 20
-64.75069137246342
 30
0.0
 11
-151.34805
 21
-65.5288653724634
 31
0.0
  0
LINE
  5
11B
330
1F
100
AcDbEntity
  8
0
  6
CONTINUOUS
 62
     7
100
AcDbLine
 10
-150.348375
 20
-65.5288653724634
 30
0.0
 11
-150.84805
 21
-64.75069137246342
 31
0.0
  0
LINE
  5
11C
330
1F
100
AcDbEntity
  8
0
  6
CONTINUOUS
 62
     7
100
AcDbLine
 10
-149.84805
 20
-64.75069137246342
 30
0.0
 11
-150.348375
 21
-65.5288653724634
 31
0.0
  0
LINE
  5
11D
330
1F
100
AcDbEntity
  8
0
  6
CONTINUOUS
 62
     7
100
AcDbLine
 10
-149.84805
 20
-58.0288653724634
 30
0.0
 11
-149.84805
 21
-64.75069137246342
 31
0.0
  0
LINE
  5
11E
330
1F
100
AcDbEntity
  8
0
  6
CONTINUOUS
 62
     7
100
AcDbLine
 10
-150.84805
 20
-58.0288653724634
 30
0.0
 11
-150.84805
 21
-64.75069137246342
 31
0.0
  0
LINE
  5
11F
330
1F
100
AcDbEntity
  8
0
  6
CONTINUOUS
 62
     7
100
AcDbLine
 10
-150.348375
 20
-58.0288653724634
 30
0.0
 11
-150.348375
 21
-65.5288653724634
 31
0.0
  0
LINE
  5
120
330
1F
100
AcDbEntity
  8
0
  6
CONTINUOUS
 62
     7
100
AcDbLine
 10
-140.44805
 20
-55.5288653724634
 30
0.0
 11
-140.84805
 21
-55.5288653724634
 31
0.0
  0
LINE
  5
121
330
1F
100
AcDbEntity
  8
0
  6
CONTINUOUS
 62
     7
100
AcDbLine
 10
-140.84805
 20
-55.5288653724634
 30
0.0
 11
-140.84805
 21
-55.0288653724634
 31
0.0
  0
LINE
  5
122
330
1F
100
AcDbEntity
  8
0
  6
CONTINUOUS
 62
     7
100
AcDbLine
 10
-140.84805
 20
-55.0288653724634
 30
0.0
 11
-140.84805
 21
-54.0288653724634
 31
0.0
  0
LINE
  5
123
330
1F
100
AcDbEntity
  8
0
  6
CONTINUOUS
 62
     7
100
AcDbLine
 10
-142.796117
 20
-54.32886537246341
 30
0.0
 11
-142.796117
 21
-55.5288653724634
 31
0.0
  0
LINE
  5
124
330
1F
100
AcDbEntity
  8
0
  6
CONTINUOUS
 62
     7
100
AcDbLine
 10
-141.538219
 20
-55.5288653724634
 30
0.0
 11
-141.538219
 21
-54.32886537246341
 31
0.0
  0
LINE
  5
125
330
1F
100
AcDbEntity
  8
0
  6
CONTINUOUS
 62
     7
100
AcDbLine
 10
-141.838219
 20
-54.0288653724634
 30
0.0
 11
-142.496117
 21
-54.0288653724634
 31
0.0
  0
LINE
  5
126
330
1F
100
AcDbEntity
  8
0
  6
CONTINUOUS
 62
     7
100
AcDbLine
 10
-145.153401
 20
-55.5288653724634
 30
0.0
 11
-145.153401
 21
-54.32886537246341
 31
0.0
  0
LINE
  5
127
330
1F
100
AcDbEntity
  8
0
  6
CONTINUOUS
 62
     7
100
AcDbLine
 10
-145.453401
 20
-54.0288653724634
 30
0.0
 11
-146.687939
 21
-54.0288653724634
 31
0.0
  0
LINE
  5
128
330
1F
100
AcDbEntity
  8
0
  6
CONTINUOUS
 62
     7
100
AcDbLine
 10
-146.987939
 20
-54.32886537246341
 30
0.0
 11
-146.987939
 21
-55.5288653724634
 31
0.0
  0
LINE
  5
129
330
1F
100
AcDbEntity
  8
0
  6
CONTINUOUS
 62
     7
100
AcDbLine
 10
-150.34805
 20
-55.5288653724634
 30
0.0
 11
-150.34805
 21
-54.32886537246341
 31
0.0
  0
LINE
  5
12A
330
1F
100
AcDbEntity
  8
0
  6
CONTINUOUS
 62
     7
100
AcDbLine
 10
-143.258596
 20
-43.13294737246341
 30
0.0
 11
-140.34805
 21
-43.13294737246341
 31
0.0
  0
LINE
  5
12B
330
1F
100
AcDbEntity
  8
0
  6
CONTINUOUS
 62
     7
100
AcDbLine
 10
-141.530844
 20
-43.13294737246341
 30
0.0
 11
-141.530844
 21
-48.13294737246341
 31
0.0
  0
LINE
  5
12C
330
1F
100
AcDbEntity
  8
0
  6
CONTINUOUS
 62
     7
100
AcDbLine
 10
-150.665256
 20
-48.13294737246341
 30
0.0
 11
-150.665256
 21
-43.13294737246341
 31
0.0
  0
LINE
  5
12D
330
1F
100
AcDbEntity
  8
0
  6
CONTINUOUS
 62
     7
100
AcDbLine
 10
-148.937504
 20
-43.13294737246341
 30
0.0
 11
-143.258596
 21
-43.13294737246341
 31
0.0
  0
LINE
  5
12E
330
1F
100
AcDbEntity
  8
0
  6
CONTINUOUS
 62
     7
100
AcDbLine
 10
-160.19805
 20
-53.5288653724634
 30
0.0
 11
-160.19805
 21
-53.3310803724634
 31
0.0
  0
LINE
  5
12F
330
1F
100
AcDbEntity
  8
0
  6
CONTINUOUS
 62
     7
100
AcDbLine
 10
-153.719433
 20
-53.5288653724634
 30
0.0
 11
-151.34805
 21
-53.4283833724634
 31
0.0
  0
LINE
  5
130
330
1F
100
AcDbEntity
  8
0
  6
CONTINUOUS
 62
     7
100
AcDbLine
 10
-160.19805
 20
-53.2543483724634
 30
0.0
 11
-151.34805
 21
-52.8793483724634
 31
0.0
  0
LINE
  5
131
330
1F
100
AcDbEntity
  8
0
  6
CONTINUOUS
 62
     7
100
AcDbLine
 10
-151.34805
 20
-52.6783833724634
 30
0.0
 11
-159.44805
 21
-53.0533833724634
 31
0.0
  0
LINE
  5
132
330
1F
100
AcDbEntity
  8
0
  6
CONTINUOUS
 62
     7
100
AcDbLine
 10
-160.123932
 20
-53.2344883724634
 30
0.0
 11
-159.522168
 21
-53.07324337246341
 31
0.0
  0
LINE
  5
133
330
1F
100
AcDbEntity
  8
0
  6
CONTINUOUS
 62
     7
100
AcDbLine
 10
-153.758596
 20
-43.13294737246341
 30
0.0
 11
-148.937504
 21
-43.13294737246341
 31
0.0
  0
LINE
  5
134
330
1F
100
AcDbEntity
  8
0
  6
CONTINUOUS
 62
     7
100
AcDbLine
 10
-162.34805
 20
-43.13294737246341
 30
0.0
 11
-159.437504
 21
-43.13294737246341
 31
0.0
  0
LINE
  5
135
330
1F
100
AcDbEntity
  8
0
  6
CONTINUOUS
 62
     7
100
AcDbLine
 10
-137.84805
 20
-42.63294737246341
 30
0.0
 11
-137.84805
 21
-40.66815232031691
 31
0.0
  0
LINE
  5
136
330
1F
100
AcDbEntity
  8
0
  6
CONTINUOUS
 62
     7
100
AcDbLine
 10
-138.34805
 20
-43.13294737246341
 30
0.0
 11
-140.34805
 21
-43.13294737246341
 31
0.0
  0
LINE
  5
137
330
1F
100
AcDbEntity
  8
0
  6
CONTINUOUS
 62
     7
100
AcDbLine
 10
-140.84805
 20
-43.63294737246341
 30
0.0
 11
-140.84805
 21
-47.63294737246341
 31
0.0
  0
LINE
  5
138
330
1F
100
AcDbEntity
  8
0
  6
CONTINUOUS
 62
     7
100
AcDbLine
 10
-161.84805
 20
-47.63294737246341
 30
0.0
 11
-161.84805
 21
-43.63294737246341
 31
0.0
  0
LINE
  5
139
330
1F
100
AcDbEntity
  8
0
  6
CONTINUOUS
 62
     7
100
AcDbLine
 10
-142.74805
 20
-48.13294737246341
 30
0.0
 11
-141.34805
 21
-48.13294737246341
 31
0.0
  0
LINE
  5
13A
330
1F
100
AcDbEntity
  8
0
  6
CONTINUOUS
 62
     7
100
AcDbLine
 10
-159.437504
 20
-43.13294737246341
 30
0.0
 11
-153.758596
 21
-43.13294737246341
 31
0.0
  0
LINE
  5
13B
330
1F
100
AcDbEntity
  8
0
  6
CONTINUOUS
 62
     7
100
AcDbLine
 10
-161.34805
 20
-48.13294737246341
 30
0.0
 11
-142.748051
 21
-48.13294737246341
 31
0.0
  0
LINE
  5
13C
330
1F
100
AcDbEntity
  8
0
  6
CONTINUOUS
 62
     7
100
AcDbLine
 10
-159.44805
 20
-48.63294737246341
 30
0.0
 11
-159.44805
 21
-52.97665137246341
 31
0.0
  0
LINE
  5
13D
330
1F
100
AcDbEntity
  8
0
  6
CONTINUOUS
 62
     7
100
AcDbLine
 10
-164.34805
 20
-43.13294737246341
 30
0.0
 11
-162.34805
 21
-43.13294737246341
 31
0.0
  0
LINE
  5
13E
330
1F
100
AcDbEntity
  8
0
  6
CONTINUOUS
 62
     7
100
AcDbLine
 10
-164.84805
 20
-40.19774242460991
 30
0.0
 11
-164.84805
 21
-42.63294737246341
 31
0.0
  0
LINE
  5
13F
330
1F
100
AcDbEntity
  8
0
  6
CONTINUOUS
 62
     7
100
AcDbLine
 10
-152.030844
 20
-43.13294737246341
 30
0.0
 11
-152.030844
 21
-48.13294737246341
 31
0.0
  0
LINE
  5
140
330
1F
100
AcDbEntity
  8
0
  6
CONTINUOUS
 62
     7
100
AcDbLine
 10
-161.165256
 20
-48.13294737246341
 30
0.0
 11
-161.165256
 21
-43.13294737246341
 31
0.0
  0
LINE
  5
141
330
1F
100
AcDbEntity
  8
0
  6
CONTINUOUS
 62
     7
100
AcDbLine
 10
-161.334883
 20
-65.5288653724634
 30
0.0
 11
-161.84805
 21
-64.75069137246342
 31
0.0
  0
LINE
  5
142
330
1F
100
AcDbEntity
  8
0
  6
CONTINUOUS
 62
     7
100
AcDbLine
 10
-161.547924
 20
-64.75069137246342
 30
0.0
 11
-161.334883
 21
-65.5288653724634
 31
0.0
  0
LINE
  5
143
330
1F
100
AcDbEntity
  8
0
  6
CONTINUOUS
 62
     7
100
AcDbLine
 10
-161.547924
 20
-64.75069137246342
 30
0.0
 11
-161.547924
 21
-58.0288653724634
 31
0.0
  0
LINE
  5
144
330
1F
100
AcDbEntity
  8
0
  6
CONTINUOUS
 62
     7
100
AcDbLine
 10
-160.874329
 20
-65.5288653724634
 30
0.0
 11
-161.547924
 21
-64.75069137246342
 31
0.0
  0
LINE
  5
145
330
1F
100
AcDbEntity
  8
0
  6
CONTINUOUS
 62
     7
100
AcDbLine
 10
-161.047924
 20
-64.75069137246342
 30
0.0
 11
-160.874329
 21
-65.5288653724634
 31
0.0
  0
LINE
  5
146
330
1F
100
AcDbEntity
  8
0
  6
CONTINUOUS
 62
     7
100
AcDbLine
 10
-161.047924
 20
-64.75069137246342
 30
0.0
 11
-161.047924
 21
-58.0288653724634
 31
0.0
  0
LINE
  5
147
330
1F
100
AcDbEntity
  8
0
  6
CONTINUOUS
 62
     7
100
AcDbLine
 10
-160.34805
 20
-65.5288653724634
 30
0.0
 11
-161.047924
 21
-64.75069137246342
 31
0.0
  0
LINE
  5
148
330
1F
100
AcDbEntity
  8
0
  6
CONTINUOUS
 62
     7
100
AcDbLine
 10
-160.34805
 20
-58.0288653724634
 30
0.0
 11
-160.34805
 21
-65.5288653724634
 31
0.0
  0
LINE
  5
149
330
1F
100
AcDbEntity
  8
0
  6
CONTINUOUS
 62
     7
100
AcDbLine
 10
-152.347725
 20
-65.5288653724634
 30
0.0
 11
-152.347725
 21
-58.0288653724634
 31
0.0
  0
LINE
  5
14A
330
1F
100
AcDbEntity
  8
0
  6
CONTINUOUS
 62
     7
100
AcDbLine
 10
-151.84805
 20
-64.75069137246342
 30
0.0
 11
-151.84805
 21
-58.0288653724634
 31
0.0
  0
LINE
  5
14B
330
1F
100
AcDbEntity
  8
0
  6
CONTINUOUS
 62
     7
100
AcDbLine
 10
-152.84805
 20
-64.75069137246342
 30
0.0
 11
-152.84805
 21
-58.0288653724634
 31
0.0
  0
LINE
  5
14C
330
1F
100
AcDbEntity
  8
0
  6
CONTINUOUS
 62
     7
100
AcDbLine
 10
-152.347725
 20
-65.5288653724634
 30
0.0
 11
-152.84805
 21
-64.75069137246342
 31
0.0
  0
LINE
  5
14D
330
1F
100
AcDbEntity
  8
0
  6
CONTINUOUS
 62
     7
100
AcDbLine
 10
-151.84805
 20
-64.75069137246342
 30
0.0
 11
-152.347725
 21
-65.5288653724634
 31
0.0
  0
LINE
  5
14E
330
1F
100
AcDbEntity
  8
0
  6
CONTINUOUS
 62
     7
100
AcDbLine
 10
-151.34805
 20
-65.5288653724634
 30
0.0
 11
-151.84805
 21
-64.75069137246342
 31
0.0
  0
LINE
  5
14F
330
1F
100
AcDbEntity
  8
0
  6
CONTINUOUS
 62
     7
100
AcDbLine
 10
-162.16672
 20
-54.3089103724634
 30
0.0
 11
-162.24805
 21
-55.5288653724634
 31
0.0
  0
LINE
  5
150
330
1F
100
AcDbEntity
  8
0
  6
CONTINUOUS
 62
     7
100
AcDbLine
 10
-161.84805
 20
-54.0288653724634
 30
0.0
 11
-161.867384
 21
-54.0288653724634
 31
0.0
  0
LINE
  5
151
330
1F
100
AcDbEntity
  8
0
  6
CONTINUOUS
 62
     7
100
AcDbLine
 10
-140.828716
 20
-54.0288653724634
 30
0.0
 11
-140.84805
 21
-54.0288653724634
 31
0.0
  0
LINE
  5
152
330
1F
100
AcDbEntity
  8
0
  6
CONTINUOUS
 62
     7
100
AcDbLine
 10
-140.44805
 20
-55.5288653724634
 30
0.0
 11
-139.84805
 21
-55.5288653724634
 31
0.0
  0
LINE
  5
153
330
1F
100
AcDbEntity
  8
0
  6
CONTINUOUS
 62
     7
100
AcDbLine
 10
-140.44805
 20
-55.5288653724634
 30
0.0
 11
-140.52938
 21
-54.3089103724634
 31
0.0
  0
LINE
  5
154
330
1F
100
AcDbEntity
  8
0
  6
CONTINUOUS
 62
     7
100
AcDbLine
 10
-161.84805
 20
-65.11465237246344
 30
0.0
 11
-161.84805
 21
-58.2288653724634
 31
0.0
  0
LINE
  5
155
330
1F
100
AcDbEntity
  8
0
  6
CONTINUOUS
 62
     7
100
AcDbLine
 10
-141.34805
 20
-53.5288653724634
 30
0.0
 11
-161.34805
 21
-53.5288653724634
 31
0.0
  0
LINE
  5
156
330
1F
100
AcDbEntity
  8
0
  6
CONTINUOUS
 62
     7
100
AcDbLine
 10
-161.84805
 20
-55.0288653724634
 30
0.0
 11
-161.84805
 21
-55.5288653724634
 31
0.0
  0
LINE
  5
157
330
1F
100
AcDbEntity
  8
0
  6
CONTINUOUS
 62
     7
100
AcDbLine
 10
-150.64805
 20
-54.0288653724634
 30
0.0
 11
-152.04805
 21
-54.0288653724634
 31
0.0
  0
LINE
  5
158
330
1F
100
AcDbEntity
  8
0
  6
CONTINUOUS
 62
     7
100
AcDbLine
 10
-159.899983
 20
-55.5288653724634
 30
0.0
 11
-159.899983
 21
-54.32886537246341
 31
0.0
  0
LINE
  5
159
330
1F
100
AcDbEntity
  8
0
  6
CONTINUOUS
 62
     7
100
AcDbLine
 10
-160.199983
 20
-54.0288653724634
 30
0.0
 11
-160.857881
 21
-54.0288653724634
 31
0.0
  0
LINE
  5
15A
330
1F
100
AcDbEntity
  8
0
  6
CONTINUOUS
 62
     7
100
AcDbLine
 10
-161.157881
 20
-54.32886537246341
 30
0.0
 11
-161.157881
 21
-55.5288653724634
 31
0.0
  0
LINE
  5
15B
330
1F
100
AcDbEntity
  8
0
  6
CONTINUOUS
 62
     7
100
AcDbLine
 10
-155.708161
 20
-55.5288653724634
 30
0.0
 11
-155.708161
 21
-54.32886537246341
 31
0.0
  0
LINE
  5
15C
330
1F
100
AcDbEntity
  8
0
  6
CONTINUOUS
 62
     7
100
AcDbLine
 10
-156.008161
 20
-54.0288653724634
 30
0.0
 11
-157.242699
 21
-54.0288653724634
 31
0.0
  0
LINE
  5
15D
330
1F
100
AcDbEntity
  8
0
  6
CONTINUOUS
 62
     7
100
AcDbLine
 10
-157.542699
 20
-54.32886537246341
 30
0.0
 11
-157.542699
 21
-55.5288653724634
 31
0.0
  0
LINE
  5
15E
330
1F
100
AcDbEntity
  8
0
  6
CONTINUOUS
 62
     7
100
AcDbLine
 10
-152.34805
 20
-54.32886537246341
 30
0.0
 11
-152.34805
 21
-55.5288653724634
 31
0.0
  0
LINE
  5
15F
330
1F
100
AcDbEntity
  8
0
  6
CONTINUOUS
 62
     7
100
AcDbLine
 10
-162.095109
 20
-55.5288653724634
 30
0.0
 11
-140.84805
 21
-55.5288653724634
 31
0.0
  0
LINE
  5
160
330
1F
100
AcDbEntity
  8
0
  6
CONTINUOUS
 62
     7
100
AcDbLine
 10
-162.84805
 20
-55.5288653724634
 30
0.0
 11
-162.84805
 21
-57.82886537246341
 31
0.0
  0
LINE
  5
161
330
1F
100
AcDbEntity
  8
0
  6
CONTINUOUS
 62
     7
100
AcDbLine
 10
-139.84805
 20
-55.5288653724634
 30
0.0
 11
-139.84805
 21
-57.82886537246341
 31
0.0
  0
LINE
  5
162
330
1F
100
AcDbEntity
  8
0
  6
CONTINUOUS
 62
     7
100
AcDbLine
 10
-140.04805
 20
-58.0288653724634
 30
0.0
 11
-162.64805
 21
-58.0288653724634
 31
0.0
  0
LINE
  5
163
330
1F
100
AcDbEntity
  8
0
  6
CONTINUOUS
 62
     7
100
AcDbLine
 10
-140.84805
 20
-58.2288653724634
 30
0.0
 11
-140.84805
 21
-65.11465237246344
 31
0.0
  0
LINE
  5
164
330
1F
100
AcDbEntity
  8
0
  6
CONTINUOUS
 62
     7
100
AcDbLine
 10
-141.140943
 20
-65.82175937246339
 30
0.0
 11
-144.055157
 21
-68.23597237246341
 31
0.0
  0
LINE
  5
165
330
1F
100
AcDbEntity
  8
0
  6
CONTINUOUS
 62
     7
100
AcDbLine
 10
-144.762264
 20
-68.5288653724634
 30
0.0
 11
-157.933836
 21
-68.5288653724634
 31
0.0
  0
LINE
  5
166
330
1F
100
AcDbEntity
  8
0
  6
CONTINUOUS
 62
     7
100
AcDbLine
 10
-161.84805
 20
-54.0288653724634
 30
0.0
 11
-161.84805
 21
-55.0288653724634
 31
0.0
  0
LINE
  5
167
330
1F
100
AcDbEntity
  8
0
  6
CONTINUOUS
 62
     7
100
AcDbLine
 10
-158.640943
 20
-68.23597237246341
 30
0.0
 11
-161.555157
 21
-65.82175937246339
 31
0.0
  0
LINE
  5
16C
330
1F
100
AcDbEntity
  8
一般
  6
CONTINUOUS
 62
     7
100
AcDbLine
 10
-134.01695
 20
62.96809999999999
 30
0.0
 11
-134.01695
 21
120.6577
 31
0.0
  0
LINE
  5
16D
330
1F
100
AcDbEntity
  8
一般
  6
CONTINUOUS
 62
     7
100
AcDbLine
 10
-134.01695
 20
120.6577
 30
0.0
 11
-134.01695
 21
62.96809999999999
 31
0.0
  0
LINE
  5
16E
330
1F
100
AcDbEntity
  8
一般
  6
CONTINUOUS
 62
     7
100
AcDbLine
 10
54.17145
 20
100.4578
 30
0.0
 11
172.17185
 21
100.4578
 31
0.0
  0
LINE
  5
16F
330
1F
100
AcDbEntity
  8
一般
  6
CONTINUOUS
 62
     7
100
AcDbLine
 10
-148.75085
 20
37.4614
 30
0.0
 11
-130.45085
 21
37.4614
 31
0.0
  0
LINE
  5
170
330
1F
100
AcDbEntity
  8
0
  6
CONTINUOUS
 62
     7
100
AcDbLine
 10
136.419541
 20
-56.13081800000001
 30
0.0
 11
135.6666
 21
-56.13081800000001
 31
0.0
  0
LINE
  5
171
330
1F
100
AcDbEntity
  8
0
  6
CONTINUOUS
 62
     7
100
AcDbLine
 10
147.1666
 20
-58.63081800000001
 30
0.0
 11
147.1666
 21
-66.13081799999999
 31
0.0
  0
LINE
  5
172
330
1F
100
AcDbEntity
  8
0
  6
CONTINUOUS
 62
     7
100
AcDbLine
 10
147.548526
 20
-54.13081800000001
 30
0.0
 11
148.6666
 21
-53.83666000000001
 31
0.0
  0
LINE
  5
173
330
1F
100
AcDbEntity
  8
0
  6
CONTINUOUS
 62
     7
100
AcDbLine
 10
147.1666
 20
-53.28033600000001
 30
0.0
 11
148.6666
 21
-53.54785800000001
 31
0.0
  0
LINE
  5
174
330
1F
100
AcDbEntity
  8
0
  6
CONTINUOUS
 62
     7
100
AcDbLine
 10
148.6666
 20
-53.83666000000001
 30
0.0
 11
147.1666
 21
-54.03033600000001
 31
0.0
  0
LINE
  5
175
330
1F
100
AcDbEntity
  8
0
  6
CONTINUOUS
 62
     7
100
AcDbLine
 10
148.6666
 20
-53.54785800000001
 30
0.0
 11
148.6666
 21
-53.83666000000001
 31
0.0
  0
LINE
  5
176
330
1F
100
AcDbEntity
  8
0
  6
CONTINUOUS
 62
     7
100
AcDbLine
 10
147.1666
 20
-53.481301
 30
0.0
 11
148.6666
 21
-53.54785800000001
 31
0.0
  0
LINE
  5
177
330
1F
100
AcDbEntity
  8
0
  6
CONTINUOUS
 62
     7
100
AcDbLine
 10
155.2666
 20
-54.13081800000001
 30
0.0
 11
155.2666
 21
-49.23490000000001
 31
0.0
  0
LINE
  5
178
330
1F
100
AcDbEntity
  8
0
  6
CONTINUOUS
 62
     7
100
AcDbLine
 10
157.366474
 20
-58.63081800000001
 30
0.0
 11
157.366474
 21
-65.352644
 31
0.0
  0
LINE
  5
179
330
1F
100
AcDbEntity
  8
0
  6
CONTINUOUS
 62
     7
100
AcDbLine
 10
156.866474
 20
-58.63081800000001
 30
0.0
 11
156.866474
 21
-65.352644
 31
0.0
  0
LINE
  5
17A
330
1F
100
AcDbEntity
  8
0
  6
CONTINUOUS
 62
     7
100
AcDbLine
 10
157.153433
 20
-66.13081799999999
 30
0.0
 11
157.366474
 21
-65.352644
 31
0.0
  0
LINE
  5
17B
330
1F
100
AcDbEntity
  8
0
  6
CONTINUOUS
 62
     7
100
AcDbLine
 10
157.6666
 20
-65.352644
 30
0.0
 11
157.153433
 21
-66.13081799999999
 31
0.0
  0
LINE
  5
17C
330
1F
100
AcDbEntity
  8
0
  6
CONTINUOUS
 62
     7
100
AcDbLine
 10
156.692879
 20
-66.13081799999999
 30
0.0
 11
156.866474
 21
-65.352644
 31
0.0
  0
LINE
  5
17D
330
1F
100
AcDbEntity
  8
0
  6
CONTINUOUS
 62
     7
100
AcDbLine
 10
157.366474
 20
-65.352644
 30
0.0
 11
156.692879
 21
-66.13081799999999
 31
0.0
  0
LINE
  5
17E
330
1F
100
AcDbEntity
  8
0
  6
CONTINUOUS
 62
     7
100
AcDbLine
 10
156.866474
 20
-65.352644
 30
0.0
 11
156.1666
 21
-66.13081799999999
 31
0.0
  0
LINE
  5
17F
330
1F
100
AcDbEntity
  8
0
  6
CONTINUOUS
 62
     7
100
AcDbLine
 10
156.1666
 20
-66.13081799999999
 30
0.0
 11
156.1666
 21
-58.63081800000001
 31
0.0
  0
LINE
  5
180
330
1F
100
AcDbEntity
  8
0
  6
CONTINUOUS
 62
     7
100
AcDbLine
 10
147.6666
 20
-65.352644
 30
0.0
 11
147.1666
 21
-66.13081799999999
 31
0.0
  0
LINE
  5
181
330
1F
100
AcDbEntity
  8
0
  6
CONTINUOUS
 62
     7
100
AcDbLine
 10
148.166275
 20
-66.13081799999999
 30
0.0
 11
147.6666
 21
-65.352644
 31
0.0
  0
LINE
  5
182
330
1F
100
AcDbEntity
  8
0
  6
CONTINUOUS
 62
     7
100
AcDbLine
 10
148.6666
 20
-65.352644
 30
0.0
 11
148.166275
 21
-66.13081799999999
 31
0.0
  0
LINE
  5
183
330
1F
100
AcDbEntity
  8
0
  6
CONTINUOUS
 62
     7
100
AcDbLine
 10
148.6666
 20
-58.63081800000001
 30
0.0
 11
148.6666
 21
-65.352644
 31
0.0
  0
LINE
  5
184
330
1F
100
AcDbEntity
  8
0
  6
CONTINUOUS
 62
     7
100
AcDbLine
 10
147.6666
 20
-58.63081800000001
 30
0.0
 11
147.6666
 21
-65.352644
 31
0.0
  0
LINE
  5
185
330
1F
100
AcDbEntity
  8
0
  6
CONTINUOUS
 62
     7
100
AcDbLine
 10
148.166275
 20
-58.63081800000001
 30
0.0
 11
148.166275
 21
-66.13081799999999
 31
0.0
  0
LINE
  5
186
330
1F
100
AcDbEntity
  8
0
  6
CONTINUOUS
 62
     7
100
AcDbLine
 10
158.0666
 20
-56.13081800000001
 30
0.0
 11
157.6666
 21
-56.13081800000001
 31
0.0
  0
LINE
  5
187
330
1F
100
AcDbEntity
  8
0
  6
CONTINUOUS
 62
     7
100
AcDbLine
 10
157.6666
 20
-56.13081800000001
 30
0.0
 11
157.6666
 21
-55.63081800000001
 31
0.0
  0
LINE
  5
188
330
1F
100
AcDbEntity
  8
0
  6
CONTINUOUS
 62
     7
100
AcDbLine
 10
157.6666
 20
-55.63081800000001
 30
0.0
 11
157.6666
 21
-54.63081800000001
 31
0.0
  0
LINE
  5
189
330
1F
100
AcDbEntity
  8
0
  6
CONTINUOUS
 62
     7
100
AcDbLine
 10
155.718533
 20
-54.930818
 30
0.0
 11
155.718533
 21
-56.13081800000001
 31
0.0
  0
LINE
  5
18A
330
1F
100
AcDbEntity
  8
0
  6
CONTINUOUS
 62
     7
100
AcDbLine
 10
156.976431
 20
-56.13081800000001
 30
0.0
 11
156.976431
 21
-54.930818
 31
0.0
  0
LINE
  5
18B
330
1F
100
AcDbEntity
  8
0
  6
CONTINUOUS
 62
     7
100
AcDbLine
 10
156.676431
 20
-54.63081800000001
 30
0.0
 11
156.018533
 21
-54.63081800000001
 31
0.0
  0
LINE
  5
18C
330
1F
100
AcDbEntity
  8
0
  6
CONTINUOUS
 62
     7
100
AcDbLine
 10
153.361249
 20
-56.13081800000001
 30
0.0
 11
153.361249
 21
-54.930818
 31
0.0
  0
LINE
  5
18D
330
1F
100
AcDbEntity
  8
0
  6
CONTINUOUS
 62
     7
100
AcDbLine
 10
153.061249
 20
-54.63081800000001
 30
0.0
 11
151.826711
 21
-54.63081800000001
 31
0.0
  0
LINE
  5
18E
330
1F
100
AcDbEntity
  8
0
  6
CONTINUOUS
 62
     7
100
AcDbLine
 10
151.526711
 20
-54.930818
 30
0.0
 11
151.526711
 21
-56.13081800000001
 31
0.0
  0
LINE
  5
18F
330
1F
100
AcDbEntity
  8
0
  6
CONTINUOUS
 62
     7
100
AcDbLine
 10
148.1666
 20
-56.13081800000001
 30
0.0
 11
148.1666
 21
-54.930818
 31
0.0
  0
LINE
  5
190
330
1F
100
AcDbEntity
  8
0
  6
CONTINUOUS
 62
     7
100
AcDbLine
 10
155.256054
 20
-43.73490000000001
 30
0.0
 11
158.1666
 21
-43.73490000000001
 31
0.0
  0
LINE
  5
191
330
1F
100
AcDbEntity
  8
0
  6
CONTINUOUS
 62
     7
100
AcDbLine
 10
156.983806
 20
-43.73490000000001
 30
0.0
 11
156.983806
 21
-48.73490000000001
 31
0.0
  0
LINE
  5
192
330
1F
100
AcDbEntity
  8
0
  6
CONTINUOUS
 62
     7
100
AcDbLine
 10
147.849394
 20
-48.73490000000001
 30
0.0
 11
147.849394
 21
-43.73490000000001
 31
0.0
  0
LINE
  5
193
330
1F
100
AcDbEntity
  8
0
  6
CONTINUOUS
 62
     7
100
AcDbLine
 10
149.577146
 20
-43.73490000000001
 30
0.0
 11
155.256054
 21
-43.73490000000001
 31
0.0
  0
LINE
  5
194
330
1F
100
AcDbEntity
  8
0
  6
CONTINUOUS
 62
     7
100
AcDbLine
 10
160.6666
 20
-40.7349
 30
0.0
 11
133.6666
 21
-40.7349
 31
0.0
  0
LINE
  5
195
330
1F
100
AcDbEntity
  8
0
  6
CONTINUOUS
 62
     7
100
AcDbLine
 10
138.3166
 20
-54.13081800000001
 30
0.0
 11
138.3166
 21
-53.93303300000001
 31
0.0
  0
LINE
  5
196
330
1F
100
AcDbEntity
  8
0
  6
CONTINUOUS
 62
     7
100
AcDbLine
 10
144.795217
 20
-54.13081800000001
 30
0.0
 11
147.1666
 21
-54.03033600000001
 31
0.0
  0
LINE
  5
197
330
1F
100
AcDbEntity
  8
0
  6
CONTINUOUS
 62
     7
100
AcDbLine
 10
138.3166
 20
-53.856301
 30
0.0
 11
147.1666
 21
-53.481301
 31
0.0
  0
LINE
  5
198
330
1F
100
AcDbEntity
  8
0
  6
CONTINUOUS
 62
     7
100
AcDbLine
 10
147.1666
 20
-53.28033600000001
 30
0.0
 11
139.0666
 21
-53.65533600000001
 31
0.0
  0
LINE
  5
199
330
1F
100
AcDbEntity
  8
0
  6
CONTINUOUS
 62
     7
100
AcDbLine
 10
138.390718
 20
-53.83644100000001
 30
0.0
 11
138.992482
 21
-53.67519600000001
 31
0.0
  0
LINE
  5
19A
330
1F
100
AcDbEntity
  8
0
  6
CONTINUOUS
 62
     7
100
AcDbLine
 10
144.756054
 20
-43.73490000000001
 30
0.0
 11
149.577146
 21
-43.73490000000001
 31
0.0
  0
LINE
  5
19B
330
1F
100
AcDbEntity
  8
0
  6
CONTINUOUS
 62
     7
100
AcDbLine
 10
136.1666
 20
-43.73490000000001
 30
0.0
 11
139.077146
 21
-43.73490000000001
 31
0.0
  0
LINE
  5
19C
330
1F
100
AcDbEntity
  8
0
  6
CONTINUOUS
 62
     7
100
AcDbLine
 10
160.6666
 20
-43.23490000000001
 30
0.0
 11
160.6666
 21
-40.7349
 31
0.0
  0
LINE
  5
19D
330
1F
100
AcDbEntity
  8
0
  6
CONTINUOUS
 62
     7
100
AcDbLine
 10
160.1666
 20
-43.73490000000001
 30
0.0
 11
158.1666
 21
-43.73490000000001
 31
0.0
  0
LINE
  5
19E
330
1F
100
AcDbEntity
  8
0
  6
CONTINUOUS
 62
     7
100
AcDbLine
 10
157.6666
 20
-44.23490000000001
 30
0.0
 11
157.6666
 21
-48.23490000000001
 31
0.0
  0
LINE
  5
19F
330
1F
100
AcDbEntity
  8
0
  6
CONTINUOUS
 62
     7
100
AcDbLine
 10
136.6666
 20
-48.23490000000001
 30
0.0
 11
136.6666
 21
-44.23490000000001
 31
0.0
  0
LINE
  5
1A0
330
1F
100
AcDbEntity
  8
0
  6
CONTINUOUS
 62
     7
100
AcDbLine
 10
155.7666
 20
-48.73490000000001
 30
0.0
 11
157.1666
 21
-48.73490000000001
 31
0.0
  0
LINE
  5
1A1
330
1F
100
AcDbEntity
  8
0
  6
CONTINUOUS
 62
     7
100
AcDbLine
 10
139.077146
 20
-43.73490000000001
 30
0.0
 11
144.756054
 21
-43.73490000000001
 31
0.0
  0
LINE
  5
1A2
330
1F
100
AcDbEntity
  8
0
  6
CONTINUOUS
 62
     7
100
AcDbLine
 10
137.1666
 20
-48.73490000000001
 30
0.0
 11
155.766599
 21
-48.73490000000001
 31
0.0
  0
LINE
  5
1A3
330
1F
100
AcDbEntity
  8
0
  6
CONTINUOUS
 62
     7
100
AcDbLine
 10
139.0666
 20
-49.23490000000001
 30
0.0
 11
139.0666
 21
-53.57860400000001
 31
0.0
  0
LINE
  5
1A4
330
1F
100
AcDbEntity
  8
0
  6
CONTINUOUS
 62
     7
100
AcDbLine
 10
134.1666
 20
-43.73490000000001
 30
0.0
 11
136.1666
 21
-43.73490000000001
 31
0.0
  0
LINE
  5
1A5
330
1F
100
AcDbEntity
  8
0
  6
CONTINUOUS
 62
     7
100
AcDbLine
 10
133.6666
 20
-40.7349
 30
0.0
 11
133.6666
 21
-43.23490000000001
 31
0.0
  0
LINE
  5
1A6
330
1F
100
AcDbEntity
  8
0
  6
CONTINUOUS
 62
     7
100
AcDbLine
 10
146.483806
 20
-43.73490000000001
 30
0.0
 11
146.483806
 21
-48.73490000000001
 31
0.0
  0
LINE
  5
1A7
330
1F
100
AcDbEntity
  8
0
  6
CONTINUOUS
 62
     7
100
AcDbLine
 10
137.349394
 20
-48.73490000000001
 30
0.0
 11
137.349394
 21
-43.73490000000001
 31
0.0
  0
LINE
  5
1A8
330
1F
100
AcDbEntity
  8
0
  6
CONTINUOUS
 62
     7
100
AcDbLine
 10
137.179767
 20
-66.13081799999999
 30
0.0
 11
136.6666
 21
-65.352644
 31
0.0
  0
LINE
  5
1A9
330
1F
100
AcDbEntity
  8
0
  6
CONTINUOUS
 62
     7
100
AcDbLine
 10
136.966726
 20
-65.352644
 30
0.0
 11
137.179767
 21
-66.13081799999999
 31
0.0
  0
LINE
  5
1AA
330
1F
100
AcDbEntity
  8
0
  6
CONTINUOUS
 62
     7
100
AcDbLine
 10
136.966726
 20
-65.352644
 30
0.0
 11
136.966726
 21
-58.63081800000001
 31
0.0
  0
LINE
  5
1AB
330
1F
100
AcDbEntity
  8
0
  6
CONTINUOUS
 62
     7
100
AcDbLine
 10
137.640321
 20
-66.13081799999999
 30
0.0
 11
136.966726
 21
-65.352644
 31
0.0
  0
LINE
  5
1AC
330
1F
100
AcDbEntity
  8
0
  6
CONTINUOUS
 62
     7
100
AcDbLine
 10
137.466726
 20
-65.352644
 30
0.0
 11
137.640321
 21
-66.13081799999999
 31
0.0
  0
LINE
  5
1AD
330
1F
100
AcDbEntity
  8
0
  6
CONTINUOUS
 62
     7
100
AcDbLine
 10
137.466726
 20
-65.352644
 30
0.0
 11
137.466726
 21
-58.63081800000001
 31
0.0
  0
LINE
  5
1AE
330
1F
100
AcDbEntity
  8
0
  6
CONTINUOUS
 62
     7
100
AcDbLine
 10
138.1666
 20
-66.13081799999999
 30
0.0
 11
137.466726
 21
-65.352644
 31
0.0
  0
LINE
  5
1AF
330
1F
100
AcDbEntity
  8
0
  6
CONTINUOUS
 62
     7
100
AcDbLine
 10
138.1666
 20
-58.63081800000001
 30
0.0
 11
138.1666
 21
-66.13081799999999
 31
0.0
  0
LINE
  5
1B0
330
1F
100
AcDbEntity
  8
0
  6
CONTINUOUS
 62
     7
100
AcDbLine
 10
146.166925
 20
-66.13081799999999
 30
0.0
 11
146.166925
 21
-58.63081800000001
 31
0.0
  0
LINE
  5
1B1
330
1F
100
AcDbEntity
  8
0
  6
CONTINUOUS
 62
     7
100
AcDbLine
 10
146.6666
 20
-65.352644
 30
0.0
 11
146.6666
 21
-58.63081800000001
 31
0.0
  0
LINE
  5
1B2
330
1F
100
AcDbEntity
  8
0
  6
CONTINUOUS
 62
     7
100
AcDbLine
 10
145.6666
 20
-65.352644
 30
0.0
 11
145.6666
 21
-58.63081800000001
 31
0.0
  0
LINE
  5
1B3
330
1F
100
AcDbEntity
  8
0
  6
CONTINUOUS
 62
     7
100
AcDbLine
 10
146.166925
 20
-66.13081799999999
 30
0.0
 11
145.6666
 21
-65.352644
 31
0.0
  0
LINE
  5
1B4
330
1F
100
AcDbEntity
  8
0
  6
CONTINUOUS
 62
     7
100
AcDbLine
 10
146.6666
 20
-65.352644
 30
0.0
 11
146.166925
 21
-66.13081799999999
 31
0.0
  0
LINE
  5
1B5
330
1F
100
AcDbEntity
  8
0
  6
CONTINUOUS
 62
     7
100
AcDbLine
 10
147.1666
 20
-66.13081799999999
 30
0.0
 11
146.6666
 21
-65.352644
 31
0.0
  0
LINE
  5
1B6
330
1F
100
AcDbEntity
  8
0
  6
CONTINUOUS
 62
     7
100
AcDbLine
 10
136.34793
 20
-54.91086300000001
 30
0.0
 11
136.2666
 21
-56.13081800000001
 31
0.0
  0
LINE
  5
1B7
330
1F
100
AcDbEntity
  8
0
  6
CONTINUOUS
 62
     7
100
AcDbLine
 10
136.6666
 20
-54.63081800000001
 30
0.0
 11
136.647266
 21
-54.63081800000001
 31
0.0
  0
LINE
  5
1B8
330
1F
100
AcDbEntity
  8
0
  6
CONTINUOUS
 62
     7
100
AcDbLine
 10
157.685934
 20
-54.63081800000001
 30
0.0
 11
157.6666
 21
-54.63081800000001
 31
0.0
  0
LINE
  5
1B9
330
1F
100
AcDbEntity
  8
0
  6
CONTINUOUS
 62
     7
100
AcDbLine
 10
158.0666
 20
-56.13081800000001
 30
0.0
 11
158.6666
 21
-56.13081800000001
 31
0.0
  0
LINE
  5
1BA
330
1F
100
AcDbEntity
  8
0
  6
CONTINUOUS
 62
     7
100
AcDbLine
 10
158.0666
 20
-56.13081800000001
 30
0.0
 11
157.98527
 21
-54.91086300000001
 31
0.0
  0
LINE
  5
1BB
330
1F
100
AcDbEntity
  8
0
  6
CONTINUOUS
 62
     7
100
AcDbLine
 10
136.6666
 20
-65.716605
 30
0.0
 11
136.6666
 21
-58.83081800000001
 31
0.0
  0
LINE
  5
1BC
330
1F
100
AcDbEntity
  8
0
  6
CONTINUOUS
 62
     7
100
AcDbLine
 10
157.1666
 20
-54.13081800000001
 30
0.0
 11
137.1666
 21
-54.13081800000001
 31
0.0
  0
LINE
  5
1BD
330
1F
100
AcDbEntity
  8
0
  6
CONTINUOUS
 62
     7
100
AcDbLine
 10
136.6666
 20
-55.63081800000001
 30
0.0
 11
136.6666
 21
-56.13081800000001
 31
0.0
  0
LINE
  5
1BE
330
1F
100
AcDbEntity
  8
0
  6
CONTINUOUS
 62
     7
100
AcDbLine
 10
147.8666
 20
-54.63081800000001
 30
0.0
 11
146.4666
 21
-54.63081800000001
 31
0.0
  0
LINE
  5
1BF
330
1F
100
AcDbEntity
  8
0
  6
CONTINUOUS
 62
     7
100
AcDbLine
 10
138.614667
 20
-56.13081800000001
 30
0.0
 11
138.614667
 21
-54.930818
 31
0.0
  0
LINE
  5
1C0
330
1F
100
AcDbEntity
  8
0
  6
CONTINUOUS
 62
     7
100
AcDbLine
 10
138.314667
 20
-54.63081800000001
 30
0.0
 11
137.656769
 21
-54.63081800000001
 31
0.0
  0
LINE
  5
1C1
330
1F
100
AcDbEntity
  8
0
  6
CONTINUOUS
 62
     7
100
AcDbLine
 10
137.356769
 20
-54.930818
 30
0.0
 11
137.356769
 21
-56.13081800000001
 31
0.0
  0
LINE
  5
1C2
330
1F
100
AcDbEntity
  8
0
  6
CONTINUOUS
 62
     7
100
AcDbLine
 10
142.806489
 20
-56.13081800000001
 30
0.0
 11
142.806489
 21
-54.930818
 31
0.0
  0
LINE
  5
1C3
330
1F
100
AcDbEntity
  8
0
  6
CONTINUOUS
 62
     7
100
AcDbLine
 10
142.506489
 20
-54.63081800000001
 30
0.0
 11
141.271951
 21
-54.63081800000001
 31
0.0
  0
LINE
  5
1C4
330
1F
100
AcDbEntity
  8
0
  6
CONTINUOUS
 62
     7
100
AcDbLine
 10
140.971951
 20
-54.930818
 30
0.0
 11
140.971951
 21
-56.13081800000001
 31
0.0
  0
LINE
  5
1C5
330
1F
100
AcDbEntity
  8
0
  6
CONTINUOUS
 62
     7
100
AcDbLine
 10
146.1666
 20
-54.930818
 30
0.0
 11
146.1666
 21
-56.13081800000001
 31
0.0
  0
LINE
  5
1C6
330
1F
100
AcDbEntity
  8
0
  6
CONTINUOUS
 62
     7
100
AcDbLine
 10
136.419541
 20
-56.13081800000001
 30
0.0
 11
157.6666
 21
-56.13081800000001
 31
0.0
  0
LINE
  5
1C7
330
1F
100
AcDbEntity
  8
0
  6
CONTINUOUS
 62
     7
100
AcDbLine
 10
135.6666
 20
-56.13081800000001
 30
0.0
 11
135.6666
 21
-58.430818
 31
0.0
  0
LINE
  5
1C8
330
1F
100
AcDbEntity
  8
0
  6
CONTINUOUS
 62
     7
100
AcDbLine
 10
158.6666
 20
-56.13081800000001
 30
0.0
 11
158.6666
 21
-58.430818
 31
0.0
  0
LINE
  5
1C9
330
1F
100
AcDbEntity
  8
0
  6
CONTINUOUS
 62
     7
100
AcDbLine
 10
158.4666
 20
-58.63081800000001
 30
0.0
 11
135.8666
 21
-58.63081800000001
 31
0.0
  0
LINE
  5
1CA
330
1F
100
AcDbEntity
  8
0
  6
CONTINUOUS
 62
     7
100
AcDbLine
 10
157.6666
 20
-58.83081800000001
 30
0.0
 11
157.6666
 21
-65.716605
 31
0.0
  0
LINE
  5
1CB
330
1F
100
AcDbEntity
  8
0
  6
CONTINUOUS
 62
     7
100
AcDbLine
 10
157.373707
 20
-66.42371199999998
 30
0.0
 11
154.459493
 21
-68.83792500000001
 31
0.0
  0
LINE
  5
1CC
330
1F
100
AcDbEntity
  8
0
  6
CONTINUOUS
 62
     7
100
AcDbLine
 10
153.752386
 20
-69.13081799999999
 30
0.0
 11
140.580814
 21
-69.13081799999999
 31
0.0
  0
LINE
  5
1CD
330
1F
100
AcDbEntity
  8
0
  6
CONTINUOUS
 62
     7
100
AcDbLine
 10
136.6666
 20
-54.63081800000001
 30
0.0
 11
136.6666
 21
-55.63081800000001
 31
0.0
  0
LINE
  5
1CE
330
1F
100
AcDbEntity
  8
0
  6
CONTINUOUS
 62
     7
100
AcDbLine
 10
139.873707
 20
-68.83792500000001
 30
0.0
 11
136.959493
 21
-66.42371199999998
 31
0.0
  0
LINE
  5
1CF
330
1F
100
AcDbEntity
  8
0
  6
CONTINUOUS
 62
     7
100
AcDbLine
 10
170.419541
 20
-56.13081800000001
 30
0.0
 11
169.6666
 21
-56.13081800000001
 31
0.0
  0
LINE
  5
1D0
330
1F
100
AcDbEntity
  8
0
  6
CONTINUOUS
 62
     7
100
AcDbLine
 10
181.1666
 20
-58.63081800000001
 30
0.0
 11
181.1666
 21
-66.13081799999999
 31
0.0
  0
LINE
  5
1D1
330
1F
100
AcDbEntity
  8
0
  6
CONTINUOUS
 62
     7
100
AcDbLine
 10
181.548526
 20
-54.13081800000001
 30
0.0
 11
182.6666
 21
-53.83666000000001
 31
0.0
  0
LINE
  5
1D2
330
1F
100
AcDbEntity
  8
0
  6
CONTINUOUS
 62
     7
100
AcDbLine
 10
181.1666
 20
-53.28033600000001
 30
0.0
 11
182.6666
 21
-53.54785800000001
 31
0.0
  0
LINE
  5
1D3
330
1F
100
AcDbEntity
  8
0
  6
CONTINUOUS
 62
     7
100
AcDbLine
 10
182.6666
 20
-53.83666000000001
 30
0.0
 11
181.1666
 21
-54.03033600000001
 31
0.0
  0
LINE
  5
1D4
330
1F
100
AcDbEntity
  8
0
  6
CONTINUOUS
 62
     7
100
AcDbLine
 10
182.6666
 20
-53.54785800000001
 30
0.0
 11
182.6666
 21
-53.83666000000001
 31
0.0
  0
LINE
  5
1D5
330
1F
100
AcDbEntity
  8
0
  6
CONTINUOUS
 62
     7
100
AcDbLine
 10
181.1666
 20
-53.481301
 30
0.0
 11
182.6666
 21
-53.54785800000001
 31
0.0
  0
LINE
  5
1D6
330
1F
100
AcDbEntity
  8
0
  6
CONTINUOUS
 62
     7
100
AcDbLine
 10
189.2666
 20
-54.13081800000001
 30
0.0
 11
189.2666
 21
-49.23490000000001
 31
0.0
  0
LINE
  5
1D7
330
1F
100
AcDbEntity
  8
0
  6
CONTINUOUS
 62
     7
100
AcDbLine
 10
191.366474
 20
-58.63081800000001
 30
0.0
 11
191.366474
 21
-65.352644
 31
0.0
  0
LINE
  5
1D8
330
1F
100
AcDbEntity
  8
0
  6
CONTINUOUS
 62
     7
100
AcDbLine
 10
190.866474
 20
-58.63081800000001
 30
0.0
 11
190.866474
 21
-65.352644
 31
0.0
  0
LINE
  5
1D9
330
1F
100
AcDbEntity
  8
0
  6
CONTINUOUS
 62
     7
100
AcDbLine
 10
191.153433
 20
-66.13081799999999
 30
0.0
 11
191.366474
 21
-65.352644
 31
0.0
  0
LINE
  5
1DA
330
1F
100
AcDbEntity
  8
0
  6
CONTINUOUS
 62
     7
100
AcDbLine
 10
191.6666
 20
-65.352644
 30
0.0
 11
191.153433
 21
-66.13081799999999
 31
0.0
  0
LINE
  5
1DB
330
1F
100
AcDbEntity
  8
0
  6
CONTINUOUS
 62
     7
100
AcDbLine
 10
190.692879
 20
-66.13081799999999
 30
0.0
 11
190.866474
 21
-65.352644
 31
0.0
  0
LINE
  5
1DC
330
1F
100
AcDbEntity
  8
0
  6
CONTINUOUS
 62
     7
100
AcDbLine
 10
191.366474
 20
-65.352644
 30
0.0
 11
190.692879
 21
-66.13081799999999
 31
0.0
  0
LINE
  5
1DD
330
1F
100
AcDbEntity
  8
0
  6
CONTINUOUS
 62
     7
100
AcDbLine
 10
190.866474
 20
-65.352644
 30
0.0
 11
190.1666
 21
-66.13081799999999
 31
0.0
  0
LINE
  5
1DE
330
1F
100
AcDbEntity
  8
0
  6
CONTINUOUS
 62
     7
100
AcDbLine
 10
190.1666
 20
-66.13081799999999
 30
0.0
 11
190.1666
 21
-58.63081800000001
 31
0.0
  0
LINE
  5
1DF
330
1F
100
AcDbEntity
  8
0
  6
CONTINUOUS
 62
     7
100
AcDbLine
 10
181.6666
 20
-65.352644
 30
0.0
 11
181.1666
 21
-66.13081799999999
 31
0.0
  0
LINE
  5
1E0
330
1F
100
AcDbEntity
  8
0
  6
CONTINUOUS
 62
     7
100
AcDbLine
 10
182.166275
 20
-66.13081799999999
 30
0.0
 11
181.6666
 21
-65.352644
 31
0.0
  0
LINE
  5
1E1
330
1F
100
AcDbEntity
  8
0
  6
CONTINUOUS
 62
     7
100
AcDbLine
 10
182.6666
 20
-65.352644
 30
0.0
 11
182.166275
 21
-66.13081799999999
 31
0.0
  0
LINE
  5
1E2
330
1F
100
AcDbEntity
  8
0
  6
CONTINUOUS
 62
     7
100
AcDbLine
 10
182.6666
 20
-58.63081800000001
 30
0.0
 11
182.6666
 21
-65.352644
 31
0.0
  0
LINE
  5
1E3
330
1F
100
AcDbEntity
  8
0
  6
CONTINUOUS
 62
     7
100
AcDbLine
 10
181.6666
 20
-58.63081800000001
 30
0.0
 11
181.6666
 21
-65.352644
 31
0.0
  0
LINE
  5
1E4
330
1F
100
AcDbEntity
  8
0
  6
CONTINUOUS
 62
     7
100
AcDbLine
 10
182.166275
 20
-58.63081800000001
 30
0.0
 11
182.166275
 21
-66.13081799999999
 31
0.0
  0
LINE
  5
1E5
330
1F
100
AcDbEntity
  8
0
  6
CONTINUOUS
 62
     7
100
AcDbLine
 10
192.0666
 20
-56.13081800000001
 30
0.0
 11
191.6666
 21
-56.13081800000001
 31
0.0
  0
LINE
  5
1E6
330
1F
100
AcDbEntity
  8
0
  6
CONTINUOUS
 62
     7
100
AcDbLine
 10
191.6666
 20
-56.13081800000001
 30
0.0
 11
191.6666
 21
-55.63081800000001
 31
0.0
  0
LINE
  5
1E7
330
1F
100
AcDbEntity
  8
0
  6
CONTINUOUS
 62
     7
100
AcDbLine
 10
191.6666
 20
-55.63081800000001
 30
0.0
 11
191.6666
 21
-54.63081800000001
 31
0.0
  0
LINE
  5
1E8
330
1F
100
AcDbEntity
  8
0
  6
CONTINUOUS
 62
     7
100
AcDbLine
 10
189.718533
 20
-54.930818
 30
0.0
 11
189.718533
 21
-56.13081800000001
 31
0.0
  0
LINE
  5
1E9
330
1F
100
AcDbEntity
  8
0
  6
CONTINUOUS
 62
     7
100
AcDbLine
 10
190.976431
 20
-56.13081800000001
 30
0.0
 11
190.976431
 21
-54.930818
 31
0.0
  0
LINE
  5
1EA
330
1F
100
AcDbEntity
  8
0
  6
CONTINUOUS
 62
     7
100
AcDbLine
 10
190.676431
 20
-54.63081800000001
 30
0.0
 11
190.018533
 21
-54.63081800000001
 31
0.0
  0
LINE
  5
1EB
330
1F
100
AcDbEntity
  8
0
  6
CONTINUOUS
 62
     7
100
AcDbLine
 10
187.361249
 20
-56.13081800000001
 30
0.0
 11
187.361249
 21
-54.930818
 31
0.0
  0
LINE
  5
1EC
330
1F
100
AcDbEntity
  8
0
  6
CONTINUOUS
 62
     7
100
AcDbLine
 10
187.061249
 20
-54.63081800000001
 30
0.0
 11
185.826711
 21
-54.63081800000001
 31
0.0
  0
LINE
  5
1ED
330
1F
100
AcDbEntity
  8
0
  6
CONTINUOUS
 62
     7
100
AcDbLine
 10
185.526711
 20
-54.930818
 30
0.0
 11
185.526711
 21
-56.13081800000001
 31
0.0
  0
LINE
  5
1EE
330
1F
100
AcDbEntity
  8
0
  6
CONTINUOUS
 62
     7
100
AcDbLine
 10
182.1666
 20
-56.13081800000001
 30
0.0
 11
182.1666
 21
-54.930818
 31
0.0
  0
LINE
  5
1EF
330
1F
100
AcDbEntity
  8
0
  6
CONTINUOUS
 62
     7
100
AcDbLine
 10
189.256054
 20
-43.73490000000001
 30
0.0
 11
192.1666
 21
-43.73490000000001
 31
0.0
  0
LINE
  5
1F0
330
1F
100
AcDbEntity
  8
0
  6
CONTINUOUS
 62
     7
100
AcDbLine
 10
190.983806
 20
-43.73490000000001
 30
0.0
 11
190.983806
 21
-48.73490000000001
 31
0.0
  0
LINE
  5
1F1
330
1F
100
AcDbEntity
  8
0
  6
CONTINUOUS
 62
     7
100
AcDbLine
 10
181.849394
 20
-48.73490000000001
 30
0.0
 11
181.849394
 21
-43.73490000000001
 31
0.0
  0
LINE
  5
1F2
330
1F
100
AcDbEntity
  8
0
  6
CONTINUOUS
 62
     7
100
AcDbLine
 10
183.577146
 20
-43.73490000000001
 30
0.0
 11
189.256054
 21
-43.73490000000001
 31
0.0
  0
LINE
  5
1F3
330
1F
100
AcDbEntity
  8
0
  6
CONTINUOUS
 62
     7
100
AcDbLine
 10
194.6666
 20
-40.7349
 30
0.0
 11
167.6666
 21
-40.7349
 31
0.0
  0
LINE
  5
1F4
330
1F
100
AcDbEntity
  8
0
  6
CONTINUOUS
 62
     7
100
AcDbLine
 10
172.3166
 20
-54.13081800000001
 30
0.0
 11
172.3166
 21
-53.93303300000001
 31
0.0
  0
LINE
  5
1F5
330
1F
100
AcDbEntity
  8
0
  6
CONTINUOUS
 62
     7
100
AcDbLine
 10
178.795217
 20
-54.13081800000001
 30
0.0
 11
181.1666
 21
-54.03033600000001
 31
0.0
  0
LINE
  5
1F6
330
1F
100
AcDbEntity
  8
0
  6
CONTINUOUS
 62
     7
100
AcDbLine
 10
172.3166
 20
-53.856301
 30
0.0
 11
181.1666
 21
-53.481301
 31
0.0
  0
LINE
  5
1F7
330
1F
100
AcDbEntity
  8
0
  6
CONTINUOUS
 62
     7
100
AcDbLine
 10
181.1666
 20
-53.28033600000001
 30
0.0
 11
173.0666
 21
-53.65533600000001
 31
0.0
  0
LINE
  5
1F8
330
1F
100
AcDbEntity
  8
0
  6
CONTINUOUS
 62
     7
100
AcDbLine
 10
172.390718
 20
-53.83644100000001
 30
0.0
 11
172.992482
 21
-53.67519600000001
 31
0.0
  0
LINE
  5
1F9
330
1F
100
AcDbEntity
  8
0
  6
CONTINUOUS
 62
     7
100
AcDbLine
 10
178.756054
 20
-43.73490000000001
 30
0.0
 11
183.577146
 21
-43.73490000000001
 31
0.0
  0
LINE
  5
1FA
330
1F
100
AcDbEntity
  8
0
  6
CONTINUOUS
 62
     7
100
AcDbLine
 10
170.1666
 20
-43.73490000000001
 30
0.0
 11
173.077146
 21
-43.73490000000001
 31
0.0
  0
LINE
  5
1FB
330
1F
100
AcDbEntity
  8
0
  6
CONTINUOUS
 62
     7
100
AcDbLine
 10
194.6666
 20
-43.23490000000001
 30
0.0
 11
194.6666
 21
-40.7349
 31
0.0
  0
LINE
  5
1FC
330
1F
100
AcDbEntity
  8
0
  6
CONTINUOUS
 62
     7
100
AcDbLine
 10
194.1666
 20
-43.73490000000001
 30
0.0
 11
192.1666
 21
-43.73490000000001
 31
0.0
  0
LINE
  5
1FD
330
1F
100
AcDbEntity
  8
0
  6
CONTINUOUS
 62
     7
100
AcDbLine
 10
191.6666
 20
-44.23490000000001
 30
0.0
 11
191.6666
 21
-48.23490000000001
 31
0.0
  0
LINE
  5
1FE
330
1F
100
AcDbEntity
  8
0
  6
CONTINUOUS
 62
     7
100
AcDbLine
 10
170.6666
 20
-48.23490000000001
 30
0.0
 11
170.6666
 21
-44.23490000000001
 31
0.0
  0
LINE
  5
1FF
330
1F
100
AcDbEntity
  8
0
  6
CONTINUOUS
 62
     7
100
AcDbLine
 10
189.7666
 20
-48.73490000000001
 30
0.0
 11
191.1666
 21
-48.73490000000001
 31
0.0
  0
LINE
  5
200
330
1F
100
AcDbEntity
  8
0
  6
CONTINUOUS
 62
     7
100
AcDbLine
 10
173.077146
 20
-43.73490000000001
 30
0.0
 11
178.756054
 21
-43.73490000000001
 31
0.0
  0
LINE
  5
201
330
1F
100
AcDbEntity
  8
0
  6
CONTINUOUS
 62
     7
100
AcDbLine
 10
171.1666
 20
-48.73490000000001
 30
0.0
 11
189.766599
 21
-48.73490000000001
 31
0.0
  0
LINE
  5
202
330
1F
100
AcDbEntity
  8
0
  6
CONTINUOUS
 62
     7
100
AcDbLine
 10
173.0666
 20
-49.23490000000001
 30
0.0
 11
173.0666
 21
-53.57860400000001
 31
0.0
  0
LINE
  5
203
330
1F
100
AcDbEntity
  8
0
  6
CONTINUOUS
 62
     7
100
AcDbLine
 10
168.1666
 20
-43.73490000000001
 30
0.0
 11
170.1666
 21
-43.73490000000001
 31
0.0
  0
LINE
  5
204
330
1F
100
AcDbEntity
  8
0
  6
CONTINUOUS
 62
     7
100
AcDbLine
 10
167.6666
 20
-40.7349
 30
0.0
 11
167.6666
 21
-43.23490000000001
 31
0.0
  0
LINE
  5
205
330
1F
100
AcDbEntity
  8
0
  6
CONTINUOUS
 62
     7
100
AcDbLine
 10
180.483806
 20
-43.73490000000001
 30
0.0
 11
180.483806
 21
-48.73490000000001
 31
0.0
  0
LINE
  5
206
330
1F
100
AcDbEntity
  8
0
  6
CONTINUOUS
 62
     7
100
AcDbLine
 10
171.349394
 20
-48.73490000000001
 30
0.0
 11
171.349394
 21
-43.73490000000001
 31
0.0
  0
LINE
  5
207
330
1F
100
AcDbEntity
  8
0
  6
CONTINUOUS
 62
     7
100
AcDbLine
 10
171.179767
 20
-66.13081799999999
 30
0.0
 11
170.6666
 21
-65.352644
 31
0.0
  0
LINE
  5
208
330
1F
100
AcDbEntity
  8
0
  6
CONTINUOUS
 62
     7
100
AcDbLine
 10
170.966726
 20
-65.352644
 30
0.0
 11
171.179767
 21
-66.13081799999999
 31
0.0
  0
LINE
  5
209
330
1F
100
AcDbEntity
  8
0
  6
CONTINUOUS
 62
     7
100
AcDbLine
 10
170.966726
 20
-65.352644
 30
0.0
 11
170.966726
 21
-58.63081800000001
 31
0.0
  0
LINE
  5
20A
330
1F
100
AcDbEntity
  8
0
  6
CONTINUOUS
 62
     7
100
AcDbLine
 10
171.640321
 20
-66.13081799999999
 30
0.0
 11
170.966726
 21
-65.352644
 31
0.0
  0
LINE
  5
20B
330
1F
100
AcDbEntity
  8
0
  6
CONTINUOUS
 62
     7
100
AcDbLine
 10
171.466726
 20
-65.352644
 30
0.0
 11
171.640321
 21
-66.13081799999999
 31
0.0
  0
LINE
  5
20C
330
1F
100
AcDbEntity
  8
0
  6
CONTINUOUS
 62
     7
100
AcDbLine
 10
171.466726
 20
-65.352644
 30
0.0
 11
171.466726
 21
-58.63081800000001
 31
0.0
  0
LINE
  5
20D
330
1F
100
AcDbEntity
  8
0
  6
CONTINUOUS
 62
     7
100
AcDbLine
 10
172.1666
 20
-66.13081799999999
 30
0.0
 11
171.466726
 21
-65.352644
 31
0.0
  0
LINE
  5
20E
330
1F
100
AcDbEntity
  8
0
  6
CONTINUOUS
 62
     7
100
AcDbLine
 10
172.1666
 20
-58.63081800000001
 30
0.0
 11
172.1666
 21
-66.13081799999999
 31
0.0
  0
LINE
  5
20F
330
1F
100
AcDbEntity
  8
0
  6
CONTINUOUS
 62
     7
100
AcDbLine
 10
180.166925
 20
-66.13081799999999
 30
0.0
 11
180.166925
 21
-58.63081800000001
 31
0.0
  0
LINE
  5
210
330
1F
100
AcDbEntity
  8
0
  6
CONTINUOUS
 62
     7
100
AcDbLine
 10
180.6666
 20
-65.352644
 30
0.0
 11
180.6666
 21
-58.63081800000001
 31
0.0
  0
LINE
  5
211
330
1F
100
AcDbEntity
  8
0
  6
CONTINUOUS
 62
     7
100
AcDbLine
 10
179.6666
 20
-65.352644
 30
0.0
 11
179.6666
 21
-58.63081800000001
 31
0.0
  0
LINE
  5
212
330
1F
100
AcDbEntity
  8
0
  6
CONTINUOUS
 62
     7
100
AcDbLine
 10
180.166925
 20
-66.13081799999999
 30
0.0
 11
179.6666
 21
-65.352644
 31
0.0
  0
LINE
  5
213
330
1F
100
AcDbEntity
  8
0
  6
CONTINUOUS
 62
     7
100
AcDbLine
 10
180.6666
 20
-65.352644
 30
0.0
 11
180.166925
 21
-66.13081799999999
 31
0.0
  0
LINE
  5
214
330
1F
100
AcDbEntity
  8
0
  6
CONTINUOUS
 62
     7
100
AcDbLine
 10
181.1666
 20
-66.13081799999999
 30
0.0
 11
180.6666
 21
-65.352644
 31
0.0
  0
LINE
  5
215
330
1F
100
AcDbEntity
  8
0
  6
CONTINUOUS
 62
     7
100
AcDbLine
 10
170.34793
 20
-54.91086300000001
 30
0.0
 11
170.2666
 21
-56.13081800000001
 31
0.0
  0
LINE
  5
216
330
1F
100
AcDbEntity
  8
0
  6
CONTINUOUS
 62
     7
100
AcDbLine
 10
170.6666
 20
-54.63081800000001
 30
0.0
 11
170.647266
 21
-54.63081800000001
 31
0.0
  0
LINE
  5
217
330
1F
100
AcDbEntity
  8
0
  6
CONTINUOUS
 62
     7
100
AcDbLine
 10
191.685934
 20
-54.63081800000001
 30
0.0
 11
191.6666
 21
-54.63081800000001
 31
0.0
  0
LINE
  5
218
330
1F
100
AcDbEntity
  8
0
  6
CONTINUOUS
 62
     7
100
AcDbLine
 10
192.0666
 20
-56.13081800000001
 30
0.0
 11
192.6666
 21
-56.13081800000001
 31
0.0
  0
LINE
  5
219
330
1F
100
AcDbEntity
  8
0
  6
CONTINUOUS
 62
     7
100
AcDbLine
 10
192.0666
 20
-56.13081800000001
 30
0.0
 11
191.98527
 21
-54.91086300000001
 31
0.0
  0
LINE
  5
21A
330
1F
100
AcDbEntity
  8
0
  6
CONTINUOUS
 62
     7
100
AcDbLine
 10
170.6666
 20
-65.716605
 30
0.0
 11
170.6666
 21
-58.83081800000001
 31
0.0
  0
LINE
  5
21B
330
1F
100
AcDbEntity
  8
0
  6
CONTINUOUS
 62
     7
100
AcDbLine
 10
191.1666
 20
-54.13081800000001
 30
0.0
 11
171.1666
 21
-54.13081800000001
 31
0.0
  0
LINE
  5
21C
330
1F
100
AcDbEntity
  8
0
  6
CONTINUOUS
 62
     7
100
AcDbLine
 10
170.6666
 20
-55.63081800000001
 30
0.0
 11
170.6666
 21
-56.13081800000001
 31
0.0
  0
LINE
  5
21D
330
1F
100
AcDbEntity
  8
0
  6
CONTINUOUS
 62
     7
100
AcDbLine
 10
181.8666
 20
-54.63081800000001
 30
0.0
 11
180.4666
 21
-54.63081800000001
 31
0.0
  0
LINE
  5
21E
330
1F
100
AcDbEntity
  8
0
  6
CONTINUOUS
 62
     7
100
AcDbLine
 10
172.614667
 20
-56.13081800000001
 30
0.0
 11
172.614667
 21
-54.930818
 31
0.0
  0
LINE
  5
21F
330
1F
100
AcDbEntity
  8
0
  6
CONTINUOUS
 62
     7
100
AcDbLine
 10
172.314667
 20
-54.63081800000001
 30
0.0
 11
171.656769
 21
-54.63081800000001
 31
0.0
  0
LINE
  5
220
330
1F
100
AcDbEntity
  8
0
  6
CONTINUOUS
 62
     7
100
AcDbLine
 10
171.356769
 20
-54.930818
 30
0.0
 11
171.356769
 21
-56.13081800000001
 31
0.0
  0
LINE
  5
221
330
1F
100
AcDbEntity
  8
0
  6
CONTINUOUS
 62
     7
100
AcDbLine
 10
176.806489
 20
-56.13081800000001
 30
0.0
 11
176.806489
 21
-54.930818
 31
0.0
  0
LINE
  5
222
330
1F
100
AcDbEntity
  8
0
  6
CONTINUOUS
 62
     7
100
AcDbLine
 10
176.506489
 20
-54.63081800000001
 30
0.0
 11
175.271951
 21
-54.63081800000001
 31
0.0
  0
LINE
  5
223
330
1F
100
AcDbEntity
  8
0
  6
CONTINUOUS
 62
     7
100
AcDbLine
 10
174.971951
 20
-54.930818
 30
0.0
 11
174.971951
 21
-56.13081800000001
 31
0.0
  0
LINE
  5
224
330
1F
100
AcDbEntity
  8
0
  6
CONTINUOUS
 62
     7
100
AcDbLine
 10
180.1666
 20
-54.930818
 30
0.0
 11
180.1666
 21
-56.13081800000001
 31
0.0
  0
LINE
  5
225
330
1F
100
AcDbEntity
  8
0
  6
CONTINUOUS
 62
     7
100
AcDbLine
 10
170.419541
 20
-56.13081800000001
 30
0.0
 11
191.6666
 21
-56.13081800000001
 31
0.0
  0
LINE
  5
226
330
1F
100
AcDbEntity
  8
0
  6
CONTINUOUS
 62
     7
100
AcDbLine
 10
169.6666
 20
-56.13081800000001
 30
0.0
 11
169.6666
 21
-58.430818
 31
0.0
  0
LINE
  5
227
330
1F
100
AcDbEntity
  8
0
  6
CONTINUOUS
 62
     7
100
AcDbLine
 10
192.6666
 20
-56.13081800000001
 30
0.0
 11
192.6666
 21
-58.430818
 31
0.0
  0
LINE
  5
228
330
1F
100
AcDbEntity
  8
0
  6
CONTINUOUS
 62
     7
100
AcDbLine
 10
192.4666
 20
-58.63081800000001
 30
0.0
 11
169.8666
 21
-58.63081800000001
 31
0.0
  0
LINE
  5
229
330
1F
100
AcDbEntity
  8
0
  6
CONTINUOUS
 62
     7
100
AcDbLine
 10
191.6666
 20
-58.83081800000001
 30
0.0
 11
191.6666
 21
-65.716605
 31
0.0
  0
LINE
  5
22A
330
1F
100
AcDbEntity
  8
0
  6
CONTINUOUS
 62
     7
100
AcDbLine
 10
191.373707
 20
-66.42371199999998
 30
0.0
 11
188.459493
 21
-68.83792500000001
 31
0.0
  0
LINE
  5
22B
330
1F
100
AcDbEntity
  8
0
  6
CONTINUOUS
 62
     7
100
AcDbLine
 10
187.752386
 20
-69.13081799999999
 30
0.0
 11
174.580814
 21
-69.13081799999999
 31
0.0
  0
LINE
  5
22C
330
1F
100
AcDbEntity
  8
0
  6
CONTINUOUS
 62
     7
100
AcDbLine
 10
170.6666
 20
-54.63081800000001
 30
0.0
 11
170.6666
 21
-55.63081800000001
 31
0.0
  0
LINE
  5
22D
330
1F
100
AcDbEntity
  8
0
  6
CONTINUOUS
 62
     7
100
AcDbLine
 10
173.873707
 20
-68.83792500000001
 30
0.0
 11
170.959493
 21
-66.42371199999998
 31
0.0
  0
LINE
  5
22E
330
1F
100
AcDbEntity
  8
0
  6
CONTINUOUS
 62
     7
100
AcDbLine
 10
68.419541
 20
-56.13081800000001
 30
0.0
 11
67.6666
 21
-56.13081800000001
 31
0.0
  0
LINE
  5
22F
330
1F
100
AcDbEntity
  8
0
  6
CONTINUOUS
 62
     7
100
AcDbLine
 10
79.1666
 20
-58.63081800000001
 30
0.0
 11
79.1666
 21
-66.13081799999999
 31
0.0
  0
LINE
  5
230
330
1F
100
AcDbEntity
  8
0
  6
CONTINUOUS
 62
     7
100
AcDbLine
 10
79.548526
 20
-54.13081800000001
 30
0.0
 11
80.6666
 21
-53.83666000000001
 31
0.0
  0
LINE
  5
231
330
1F
100
AcDbEntity
  8
0
  6
CONTINUOUS
 62
     7
100
AcDbLine
 10
79.1666
 20
-53.28033600000001
 30
0.0
 11
80.6666
 21
-53.54785800000001
 31
0.0
  0
LINE
  5
232
330
1F
100
AcDbEntity
  8
0
  6
CONTINUOUS
 62
     7
100
AcDbLine
 10
80.6666
 20
-53.83666000000001
 30
0.0
 11
79.1666
 21
-54.03033600000001
 31
0.0
  0
LINE
  5
233
330
1F
100
AcDbEntity
  8
0
  6
CONTINUOUS
 62
     7
100
AcDbLine
 10
80.6666
 20
-53.54785800000001
 30
0.0
 11
80.6666
 21
-53.83666000000001
 31
0.0
  0
LINE
  5
234
330
1F
100
AcDbEntity
  8
0
  6
CONTINUOUS
 62
     7
100
AcDbLine
 10
79.1666
 20
-53.481301
 30
0.0
 11
80.6666
 21
-53.54785800000001
 31
0.0
  0
LINE
  5
235
330
1F
100
AcDbEntity
  8
0
  6
CONTINUOUS
 62
     7
100
AcDbLine
 10
87.2666
 20
-54.13081800000001
 30
0.0
 11
87.2666
 21
-49.23490000000001
 31
0.0
  0
LINE
  5
236
330
1F
100
AcDbEntity
  8
0
  6
CONTINUOUS
 62
     7
100
AcDbLine
 10
89.366474
 20
-58.63081800000001
 30
0.0
 11
89.366474
 21
-65.352644
 31
0.0
  0
LINE
  5
237
330
1F
100
AcDbEntity
  8
0
  6
CONTINUOUS
 62
     7
100
AcDbLine
 10
88.866474
 20
-58.63081800000001
 30
0.0
 11
88.866474
 21
-65.352644
 31
0.0
  0
LINE
  5
238
330
1F
100
AcDbEntity
  8
0
  6
CONTINUOUS
 62
     7
100
AcDbLine
 10
89.153433
 20
-66.13081799999999
 30
0.0
 11
89.366474
 21
-65.352644
 31
0.0
  0
LINE
  5
239
330
1F
100
AcDbEntity
  8
0
  6
CONTINUOUS
 62
     7
100
AcDbLine
 10
89.6666
 20
-65.352644
 30
0.0
 11
89.153433
 21
-66.13081799999999
 31
0.0
  0
LINE
  5
23A
330
1F
100
AcDbEntity
  8
0
  6
CONTINUOUS
 62
     7
100
AcDbLine
 10
88.692879
 20
-66.13081799999999
 30
0.0
 11
88.866474
 21
-65.352644
 31
0.0
  0
LINE
  5
23B
330
1F
100
AcDbEntity
  8
0
  6
CONTINUOUS
 62
     7
100
AcDbLine
 10
89.366474
 20
-65.352644
 30
0.0
 11
88.692879
 21
-66.13081799999999
 31
0.0
  0
LINE
  5
23C
330
1F
100
AcDbEntity
  8
0
  6
CONTINUOUS
 62
     7
100
AcDbLine
 10
88.866474
 20
-65.352644
 30
0.0
 11
88.1666
 21
-66.13081799999999
 31
0.0
  0
LINE
  5
23D
330
1F
100
AcDbEntity
  8
0
  6
CONTINUOUS
 62
     7
100
AcDbLine
 10
88.1666
 20
-66.13081799999999
 30
0.0
 11
88.1666
 21
-58.63081800000001
 31
0.0
  0
LINE
  5
23E
330
1F
100
AcDbEntity
  8
0
  6
CONTINUOUS
 62
     7
100
AcDbLine
 10
79.6666
 20
-65.352644
 30
0.0
 11
79.1666
 21
-66.13081799999999
 31
0.0
  0
LINE
  5
23F
330
1F
100
AcDbEntity
  8
0
  6
CONTINUOUS
 62
     7
100
AcDbLine
 10
80.166275
 20
-66.13081799999999
 30
0.0
 11
79.6666
 21
-65.352644
 31
0.0
  0
LINE
  5
240
330
1F
100
AcDbEntity
  8
0
  6
CONTINUOUS
 62
     7
100
AcDbLine
 10
80.6666
 20
-65.352644
 30
0.0
 11
80.166275
 21
-66.13081799999999
 31
0.0
  0
LINE
  5
241
330
1F
100
AcDbEntity
  8
0
  6
CONTINUOUS
 62
     7
100
AcDbLine
 10
80.6666
 20
-58.63081800000001
 30
0.0
 11
80.6666
 21
-65.352644
 31
0.0
  0
LINE
  5
242
330
1F
100
AcDbEntity
  8
0
  6
CONTINUOUS
 62
     7
100
AcDbLine
 10
79.6666
 20
-58.63081800000001
 30
0.0
 11
79.6666
 21
-65.352644
 31
0.0
  0
LINE
  5
243
330
1F
100
AcDbEntity
  8
0
  6
CONTINUOUS
 62
     7
100
AcDbLine
 10
80.166275
 20
-58.63081800000001
 30
0.0
 11
80.166275
 21
-66.13081799999999
 31
0.0
  0
LINE
  5
244
330
1F
100
AcDbEntity
  8
0
  6
CONTINUOUS
 62
     7
100
AcDbLine
 10
90.06660000000001
 20
-56.13081800000001
 30
0.0
 11
89.6666
 21
-56.13081800000001
 31
0.0
  0
LINE
  5
245
330
1F
100
AcDbEntity
  8
0
  6
CONTINUOUS
 62
     7
100
AcDbLine
 10
89.6666
 20
-56.13081800000001
 30
0.0
 11
89.6666
 21
-55.63081800000001
 31
0.0
  0
LINE
  5
246
330
1F
100
AcDbEntity
  8
0
  6
CONTINUOUS
 62
     7
100
AcDbLine
 10
89.6666
 20
-55.63081800000001
 30
0.0
 11
89.6666
 21
-54.63081800000001
 31
0.0
  0
LINE
  5
247
330
1F
100
AcDbEntity
  8
0
  6
CONTINUOUS
 62
     7
100
AcDbLine
 10
87.71853300000001
 20
-54.930818
 30
0.0
 11
87.71853300000001
 21
-56.13081800000001
 31
0.0
  0
LINE
  5
248
330
1F
100
AcDbEntity
  8
0
  6
CONTINUOUS
 62
     7
100
AcDbLine
 10
88.976431
 20
-56.13081800000001
 30
0.0
 11
88.976431
 21
-54.930818
 31
0.0
  0
LINE
  5
249
330
1F
100
AcDbEntity
  8
0
  6
CONTINUOUS
 62
     7
100
AcDbLine
 10
88.67643100000001
 20
-54.63081800000001
 30
0.0
 11
88.018533
 21
-54.63081800000001
 31
0.0
  0
LINE
  5
24A
330
1F
100
AcDbEntity
  8
0
  6
CONTINUOUS
 62
     7
100
AcDbLine
 10
85.361249
 20
-56.13081800000001
 30
0.0
 11
85.361249
 21
-54.930818
 31
0.0
  0
LINE
  5
24B
330
1F
100
AcDbEntity
  8
0
  6
CONTINUOUS
 62
     7
100
AcDbLine
 10
85.061249
 20
-54.63081800000001
 30
0.0
 11
83.826711
 21
-54.63081800000001
 31
0.0
  0
LINE
  5
24C
330
1F
100
AcDbEntity
  8
0
  6
CONTINUOUS
 62
     7
100
AcDbLine
 10
83.526711
 20
-54.930818
 30
0.0
 11
83.526711
 21
-56.13081800000001
 31
0.0
  0
LINE
  5
24D
330
1F
100
AcDbEntity
  8
0
  6
CONTINUOUS
 62
     7
100
AcDbLine
 10
80.1666
 20
-56.13081800000001
 30
0.0
 11
80.1666
 21
-54.930818
 31
0.0
  0
LINE
  5
24E
330
1F
100
AcDbEntity
  8
0
  6
CONTINUOUS
 62
     7
100
AcDbLine
 10
87.256054
 20
-43.73490000000001
 30
0.0
 11
90.1666
 21
-43.73490000000001
 31
0.0
  0
LINE
  5
24F
330
1F
100
AcDbEntity
  8
0
  6
CONTINUOUS
 62
     7
100
AcDbLine
 10
88.983806
 20
-43.73490000000001
 30
0.0
 11
88.983806
 21
-48.73490000000001
 31
0.0
  0
LINE
  5
250
330
1F
100
AcDbEntity
  8
0
  6
CONTINUOUS
 62
     7
100
AcDbLine
 10
79.849394
 20
-48.73490000000001
 30
0.0
 11
79.849394
 21
-43.73490000000001
 31
0.0
  0
LINE
  5
251
330
1F
100
AcDbEntity
  8
0
  6
CONTINUOUS
 62
     7
100
AcDbLine
 10
81.577146
 20
-43.73490000000001
 30
0.0
 11
87.256054
 21
-43.73490000000001
 31
0.0
  0
LINE
  5
252
330
1F
100
AcDbEntity
  8
0
  6
CONTINUOUS
 62
     7
100
AcDbLine
 10
92.66659999999999
 20
-40.7349
 30
0.0
 11
65.6666
 21
-40.7349
 31
0.0
  0
LINE
  5
253
330
1F
100
AcDbEntity
  8
0
  6
CONTINUOUS
 62
     7
100
AcDbLine
 10
70.31660000000001
 20
-54.13081800000001
 30
0.0
 11
70.31660000000001
 21
-53.93303300000001
 31
0.0
  0
LINE
  5
254
330
1F
100
AcDbEntity
  8
0
  6
CONTINUOUS
 62
     7
100
AcDbLine
 10
76.79521700000001
 20
-54.13081800000001
 30
0.0
 11
79.1666
 21
-54.03033600000001
 31
0.0
  0
LINE
  5
255
330
1F
100
AcDbEntity
  8
0
  6
CONTINUOUS
 62
     7
100
AcDbLine
 10
70.31660000000001
 20
-53.856301
 30
0.0
 11
79.1666
 21
-53.481301
 31
0.0
  0
LINE
  5
256
330
1F
100
AcDbEntity
  8
0
  6
CONTINUOUS
 62
     7
100
AcDbLine
 10
79.1666
 20
-53.28033600000001
 30
0.0
 11
71.06660000000001
 21
-53.65533600000001
 31
0.0
  0
LINE
  5
257
330
1F
100
AcDbEntity
  8
0
  6
CONTINUOUS
 62
     7
100
AcDbLine
 10
70.390718
 20
-53.83644100000001
 30
0.0
 11
70.992482
 21
-53.67519600000001
 31
0.0
  0
LINE
  5
258
330
1F
100
AcDbEntity
  8
0
  6
CONTINUOUS
 62
     7
100
AcDbLine
 10
76.756054
 20
-43.73490000000001
 30
0.0
 11
81.577146
 21
-43.73490000000001
 31
0.0
  0
LINE
  5
259
330
1F
100
AcDbEntity
  8
0
  6
CONTINUOUS
 62
     7
100
AcDbLine
 10
68.1666
 20
-43.73490000000001
 30
0.0
 11
71.077146
 21
-43.73490000000001
 31
0.0
  0
LINE
  5
25A
330
1F
100
AcDbEntity
  8
0
  6
CONTINUOUS
 62
     7
100
AcDbLine
 10
92.66659999999999
 20
-43.23490000000001
 30
0.0
 11
92.66659999999999
 21
-40.7349
 31
0.0
  0
LINE
  5
25B
330
1F
100
AcDbEntity
  8
0
  6
CONTINUOUS
 62
     7
100
AcDbLine
 10
92.16659999999999
 20
-43.73490000000001
 30
0.0
 11
90.1666
 21
-43.73490000000001
 31
0.0
  0
LINE
  5
25C
330
1F
100
AcDbEntity
  8
0
  6
CONTINUOUS
 62
     7
100
AcDbLine
 10
89.6666
 20
-44.23490000000001
 30
0.0
 11
89.6666
 21
-48.23490000000001
 31
0.0
  0
LINE
  5
25D
330
1F
100
AcDbEntity
  8
0
  6
CONTINUOUS
 62
     7
100
AcDbLine
 10
68.6666
 20
-48.23490000000001
 30
0.0
 11
68.6666
 21
-44.23490000000001
 31
0.0
  0
LINE
  5
25E
330
1F
100
AcDbEntity
  8
0
  6
CONTINUOUS
 62
     7
100
AcDbLine
 10
87.7666
 20
-48.73490000000001
 30
0.0
 11
89.1666
 21
-48.73490000000001
 31
0.0
  0
LINE
  5
25F
330
1F
100
AcDbEntity
  8
0
  6
CONTINUOUS
 62
     7
100
AcDbLine
 10
71.077146
 20
-43.73490000000001
 30
0.0
 11
76.756054
 21
-43.73490000000001
 31
0.0
  0
LINE
  5
260
330
1F
100
AcDbEntity
  8
0
  6
CONTINUOUS
 62
     7
100
AcDbLine
 10
69.1666
 20
-48.73490000000001
 30
0.0
 11
87.766599
 21
-48.73490000000001
 31
0.0
  0
LINE
  5
261
330
1F
100
AcDbEntity
  8
0
  6
CONTINUOUS
 62
     7
100
AcDbLine
 10
71.06660000000001
 20
-49.23490000000001
 30
0.0
 11
71.06660000000001
 21
-53.57860400000001
 31
0.0
  0
LINE
  5
262
330
1F
100
AcDbEntity
  8
0
  6
CONTINUOUS
 62
     7
100
AcDbLine
 10
66.1666
 20
-43.73490000000001
 30
0.0
 11
68.1666
 21
-43.73490000000001
 31
0.0
  0
LINE
  5
263
330
1F
100
AcDbEntity
  8
0
  6
CONTINUOUS
 62
     7
100
AcDbLine
 10
65.6666
 20
-40.7349
 30
0.0
 11
65.6666
 21
-43.23490000000001
 31
0.0
  0
LINE
  5
264
330
1F
100
AcDbEntity
  8
0
  6
CONTINUOUS
 62
     7
100
AcDbLine
 10
78.483806
 20
-43.73490000000001
 30
0.0
 11
78.483806
 21
-48.73490000000001
 31
0.0
  0
LINE
  5
265
330
1F
100
AcDbEntity
  8
0
  6
CONTINUOUS
 62
     7
100
AcDbLine
 10
69.349394
 20
-48.73490000000001
 30
0.0
 11
69.349394
 21
-43.73490000000001
 31
0.0
  0
LINE
  5
266
330
1F
100
AcDbEntity
  8
0
  6
CONTINUOUS
 62
     7
100
AcDbLine
 10
69.179767
 20
-66.13081799999999
 30
0.0
 11
68.6666
 21
-65.352644
 31
0.0
  0
LINE
  5
267
330
1F
100
AcDbEntity
  8
0
  6
CONTINUOUS
 62
     7
100
AcDbLine
 10
68.96672600000001
 20
-65.352644
 30
0.0
 11
69.179767
 21
-66.13081799999999
 31
0.0
  0
LINE
  5
268
330
1F
100
AcDbEntity
  8
0
  6
CONTINUOUS
 62
     7
100
AcDbLine
 10
68.96672600000001
 20
-65.352644
 30
0.0
 11
68.96672600000001
 21
-58.63081800000001
 31
0.0
  0
LINE
  5
269
330
1F
100
AcDbEntity
  8
0
  6
CONTINUOUS
 62
     7
100
AcDbLine
 10
69.640321
 20
-66.13081799999999
 30
0.0
 11
68.96672600000001
 21
-65.352644
 31
0.0
  0
LINE
  5
26A
330
1F
100
AcDbEntity
  8
0
  6
CONTINUOUS
 62
     7
100
AcDbLine
 10
69.46672600000001
 20
-65.352644
 30
0.0
 11
69.640321
 21
-66.13081799999999
 31
0.0
  0
LINE
  5
26B
330
1F
100
AcDbEntity
  8
0
  6
CONTINUOUS
 62
     7
100
AcDbLine
 10
69.46672600000001
 20
-65.352644
 30
0.0
 11
69.46672600000001
 21
-58.63081800000001
 31
0.0
  0
LINE
  5
26C
330
1F
100
AcDbEntity
  8
0
  6
CONTINUOUS
 62
     7
100
AcDbLine
 10
70.1666
 20
-66.13081799999999
 30
0.0
 11
69.46672600000001
 21
-65.352644
 31
0.0
  0
LINE
  5
26D
330
1F
100
AcDbEntity
  8
0
  6
CONTINUOUS
 62
     7
100
AcDbLine
 10
70.1666
 20
-58.63081800000001
 30
0.0
 11
70.1666
 21
-66.13081799999999
 31
0.0
  0
LINE
  5
26E
330
1F
100
AcDbEntity
  8
0
  6
CONTINUOUS
 62
     7
100
AcDbLine
 10
78.166925
 20
-66.13081799999999
 30
0.0
 11
78.166925
 21
-58.63081800000001
 31
0.0
  0
LINE
  5
26F
330
1F
100
AcDbEntity
  8
0
  6
CONTINUOUS
 62
     7
100
AcDbLine
 10
78.6666
 20
-65.352644
 30
0.0
 11
78.6666
 21
-58.63081800000001
 31
0.0
  0
LINE
  5
270
330
1F
100
AcDbEntity
  8
0
  6
CONTINUOUS
 62
     7
100
AcDbLine
 10
77.6666
 20
-65.352644
 30
0.0
 11
77.6666
 21
-58.63081800000001
 31
0.0
  0
LINE
  5
271
330
1F
100
AcDbEntity
  8
0
  6
CONTINUOUS
 62
     7
100
AcDbLine
 10
78.166925
 20
-66.13081799999999
 30
0.0
 11
77.6666
 21
-65.352644
 31
0.0
  0
LINE
  5
272
330
1F
100
AcDbEntity
  8
0
  6
CONTINUOUS
 62
     7
100
AcDbLine
 10
78.6666
 20
-65.352644
 30
0.0
 11
78.166925
 21
-66.13081799999999
 31
0.0
  0
LINE
  5
273
330
1F
100
AcDbEntity
  8
0
  6
CONTINUOUS
 62
     7
100
AcDbLine
 10
79.1666
 20
-66.13081799999999
 30
0.0
 11
78.6666
 21
-65.352644
 31
0.0
  0
LINE
  5
274
330
1F
100
AcDbEntity
  8
0
  6
CONTINUOUS
 62
     7
100
AcDbLine
 10
68.34793
 20
-54.91086300000001
 30
0.0
 11
68.2666
 21
-56.13081800000001
 31
0.0
  0
LINE
  5
275
330
1F
100
AcDbEntity
  8
0
  6
CONTINUOUS
 62
     7
100
AcDbLine
 10
68.6666
 20
-54.63081800000001
 30
0.0
 11
68.647266
 21
-54.63081800000001
 31
0.0
  0
LINE
  5
276
330
1F
100
AcDbEntity
  8
0
  6
CONTINUOUS
 62
     7
100
AcDbLine
 10
89.685934
 20
-54.63081800000001
 30
0.0
 11
89.6666
 21
-54.63081800000001
 31
0.0
  0
LINE
  5
277
330
1F
100
AcDbEntity
  8
0
  6
CONTINUOUS
 62
     7
100
AcDbLine
 10
90.06660000000001
 20
-56.13081800000001
 30
0.0
 11
90.66659999999999
 21
-56.13081800000001
 31
0.0
  0
LINE
  5
278
330
1F
100
AcDbEntity
  8
0
  6
CONTINUOUS
 62
     7
100
AcDbLine
 10
90.06660000000001
 20
-56.13081800000001
 30
0.0
 11
89.98527
 21
-54.91086300000001
 31
0.0
  0
LINE
  5
279
330
1F
100
AcDbEntity
  8
0
  6
CONTINUOUS
 62
     7
100
AcDbLine
 10
68.6666
 20
-65.716605
 30
0.0
 11
68.6666
 21
-58.83081800000001
 31
0.0
  0
LINE
  5
27A
330
1F
100
AcDbEntity
  8
0
  6
CONTINUOUS
 62
     7
100
AcDbLine
 10
89.1666
 20
-54.13081800000001
 30
0.0
 11
69.1666
 21
-54.13081800000001
 31
0.0
  0
LINE
  5
27B
330
1F
100
AcDbEntity
  8
0
  6
CONTINUOUS
 62
     7
100
AcDbLine
 10
68.6666
 20
-55.63081800000001
 30
0.0
 11
68.6666
 21
-56.13081800000001
 31
0.0
  0
LINE
  5
27C
330
1F
100
AcDbEntity
  8
0
  6
CONTINUOUS
 62
     7
100
AcDbLine
 10
79.8666
 20
-54.63081800000001
 30
0.0
 11
78.4666
 21
-54.63081800000001
 31
0.0
  0
LINE
  5
27D
330
1F
100
AcDbEntity
  8
0
  6
CONTINUOUS
 62
     7
100
AcDbLine
 10
70.614667
 20
-56.13081800000001
 30
0.0
 11
70.614667
 21
-54.930818
 31
0.0
  0
LINE
  5
27E
330
1F
100
AcDbEntity
  8
0
  6
CONTINUOUS
 62
     7
100
AcDbLine
 10
70.314667
 20
-54.63081800000001
 30
0.0
 11
69.656769
 21
-54.63081800000001
 31
0.0
  0
LINE
  5
27F
330
1F
100
AcDbEntity
  8
0
  6
CONTINUOUS
 62
     7
100
AcDbLine
 10
69.356769
 20
-54.930818
 30
0.0
 11
69.356769
 21
-56.13081800000001
 31
0.0
  0
LINE
  5
280
330
1F
100
AcDbEntity
  8
0
  6
CONTINUOUS
 62
     7
100
AcDbLine
 10
74.806489
 20
-56.13081800000001
 30
0.0
 11
74.806489
 21
-54.930818
 31
0.0
  0
LINE
  5
281
330
1F
100
AcDbEntity
  8
0
  6
CONTINUOUS
 62
     7
100
AcDbLine
 10
74.506489
 20
-54.63081800000001
 30
0.0
 11
73.271951
 21
-54.63081800000001
 31
0.0
  0
LINE
  5
282
330
1F
100
AcDbEntity
  8
0
  6
CONTINUOUS
 62
     7
100
AcDbLine
 10
72.971951
 20
-54.930818
 30
0.0
 11
72.971951
 21
-56.13081800000001
 31
0.0
  0
LINE
  5
283
330
1F
100
AcDbEntity
  8
0
  6
CONTINUOUS
 62
     7
100
AcDbLine
 10
78.1666
 20
-54.930818
 30
0.0
 11
78.1666
 21
-56.13081800000001
 31
0.0
  0
LINE
  5
284
330
1F
100
AcDbEntity
  8
0
  6
CONTINUOUS
 62
     7
100
AcDbLine
 10
68.419541
 20
-56.13081800000001
 30
0.0
 11
89.6666
 21
-56.13081800000001
 31
0.0
  0
LINE
  5
285
330
1F
100
AcDbEntity
  8
0
  6
CONTINUOUS
 62
     7
100
AcDbLine
 10
67.6666
 20
-56.13081800000001
 30
0.0
 11
67.6666
 21
-58.430818
 31
0.0
  0
LINE
  5
286
330
1F
100
AcDbEntity
  8
0
  6
CONTINUOUS
 62
     7
100
AcDbLine
 10
90.66659999999999
 20
-56.13081800000001
 30
0.0
 11
90.66659999999999
 21
-58.430818
 31
0.0
  0
LINE
  5
287
330
1F
100
AcDbEntity
  8
0
  6
CONTINUOUS
 62
     7
100
AcDbLine
 10
90.4666
 20
-58.63081800000001
 30
0.0
 11
67.8666
 21
-58.63081800000001
 31
0.0
  0
LINE
  5
288
330
1F
100
AcDbEntity
  8
0
  6
CONTINUOUS
 62
     7
100
AcDbLine
 10
89.6666
 20
-58.83081800000001
 30
0.0
 11
89.6666
 21
-65.716605
 31
0.0
  0
LINE
  5
289
330
1F
100
AcDbEntity
  8
0
  6
CONTINUOUS
 62
     7
100
AcDbLine
 10
89.373707
 20
-66.42371199999998
 30
0.0
 11
86.459493
 21
-68.83792500000001
 31
0.0
  0
LINE
  5
28A
330
1F
100
AcDbEntity
  8
0
  6
CONTINUOUS
 62
     7
100
AcDbLine
 10
85.752386
 20
-69.13081799999999
 30
0.0
 11
72.580814
 21
-69.13081799999999
 31
0.0
  0
LINE
  5
28B
330
1F
100
AcDbEntity
  8
0
  6
CONTINUOUS
 62
     7
100
AcDbLine
 10
68.6666
 20
-54.63081800000001
 30
0.0
 11
68.6666
 21
-55.63081800000001
 31
0.0
  0
LINE
  5
28C
330
1F
100
AcDbEntity
  8
0
  6
CONTINUOUS
 62
     7
100
AcDbLine
 10
71.873707
 20
-68.83792500000001
 30
0.0
 11
68.959493
 21
-66.42371199999998
 31
0.0
  0
LINE
  5
28D
330
1F
100
AcDbEntity
  8
0
  6
CONTINUOUS
 62
     7
100
AcDbLine
 10
34.419541
 20
-56.13081800000001
 30
0.0
 11
33.6666
 21
-56.13081800000001
 31
0.0
  0
LINE
  5
28E
330
1F
100
AcDbEntity
  8
0
  6
CONTINUOUS
 62
     7
100
AcDbLine
 10
45.1666
 20
-58.63081800000001
 30
0.0
 11
45.1666
 21
-66.13081799999999
 31
0.0
  0
LINE
  5
28F
330
1F
100
AcDbEntity
  8
0
  6
CONTINUOUS
 62
     7
100
AcDbLine
 10
45.548526
 20
-54.13081800000001
 30
0.0
 11
46.6666
 21
-53.83666000000001
 31
0.0
  0
LINE
  5
290
330
1F
100
AcDbEntity
  8
0
  6
CONTINUOUS
 62
     7
100
AcDbLine
 10
45.1666
 20
-53.28033600000001
 30
0.0
 11
46.6666
 21
-53.54785800000001
 31
0.0
  0
LINE
  5
291
330
1F
100
AcDbEntity
  8
0
  6
CONTINUOUS
 62
     7
100
AcDbLine
 10
46.6666
 20
-53.83666000000001
 30
0.0
 11
45.1666
 21
-54.03033600000001
 31
0.0
  0
LINE
  5
292
330
1F
100
AcDbEntity
  8
0
  6
CONTINUOUS
 62
     7
100
AcDbLine
 10
46.6666
 20
-53.54785800000001
 30
0.0
 11
46.6666
 21
-53.83666000000001
 31
0.0
  0
LINE
  5
293
330
1F
100
AcDbEntity
  8
0
  6
CONTINUOUS
 62
     7
100
AcDbLine
 10
45.1666
 20
-53.481301
 30
0.0
 11
46.6666
 21
-53.54785800000001
 31
0.0
  0
LINE
  5
294
330
1F
100
AcDbEntity
  8
0
  6
CONTINUOUS
 62
     7
100
AcDbLine
 10
53.2666
 20
-54.13081800000001
 30
0.0
 11
53.2666
 21
-49.23490000000001
 31
0.0
  0
LINE
  5
295
330
1F
100
AcDbEntity
  8
0
  6
CONTINUOUS
 62
     7
100
AcDbLine
 10
55.366474
 20
-58.63081800000001
 30
0.0
 11
55.366474
 21
-65.352644
 31
0.0
  0
LINE
  5
296
330
1F
100
AcDbEntity
  8
0
  6
CONTINUOUS
 62
     7
100
AcDbLine
 10
54.866474
 20
-58.63081800000001
 30
0.0
 11
54.866474
 21
-65.352644
 31
0.0
  0
LINE
  5
297
330
1F
100
AcDbEntity
  8
0
  6
CONTINUOUS
 62
     7
100
AcDbLine
 10
55.15343300000001
 20
-66.13081799999999
 30
0.0
 11
55.366474
 21
-65.352644
 31
0.0
  0
LINE
  5
298
330
1F
100
AcDbEntity
  8
0
  6
CONTINUOUS
 62
     7
100
AcDbLine
 10
55.6666
 20
-65.352644
 30
0.0
 11
55.15343300000001
 21
-66.13081799999999
 31
0.0
  0
LINE
  5
299
330
1F
100
AcDbEntity
  8
0
  6
CONTINUOUS
 62
     7
100
AcDbLine
 10
54.69287900000001
 20
-66.13081799999999
 30
0.0
 11
54.866474
 21
-65.352644
 31
0.0
  0
LINE
  5
29A
330
1F
100
AcDbEntity
  8
0
  6
CONTINUOUS
 62
     7
100
AcDbLine
 10
55.366474
 20
-65.352644
 30
0.0
 11
54.69287900000001
 21
-66.13081799999999
 31
0.0
  0
LINE
  5
29B
330
1F
100
AcDbEntity
  8
0
  6
CONTINUOUS
 62
     7
100
AcDbLine
 10
54.866474
 20
-65.352644
 30
0.0
 11
54.1666
 21
-66.13081799999999
 31
0.0
  0
LINE
  5
29C
330
1F
100
AcDbEntity
  8
0
  6
CONTINUOUS
 62
     7
100
AcDbLine
 10
54.1666
 20
-66.13081799999999
 30
0.0
 11
54.1666
 21
-58.63081800000001
 31
0.0
  0
LINE
  5
29D
330
1F
100
AcDbEntity
  8
0
  6
CONTINUOUS
 62
     7
100
AcDbLine
 10
45.6666
 20
-65.352644
 30
0.0
 11
45.1666
 21
-66.13081799999999
 31
0.0
  0
LINE
  5
29E
330
1F
100
AcDbEntity
  8
0
  6
CONTINUOUS
 62
     7
100
AcDbLine
 10
46.166275
 20
-66.13081799999999
 30
0.0
 11
45.6666
 21
-65.352644
 31
0.0
  0
LINE
  5
29F
330
1F
100
AcDbEntity
  8
0
  6
CONTINUOUS
 62
     7
100
AcDbLine
 10
46.6666
 20
-65.352644
 30
0.0
 11
46.166275
 21
-66.13081799999999
 31
0.0
  0
LINE
  5
2A0
330
1F
100
AcDbEntity
  8
0
  6
CONTINUOUS
 62
     7
100
AcDbLine
 10
46.6666
 20
-58.63081800000001
 30
0.0
 11
46.6666
 21
-65.352644
 31
0.0
  0
LINE
  5
2A1
330
1F
100
AcDbEntity
  8
0
  6
CONTINUOUS
 62
     7
100
AcDbLine
 10
45.6666
 20
-58.63081800000001
 30
0.0
 11
45.6666
 21
-65.352644
 31
0.0
  0
LINE
  5
2A2
330
1F
100
AcDbEntity
  8
0
  6
CONTINUOUS
 62
     7
100
AcDbLine
 10
46.166275
 20
-58.63081800000001
 30
0.0
 11
46.166275
 21
-66.13081799999999
 31
0.0
  0
LINE
  5
2A3
330
1F
100
AcDbEntity
  8
0
  6
CONTINUOUS
 62
     7
100
AcDbLine
 10
56.06660000000001
 20
-56.13081800000001
 30
0.0
 11
55.6666
 21
-56.13081800000001
 31
0.0
  0
LINE
  5
2A4
330
1F
100
AcDbEntity
  8
0
  6
CONTINUOUS
 62
     7
100
AcDbLine
 10
55.6666
 20
-56.13081800000001
 30
0.0
 11
55.6666
 21
-55.63081800000001
 31
0.0
  0
LINE
  5
2A5
330
1F
100
AcDbEntity
  8
0
  6
CONTINUOUS
 62
     7
100
AcDbLine
 10
55.6666
 20
-55.63081800000001
 30
0.0
 11
55.6666
 21
-54.63081800000001
 31
0.0
  0
LINE
  5
2A6
330
1F
100
AcDbEntity
  8
0
  6
CONTINUOUS
 62
     7
100
AcDbLine
 10
53.71853300000001
 20
-54.930818
 30
0.0
 11
53.71853300000001
 21
-56.13081800000001
 31
0.0
  0
LINE
  5
2A7
330
1F
100
AcDbEntity
  8
0
  6
CONTINUOUS
 62
     7
100
AcDbLine
 10
54.97643100000001
 20
-56.13081800000001
 30
0.0
 11
54.97643100000001
 21
-54.930818
 31
0.0
  0
LINE
  5
2A8
330
1F
100
AcDbEntity
  8
0
  6
CONTINUOUS
 62
     7
100
AcDbLine
 10
54.67643100000001
 20
-54.63081800000001
 30
0.0
 11
54.01853300000001
 21
-54.63081800000001
 31
0.0
  0
LINE
  5
2A9
330
1F
100
AcDbEntity
  8
0
  6
CONTINUOUS
 62
     7
100
AcDbLine
 10
51.361249
 20
-56.13081800000001
 30
0.0
 11
51.361249
 21
-54.930818
 31
0.0
  0
LINE
  5
2AA
330
1F
100
AcDbEntity
  8
0
  6
CONTINUOUS
 62
     7
100
AcDbLine
 10
51.061249
 20
-54.63081800000001
 30
0.0
 11
49.826711
 21
-54.63081800000001
 31
0.0
  0
LINE
  5
2AB
330
1F
100
AcDbEntity
  8
0
  6
CONTINUOUS
 62
     7
100
AcDbLine
 10
49.52671100000001
 20
-54.930818
 30
0.0
 11
49.52671100000001
 21
-56.13081800000001
 31
0.0
  0
LINE
  5
2AC
330
1F
100
AcDbEntity
  8
0
  6
CONTINUOUS
 62
     7
100
AcDbLine
 10
46.1666
 20
-56.13081800000001
 30
0.0
 11
46.1666
 21
-54.930818
 31
0.0
  0
LINE
  5
2AD
330
1F
100
AcDbEntity
  8
0
  6
CONTINUOUS
 62
     7
100
AcDbLine
 10
53.25605400000001
 20
-43.73490000000001
 30
0.0
 11
56.1666
 21
-43.73490000000001
 31
0.0
  0
LINE
  5
2AE
330
1F
100
AcDbEntity
  8
0
  6
CONTINUOUS
 62
     7
100
AcDbLine
 10
54.983806
 20
-43.73490000000001
 30
0.0
 11
54.983806
 21
-48.73490000000001
 31
0.0
  0
LINE
  5
2AF
330
1F
100
AcDbEntity
  8
0
  6
CONTINUOUS
 62
     7
100
AcDbLine
 10
45.849394
 20
-48.73490000000001
 30
0.0
 11
45.849394
 21
-43.73490000000001
 31
0.0
  0
LINE
  5
2B0
330
1F
100
AcDbEntity
  8
0
  6
CONTINUOUS
 62
     7
100
AcDbLine
 10
47.577146
 20
-43.73490000000001
 30
0.0
 11
53.25605400000001
 21
-43.73490000000001
 31
0.0
  0
LINE
  5
2B1
330
1F
100
AcDbEntity
  8
0
  6
CONTINUOUS
 62
     7
100
AcDbLine
 10
58.66659999999999
 20
-40.7349
 30
0.0
 11
31.6666
 21
-40.7349
 31
0.0
  0
LINE
  5
2B2
330
1F
100
AcDbEntity
  8
0
  6
CONTINUOUS
 62
     7
100
AcDbLine
 10
36.31660000000001
 20
-54.13081800000001
 30
0.0
 11
36.31660000000001
 21
-53.93303300000001
 31
0.0
  0
LINE
  5
2B3
330
1F
100
AcDbEntity
  8
0
  6
CONTINUOUS
 62
     7
100
AcDbLine
 10
42.79521700000001
 20
-54.13081800000001
 30
0.0
 11
45.1666
 21
-54.03033600000001
 31
0.0
  0
LINE
  5
2B4
330
1F
100
AcDbEntity
  8
0
  6
CONTINUOUS
 62
     7
100
AcDbLine
 10
36.31660000000001
 20
-53.856301
 30
0.0
 11
45.1666
 21
-53.481301
 31
0.0
  0
LINE
  5
2B5
330
1F
100
AcDbEntity
  8
0
  6
CONTINUOUS
 62
     7
100
AcDbLine
 10
45.1666
 20
-53.28033600000001
 30
0.0
 11
37.06660000000001
 21
-53.65533600000001
 31
0.0
  0
LINE
  5
2B6
330
1F
100
AcDbEntity
  8
0
  6
CONTINUOUS
 62
     7
100
AcDbLine
 10
36.39071800000001
 20
-53.83644100000001
 30
0.0
 11
36.992482
 21
-53.67519600000001
 31
0.0
  0
LINE
  5
2B7
330
1F
100
AcDbEntity
  8
0
  6
CONTINUOUS
 62
     7
100
AcDbLine
 10
42.75605400000001
 20
-43.73490000000001
 30
0.0
 11
47.577146
 21
-43.73490000000001
 31
0.0
  0
LINE
  5
2B8
330
1F
100
AcDbEntity
  8
0
  6
CONTINUOUS
 62
     7
100
AcDbLine
 10
34.1666
 20
-43.73490000000001
 30
0.0
 11
37.077146
 21
-43.73490000000001
 31
0.0
  0
LINE
  5
2B9
330
1F
100
AcDbEntity
  8
0
  6
CONTINUOUS
 62
     7
100
AcDbLine
 10
58.66659999999999
 20
-43.23490000000001
 30
0.0
 11
58.66659999999999
 21
-40.7349
 31
0.0
  0
LINE
  5
2BA
330
1F
100
AcDbEntity
  8
0
  6
CONTINUOUS
 62
     7
100
AcDbLine
 10
58.16659999999999
 20
-43.73490000000001
 30
0.0
 11
56.1666
 21
-43.73490000000001
 31
0.0
  0
LINE
  5
2BB
330
1F
100
AcDbEntity
  8
0
  6
CONTINUOUS
 62
     7
100
AcDbLine
 10
55.6666
 20
-44.23490000000001
 30
0.0
 11
55.6666
 21
-48.23490000000001
 31
0.0
  0
LINE
  5
2BC
330
1F
100
AcDbEntity
  8
0
  6
CONTINUOUS
 62
     7
100
AcDbLine
 10
34.6666
 20
-48.23490000000001
 30
0.0
 11
34.6666
 21
-44.23490000000001
 31
0.0
  0
LINE
  5
2BD
330
1F
100
AcDbEntity
  8
0
  6
CONTINUOUS
 62
     7
100
AcDbLine
 10
53.7666
 20
-48.73490000000001
 30
0.0
 11
55.1666
 21
-48.73490000000001
 31
0.0
  0
LINE
  5
2BE
330
1F
100
AcDbEntity
  8
0
  6
CONTINUOUS
 62
     7
100
AcDbLine
 10
37.077146
 20
-43.73490000000001
 30
0.0
 11
42.75605400000001
 21
-43.73490000000001
 31
0.0
  0
LINE
  5
2BF
330
1F
100
AcDbEntity
  8
0
  6
CONTINUOUS
 62
     7
100
AcDbLine
 10
35.1666
 20
-48.73490000000001
 30
0.0
 11
53.766599
 21
-48.73490000000001
 31
0.0
  0
LINE
  5
2C0
330
1F
100
AcDbEntity
  8
0
  6
CONTINUOUS
 62
     7
100
AcDbLine
 10
37.06660000000001
 20
-49.23490000000001
 30
0.0
 11
37.06660000000001
 21
-53.57860400000001
 31
0.0
  0
LINE
  5
2C1
330
1F
100
AcDbEntity
  8
0
  6
CONTINUOUS
 62
     7
100
AcDbLine
 10
32.1666
 20
-43.73490000000001
 30
0.0
 11
34.1666
 21
-43.73490000000001
 31
0.0
  0
LINE
  5
2C2
330
1F
100
AcDbEntity
  8
0
  6
CONTINUOUS
 62
     7
100
AcDbLine
 10
31.6666
 20
-40.7349
 30
0.0
 11
31.6666
 21
-43.23490000000001
 31
0.0
  0
LINE
  5
2C3
330
1F
100
AcDbEntity
  8
0
  6
CONTINUOUS
 62
     7
100
AcDbLine
 10
44.483806
 20
-43.73490000000001
 30
0.0
 11
44.483806
 21
-48.73490000000001
 31
0.0
  0
LINE
  5
2C4
330
1F
100
AcDbEntity
  8
0
  6
CONTINUOUS
 62
     7
100
AcDbLine
 10
35.349394
 20
-48.73490000000001
 30
0.0
 11
35.349394
 21
-43.73490000000001
 31
0.0
  0
LINE
  5
2C5
330
1F
100
AcDbEntity
  8
0
  6
CONTINUOUS
 62
     7
100
AcDbLine
 10
35.179767
 20
-66.13081799999999
 30
0.0
 11
34.6666
 21
-65.352644
 31
0.0
  0
LINE
  5
2C6
330
1F
100
AcDbEntity
  8
0
  6
CONTINUOUS
 62
     7
100
AcDbLine
 10
34.96672600000001
 20
-65.352644
 30
0.0
 11
35.179767
 21
-66.13081799999999
 31
0.0
  0
LINE
  5
2C7
330
1F
100
AcDbEntity
  8
0
  6
CONTINUOUS
 62
     7
100
AcDbLine
 10
34.96672600000001
 20
-65.352644
 30
0.0
 11
34.96672600000001
 21
-58.63081800000001
 31
0.0
  0
LINE
  5
2C8
330
1F
100
AcDbEntity
  8
0
  6
CONTINUOUS
 62
     7
100
AcDbLine
 10
35.640321
 20
-66.13081799999999
 30
0.0
 11
34.96672600000001
 21
-65.352644
 31
0.0
  0
LINE
  5
2C9
330
1F
100
AcDbEntity
  8
0
  6
CONTINUOUS
 62
     7
100
AcDbLine
 10
35.46672600000001
 20
-65.352644
 30
0.0
 11
35.640321
 21
-66.13081799999999
 31
0.0
  0
LINE
  5
2CA
330
1F
100
AcDbEntity
  8
0
  6
CONTINUOUS
 62
     7
100
AcDbLine
 10
35.46672600000001
 20
-65.352644
 30
0.0
 11
35.46672600000001
 21
-58.63081800000001
 31
0.0
  0
LINE
  5
2CB
330
1F
100
AcDbEntity
  8
0
  6
CONTINUOUS
 62
     7
100
AcDbLine
 10
36.1666
 20
-66.13081799999999
 30
0.0
 11
35.46672600000001
 21
-65.352644
 31
0.0
  0
LINE
  5
2CC
330
1F
100
AcDbEntity
  8
0
  6
CONTINUOUS
 62
     7
100
AcDbLine
 10
36.1666
 20
-58.63081800000001
 30
0.0
 11
36.1666
 21
-66.13081799999999
 31
0.0
  0
LINE
  5
2CD
330
1F
100
AcDbEntity
  8
0
  6
CONTINUOUS
 62
     7
100
AcDbLine
 10
44.16692500000001
 20
-66.13081799999999
 30
0.0
 11
44.16692500000001
 21
-58.63081800000001
 31
0.0
  0
LINE
  5
2CE
330
1F
100
AcDbEntity
  8
0
  6
CONTINUOUS
 62
     7
100
AcDbLine
 10
44.6666
 20
-65.352644
 30
0.0
 11
44.6666
 21
-58.63081800000001
 31
0.0
  0
LINE
  5
2CF
330
1F
100
AcDbEntity
  8
0
  6
CONTINUOUS
 62
     7
100
AcDbLine
 10
43.6666
 20
-65.352644
 30
0.0
 11
43.6666
 21
-58.63081800000001
 31
0.0
  0
LINE
  5
2D0
330
1F
100
AcDbEntity
  8
0
  6
CONTINUOUS
 62
     7
100
AcDbLine
 10
44.16692500000001
 20
-66.13081799999999
 30
0.0
 11
43.6666
 21
-65.352644
 31
0.0
  0
LINE
  5
2D1
330
1F
100
AcDbEntity
  8
0
  6
CONTINUOUS
 62
     7
100
AcDbLine
 10
44.6666
 20
-65.352644
 30
0.0
 11
44.16692500000001
 21
-66.13081799999999
 31
0.0
  0
LINE
  5
2D2
330
1F
100
AcDbEntity
  8
0
  6
CONTINUOUS
 62
     7
100
AcDbLine
 10
45.1666
 20
-66.13081799999999
 30
0.0
 11
44.6666
 21
-65.352644
 31
0.0
  0
LINE
  5
2D3
330
1F
100
AcDbEntity
  8
0
  6
CONTINUOUS
 62
     7
100
AcDbLine
 10
34.34793000000001
 20
-54.91086300000001
 30
0.0
 11
34.2666
 21
-56.13081800000001
 31
0.0
  0
LINE
  5
2D4
330
1F
100
AcDbEntity
  8
0
  6
CONTINUOUS
 62
     7
100
AcDbLine
 10
34.6666
 20
-54.63081800000001
 30
0.0
 11
34.647266
 21
-54.63081800000001
 31
0.0
  0
LINE
  5
2D5
330
1F
100
AcDbEntity
  8
0
  6
CONTINUOUS
 62
     7
100
AcDbLine
 10
55.685934
 20
-54.63081800000001
 30
0.0
 11
55.6666
 21
-54.63081800000001
 31
0.0
  0
LINE
  5
2D6
330
1F
100
AcDbEntity
  8
0
  6
CONTINUOUS
 62
     7
100
AcDbLine
 10
56.06660000000001
 20
-56.13081800000001
 30
0.0
 11
56.66659999999999
 21
-56.13081800000001
 31
0.0
  0
LINE
  5
2D7
330
1F
100
AcDbEntity
  8
0
  6
CONTINUOUS
 62
     7
100
AcDbLine
 10
56.06660000000001
 20
-56.13081800000001
 30
0.0
 11
55.98527
 21
-54.91086300000001
 31
0.0
  0
LINE
  5
2D8
330
1F
100
AcDbEntity
  8
0
  6
CONTINUOUS
 62
     7
100
AcDbLine
 10
34.6666
 20
-65.716605
 30
0.0
 11
34.6666
 21
-58.83081800000001
 31
0.0
  0
LINE
  5
2D9
330
1F
100
AcDbEntity
  8
0
  6
CONTINUOUS
 62
     7
100
AcDbLine
 10
55.1666
 20
-54.13081800000001
 30
0.0
 11
35.1666
 21
-54.13081800000001
 31
0.0
  0
LINE
  5
2DA
330
1F
100
AcDbEntity
  8
0
  6
CONTINUOUS
 62
     7
100
AcDbLine
 10
34.6666
 20
-55.63081800000001
 30
0.0
 11
34.6666
 21
-56.13081800000001
 31
0.0
  0
LINE
  5
2DB
330
1F
100
AcDbEntity
  8
0
  6
CONTINUOUS
 62
     7
100
AcDbLine
 10
45.86660000000001
 20
-54.63081800000001
 30
0.0
 11
44.4666
 21
-54.63081800000001
 31
0.0
  0
LINE
  5
2DC
330
1F
100
AcDbEntity
  8
0
  6
CONTINUOUS
 62
     7
100
AcDbLine
 10
36.614667
 20
-56.13081800000001
 30
0.0
 11
36.614667
 21
-54.930818
 31
0.0
  0
LINE
  5
2DD
330
1F
100
AcDbEntity
  8
0
  6
CONTINUOUS
 62
     7
100
AcDbLine
 10
36.314667
 20
-54.63081800000001
 30
0.0
 11
35.656769
 21
-54.63081800000001
 31
0.0
  0
LINE
  5
2DE
330
1F
100
AcDbEntity
  8
0
  6
CONTINUOUS
 62
     7
100
AcDbLine
 10
35.356769
 20
-54.930818
 30
0.0
 11
35.356769
 21
-56.13081800000001
 31
0.0
  0
LINE
  5
2DF
330
1F
100
AcDbEntity
  8
0
  6
CONTINUOUS
 62
     7
100
AcDbLine
 10
40.806489
 20
-56.13081800000001
 30
0.0
 11
40.806489
 21
-54.930818
 31
0.0
  0
LINE
  5
2E0
330
1F
100
AcDbEntity
  8
0
  6
CONTINUOUS
 62
     7
100
AcDbLine
 10
40.506489
 20
-54.63081800000001
 30
0.0
 11
39.271951
 21
-54.63081800000001
 31
0.0
  0
LINE
  5
2E1
330
1F
100
AcDbEntity
  8
0
  6
CONTINUOUS
 62
     7
100
AcDbLine
 10
38.971951
 20
-54.930818
 30
0.0
 11
38.971951
 21
-56.13081800000001
 31
0.0
  0
LINE
  5
2E2
330
1F
100
AcDbEntity
  8
0
  6
CONTINUOUS
 62
     7
100
AcDbLine
 10
44.1666
 20
-54.930818
 30
0.0
 11
44.1666
 21
-56.13081800000001
 31
0.0
  0
LINE
  5
2E3
330
1F
100
AcDbEntity
  8
0
  6
CONTINUOUS
 62
     7
100
AcDbLine
 10
34.419541
 20
-56.13081800000001
 30
0.0
 11
55.6666
 21
-56.13081800000001
 31
0.0
  0
LINE
  5
2E4
330
1F
100
AcDbEntity
  8
0
  6
CONTINUOUS
 62
     7
100
AcDbLine
 10
33.6666
 20
-56.13081800000001
 30
0.0
 11
33.6666
 21
-58.430818
 31
0.0
  0
LINE
  5
2E5
330
1F
100
AcDbEntity
  8
0
  6
CONTINUOUS
 62
     7
100
AcDbLine
 10
56.66659999999999
 20
-56.13081800000001
 30
0.0
 11
56.66659999999999
 21
-58.430818
 31
0.0
  0
LINE
  5
2E6
330
1F
100
AcDbEntity
  8
0
  6
CONTINUOUS
 62
     7
100
AcDbLine
 10
56.4666
 20
-58.63081800000001
 30
0.0
 11
33.86660000000001
 21
-58.63081800000001
 31
0.0
  0
LINE
  5
2E7
330
1F
100
AcDbEntity
  8
0
  6
CONTINUOUS
 62
     7
100
AcDbLine
 10
55.6666
 20
-58.83081800000001
 30
0.0
 11
55.6666
 21
-65.716605
 31
0.0
  0
LINE
  5
2E8
330
1F
100
AcDbEntity
  8
0
  6
CONTINUOUS
 62
     7
100
AcDbLine
 10
55.373707
 20
-66.42371199999998
 30
0.0
 11
52.459493
 21
-68.83792500000001
 31
0.0
  0
LINE
  5
2E9
330
1F
100
AcDbEntity
  8
0
  6
CONTINUOUS
 62
     7
100
AcDbLine
 10
51.752386
 20
-69.13081799999999
 30
0.0
 11
38.580814
 21
-69.13081799999999
 31
0.0
  0
LINE
  5
2EA
330
1F
100
AcDbEntity
  8
0
  6
CONTINUOUS
 62
     7
100
AcDbLine
 10
34.6666
 20
-54.63081800000001
 30
0.0
 11
34.6666
 21
-55.63081800000001
 31
0.0
  0
LINE
  5
2EB
330
1F
100
AcDbEntity
  8
0
  6
CONTINUOUS
 62
     7
100
AcDbLine
 10
37.873707
 20
-68.83792500000001
 30
0.0
 11
34.959493
 21
-66.42371199999998
 31
0.0
  0
LINE
  5
2EC
330
1F
100
AcDbEntity
  8
一般
  6
CONTINUOUS
 62
     7
100
AcDbLine
 10
128.92745
 20
238.8109
 30
0.0
 11
100.92745
 21
238.8109
 31
0.0
  0
LINE
  5
2ED
330
1F
100
AcDbEntity
  8
一般
  6
CONTINUOUS
 62
     7
100
AcDbLine
 10
51.19555
 20
240.8108
 30
0.0
 11
82.69555
 21
240.8108
 31
0.0
  0
LINE
  5
2EE
330
1F
100
AcDbEntity
  8
一般
  6
CONTINUOUS
 62
     7
100
AcDbLine
 10
143.69555
 20
240.8108
 30
0.0
 11
191.55945
 21
240.8108
 31
0.0
  0
LINE
  5
2EF
330
1F
100
AcDbEntity
  8
一般
  6
CONTINUOUS
 62
     7
100
AcDbLine
 10
164.19555
 20
238.8108
 30
0.0
 11
192.57175
 21
238.8108
 31
0.0
  0
LINE
  5
2F0
330
1F
100
AcDbEntity
  8
一般
  6
CONTINUOUS
 62
     7
100
AcDbLine
 10
194.84615
 20
245.3108
 30
0.0
 11
194.84615
 21
241.311
 31
0.0
  0
LINE
  5
2F1
330
1F
100
AcDbEntity
  8
一般
  6
CONTINUOUS
 62
     7
100
AcDbLine
 10
192.84615
 20
245.3108
 30
0.0
 11
192.84615
 21
241.3108
 31
0.0
  0
LINE
  5
2F2
330
1F
100
AcDbEntity
  8
一般
  6
CONTINUOUS
 62
     7
100
AcDbLine
 10
191.34615
 20
240.8108
 30
0.0
 11
192.34615
 21
240.8108
 31
0.0
  0
LINE
  5
2F3
330
1F
100
AcDbEntity
  8
一般
  6
CONTINUOUS
 62
     7
100
AcDbLine
 10
192.34615
 20
238.811
 30
0.0
 11
181.48225
 21
238.811
 31
0.0
  0
LINE
  5
2F4
330
1F
100
AcDbEntity
  8
一般
  6
CONTINUOUS
 62
     7
100
AcDbLine
 10
193.46425
 20
238.8109
 30
0.0
 11
181.46425
 21
238.8109
 31
0.0
  0
LINE
  5
2F5
330
1F
100
AcDbEntity
  8
一般
  6
CONTINUOUS
 62
     7
100
AcDbLine
 10
216.40815
 20
245.8108
 30
0.0
 11
216.40815
 21
247.8108
 31
0.0
  0
LINE
  5
2F6
330
1F
100
AcDbEntity
  8
一般
  6
CONTINUOUS
 62
     7
100
AcDbLine
 10
216.40815
 20
247.8108
 30
0.0
 11
195.34615
 21
247.8108
 31
0.0
  0
LINE
  5
2F7
330
1F
100
AcDbEntity
  8
一般
  6
CONTINUOUS
 62
     7
100
AcDbLine
 10
216.40815
 20
245.8108
 30
0.0
 11
195.34615
 21
245.8108
 31
0.0
  0
LINE
  5
2F8
330
1F
100
AcDbEntity
  8
一般
  6
CONTINUOUS
 62
     7
100
AcDbLine
 10
223.14915
 20
192.8085
 30
0.0
 11
223.14915
 21
192.3085
 31
0.0
  0
LINE
  5
2F9
330
1F
100
AcDbEntity
  8
一般
  6
CONTINUOUS
 62
     7
100
AcDbLine
 10
229.41545
 20
194.6956
 30
0.0
 11
222.70495
 21
201.8512
 31
0.0
  0
LINE
  5
2FA
330
1F
100
AcDbEntity
  8
一般
  6
CONTINUOUS
 62
     7
100
AcDbLine
 10
223.17895
 20
192.8084
 30
0.0
 11
222.51185
 21
205.5356
 31
0.0
  0
LINE
  5
2FB
330
1F
100
AcDbEntity
  8
一般
  6
CONTINUOUS
 62
     7
100
AcDbLine
 10
213.68635
 20
206.0095
 30
0.0
 11
222.01255
 21
206.0095
 31
0.0
  0
LINE
  5
2FC
330
1F
100
AcDbEntity
  8
一般
  6
CONTINUOUS
 62
     7
100
AcDbLine
 10
222.01255
 20
206.0095
 30
0.0
 11
219.18635
 21
206.0096
 31
0.0
  0
LINE
  5
2FD
330
1F
100
AcDbEntity
  8
一般
  6
CONTINUOUS
 62
     7
100
AcDbLine
 10
223.17065
 20
192.3284
 30
0.0
 11
223.17065
 21
192.8085
 31
0.0
  0
LINE
  5
2FE
330
1F
100
AcDbEntity
  8
一般
  6
CONTINUOUS
 62
     7
100
AcDbLine
 10
227.66235
 20
192.3085
 30
0.0
 11
227.66235
 21
193.1085
 31
0.0
  0
LINE
  5
2FF
330
1F
100
AcDbEntity
  8
一般
  6
CONTINUOUS
 62
     7
100
AcDbLine
 10
226.86235
 20
193.1085
 30
0.0
 11
227.66235
 21
193.1085
 31
0.0
  0
LINE
  5
300
330
1F
100
AcDbEntity
  8
一般
  6
CONTINUOUS
 62
     7
100
AcDbLine
 10
222.55575
 20
180.9866
 30
0.0
 11
223.14915
 21
192.3085
 31
0.0
  0
LINE
  5
301
330
1F
100
AcDbEntity
  8
一般
  6
CONTINUOUS
 62
     7
100
AcDbLine
 10
223.14915
 20
192.3085
 30
0.0
 11
223.36245
 21
192.3085
 31
0.0
  0
LINE
  5
302
330
1F
100
AcDbEntity
  8
一般
  6
CONTINUOUS
 62
     7
100
AcDbLine
 10
230.36235
 20
192.3013999999998
 30
0.0
 11
230.36235
 21
190.1779
 31
0.0
  0
LINE
  5
303
330
1F
100
AcDbEntity
  8
一般
  6
CONTINUOUS
 62
     7
100
AcDbLine
 10
229.71795
 20
188.7074
 30
0.0
 11
222.61735
 21
182.162
 31
0.0
  0
LINE
  5
304
330
1F
100
AcDbEntity
  8
一般
  6
CONTINUOUS
 62
     7
100
AcDbLine
 10
226.06235
 20
192.3085
 30
0.0
 11
226.06235
 21
195.7088
 31
0.0
  0
LINE
  5
305
330
1F
100
AcDbEntity
  8
一般
  6
CONTINUOUS
 62
     7
100
AcDbLine
 10
227.66235
 20
193.1085
 30
0.0
 11
227.66235
 21
195.7088
 31
0.0
  0
LINE
  5
306
330
1F
100
AcDbEntity
  8
一般
  6
CONTINUOUS
 62
     7
100
AcDbLine
 10
124.24835
 20
238.8108
 30
0.0
 11
102.24835
 21
238.8108
 31
0.0
  0
LINE
  5
307
330
1F
100
AcDbEntity
  8
一般
  6
CONTINUOUS
 62
     7
100
AcDbLine
 10
97.42745
 20
238.8109
 30
0.0
 11
100.92745
 21
238.8109
 31
0.0
  0
LINE
  5
308
330
1F
100
AcDbEntity
  8
一般
  6
CONTINUOUS
 62
     7
100
AcDbLine
 10
3.17535000000002
 20
192.3085
 30
0.0
 11
3.17535000000002
 21
192.8085
 31
0.0
  0
LINE
  5
309
330
1F
100
AcDbEntity
  8
一般
  6
CONTINUOUS
 62
     7
100
AcDbLine
 10
3.87225
 20
207.2095
 30
0.0
 11
6.15865
 21
207.2095
 31
0.0
  0
LINE
  5
30A
330
1F
100
AcDbEntity
  8
一般
  6
CONTINUOUS
 62
     7
100
AcDbLine
 10
4.05965000000002
 20
206.0095
 30
0.0
 11
6.15865
 21
206.0095
 31
0.0
  0
LINE
  5
30B
330
1F
100
AcDbEntity
  8
一般
  6
CONTINUOUS
 62
     7
100
AcDbLine
 10
3.01785000000002
 20
195.8095
 30
0.0
 11
3.33265000000002
 21
195.8095
 31
0.0
  0
LINE
  5
30C
330
1F
100
AcDbEntity
  8
一般
  6
CONTINUOUS
 62
     7
100
AcDbLine
 10
3.01785000000002
 20
191.9921
 30
0.0
 11
3.01785000000002
 21
191.1689
 31
0.0
  0
LINE
  5
30D
330
1F
100
AcDbEntity
  8
一般
  6
CONTINUOUS
 62
     7
100
AcDbLine
 10
3.01785000000002
 20
190.3152
 30
0.0
 11
3.01785000000002
 21
189.4921
 31
0.0
  0
LINE
  5
30E
330
1F
100
AcDbEntity
  8
一般
  6
CONTINUOUS
 62
     7
100
AcDbLine
 10
3.32235000000002
 20
205.7921
 30
0.0
 11
3.01785000000002
 21
205.7921
 31
0.0
  0
LINE
  5
30F
330
1F
100
AcDbEntity
  8
一般
  6
CONTINUOUS
 62
     7
100
AcDbLine
 10
1.51785000000001
 20
207.7921
 30
0.0
 11
3.01785000000002
 21
207.7921
 31
0.0
  0
LINE
  5
310
330
1F
100
AcDbEntity
  8
一般
  6
CONTINUOUS
 62
     7
100
AcDbLine
 10
3.01785000000002
 20
207.7921
 30
0.0
 11
3.01785000000002
 21
207.2921
 31
0.0
  0
LINE
  5
311
330
1F
100
AcDbEntity
  8
一般
  6
CONTINUOUS
 62
     7
100
AcDbLine
 10
3.01785000000002
 20
204.7921
 30
0.0
 11
3.32235000000002
 21
204.7921
 31
0.0
  0
LINE
  5
312
330
1F
100
AcDbEntity
  8
一般
  6
CONTINUOUS
 62
     7
100
AcDbLine
 10
3.01785000000002
 20
191.9921
 30
0.0
 11
3.01785000000002
 21
204.7921
 31
0.0
  0
LINE
  5
313
330
1F
100
AcDbEntity
  8
一般
  6
CONTINUOUS
 62
     7
100
AcDbLine
 10
4.05965000000002
 20
206.0095
 30
0.0
 11
9.34505
 21
206.0095
 31
0.0
  0
LINE
  5
314
330
1F
100
AcDbEntity
  8
一般
  6
CONTINUOUS
 62
     7
100
AcDbLine
 10
3.17535000000002
 20
192.3085
 30
0.0
 11
3.76875000000002
 21
180.9862
 31
0.0
  0
LINE
  5
315
330
1F
100
AcDbEntity
  8
一般
  6
CONTINUOUS
 62
     7
100
AcDbLine
 10
9.97905
 20
245.8108
 30
0.0
 11
9.97905
 21
247.8108
 31
0.0
  0
LINE
  5
316
330
1F
100
AcDbEntity
  8
一般
  6
CONTINUOUS
 62
     7
100
AcDbLine
 10
3.87225
 20
207.2095
 30
0.0
 11
7.22225
 21
207.2095
 31
0.0
  0
LINE
  5
317
330
1F
100
AcDbEntity
  8
一般
  6
CONTINUOUS
 62
     7
100
AcDbLine
 10
3.01785000000002
 20
191.1689
 30
0.0
 11
3.01785000000002
 21
190.3152
 31
0.0
  0
LINE
  5
318
330
1F
100
AcDbEntity
  8
一般
  6
CONTINUOUS
 62
     7
100
AcDbLine
 10
1.51785000000001
 20
207.7921
 30
0.0
 11
1.51785000000001
 21
188.9921
 31
0.0
  0
LINE
  5
319
330
1F
100
AcDbEntity
  8
一般
  6
CONTINUOUS
 62
     7
100
AcDbLine
 10
-1.48214999999999
 20
189.4921
 30
0.0
 11
1.51785000000001
 21
189.4921
 31
0.0
  0
LINE
  5
31A
330
1F
100
AcDbEntity
  8
一般
  6
CONTINUOUS
 62
     7
100
AcDbLine
 10
-2.48214999999998
 20
206.2921
 30
0.0
 11
-2.48214999999998
 21
190.4921
 31
0.0
  0
LINE
  5
31B
330
1F
100
AcDbEntity
  8
一般
  6
CONTINUOUS
 62
     7
100
AcDbLine
 10
3.01785000000002
 20
207.2921
 30
0.0
 11
3.01785000000002
 21
205.7921
 31
0.0
  0
LINE
  5
31C
330
1F
100
AcDbEntity
  8
一般
  6
CONTINUOUS
 62
     7
100
AcDbLine
 10
3.01785000000002
 20
189.4921
 30
0.0
 11
3.01785000000002
 21
188.9921
 31
0.0
  0
LINE
  5
31D
330
1F
100
AcDbEntity
  8
一般
  6
CONTINUOUS
 62
     7
100
AcDbLine
 10
-2.98214999999998
 20
206.2921
 30
0.0
 11
-2.98214999999998
 21
190.4921
 31
0.0
  0
LINE
  5
31E
330
1F
100
AcDbEntity
  8
一般
  6
CONTINUOUS
 62
     7
100
AcDbLine
 10
-1.48214999999999
 20
188.9921
 30
0.0
 11
1.51785000000001
 21
188.9921
 31
0.0
  0
LINE
  5
31F
330
1F
100
AcDbEntity
  8
一般
  6
CONTINUOUS
 62
     7
100
AcDbLine
 10
3.01785000000002
 20
205.7921
 30
0.0
 11
3.01785000000002
 21
204.7921
 31
0.0
  0
LINE
  5
320
330
1F
100
AcDbEntity
  8
一般
  6
CONTINUOUS
 62
     7
100
AcDbLine
 10
1.51785000000001
 20
207.7921
 30
0.0
 11
-1.48214999999999
 21
207.7921
 31
0.0
  0
LINE
  5
321
330
1F
100
AcDbEntity
  8
一般
  6
CONTINUOUS
 62
     7
100
AcDbLine
 10
-8.72825
 20
193.996
 30
0.0
 11
-5.79225
 21
193.996
 31
0.0
  0
LINE
  5
322
330
1F
100
AcDbEntity
  8
一般
  6
CONTINUOUS
 62
     7
100
AcDbLine
 10
-8.91624999999998
 20
189.2355
 30
0.0
 11
2.66735000000002
 21
187.193
 31
0.0
  0
LINE
  5
323
330
1F
100
AcDbEntity
  8
一般
  6
CONTINUOUS
 62
     7
100
AcDbLine
 10
1.51785000000001
 20
207.2921
 30
0.0
 11
-1.48214999999999
 21
207.2921
 31
0.0
  0
LINE
  5
324
330
1F
100
AcDbEntity
  8
一般
  6
CONTINUOUS
 62
     7
100
AcDbLine
 10
3.33785
 20
195.9085
 30
0.0
 11
3.84235000000002
 21
205.5356
 31
0.0
  0
LINE
  5
325
330
1F
100
AcDbEntity
  8
一般
  6
CONTINUOUS
 62
     7
100
AcDbLine
 10
6.07975
 20
192.8085
 30
0.0
 11
3.17535000000002
 21
192.8085
 31
0.0
  0
LINE
  5
326
330
1F
100
AcDbEntity
  8
一般
  6
CONTINUOUS
 62
     7
100
AcDbLine
 10
3.17535000000002
 20
192.8085
 30
0.0
 11
3.33785
 21
195.9085
 31
0.0
  0
LINE
  5
327
330
1F
100
AcDbEntity
  8
一般
  6
CONTINUOUS
 62
     7
100
AcDbLine
 10
6.07155
 20
192.3085
 30
0.0
 11
3.17535000000002
 21
192.3085
 31
0.0
  0
LINE
  5
328
330
1F
100
AcDbEntity
  8
一般
  6
CONTINUOUS
 62
     7
100
AcDbLine
 10
-181.54205
 20
111.9305
 30
0.0
 11
-189.04205
 21
111.9305
 31
0.0
  0
LINE
  5
329
330
1F
100
AcDbEntity
  8
一般
  6
CONTINUOUS
 62
     7
100
AcDbLine
 10
-181.54205
 20
111.9305
 30
0.0
 11
-180.04205
 21
111.9305
 31
0.0
  0
LINE
  5
32A
330
1F
100
AcDbEntity
  8
一般
  6
CONTINUOUS
 62
     7
100
AcDbLine
 10
-134.01695
 20
119.6577
 30
0.0
 11
-134.01695
 21
120.6577
 31
0.0
  0
LINE
  5
32B
330
1F
100
AcDbEntity
  8
一般
  6
CONTINUOUS
 62
     7
100
AcDbLine
 10
-147.21795
 20
116.682
 30
0.0
 11
-171.12395
 21
115.4291
 31
0.0
  0
LINE
  5
32C
330
1F
100
AcDbEntity
  8
一般
  6
CONTINUOUS
 62
     7
100
AcDbLine
 10
-173.01925
 20
113.4319
 30
0.0
 11
-173.01925
 21
107.0936
 31
0.0
  0
LINE
  5
32D
330
1F
100
AcDbEntity
  8
一般
  6
CONTINUOUS
 62
     7
100
AcDbLine
 10
-134.01695
 20
119.6577
 30
0.0
 11
-134.01695
 21
117.6577
 31
0.0
  0
LINE
  5
32E
330
1F
100
AcDbEntity
  8
一般
  6
CONTINUOUS
 62
     7
100
AcDbLine
 10
-133.51655
 20
120.6577
 30
0.0
 11
-115.61155
 21
119.7193
 31
0.0
  0
LINE
  5
32F
330
1F
100
AcDbEntity
  8
一般
  6
CONTINUOUS
 62
     7
100
AcDbLine
 10
-118.19005
 20
100.6157
 30
0.0
 11
-118.19005
 21
102.6157
 31
0.0
  0
LINE
  5
330
330
1F
100
AcDbEntity
  8
一般
  6
CONTINUOUS
 62
     7
100
AcDbLine
 10
-9.32944999999998
 20
192.3084
 30
0.0
 11
-9.32944999999998
 21
189.728
 31
0.0
  0
LINE
  5
331
330
1F
100
AcDbEntity
  8
一般
  6
CONTINUOUS
 62
     7
100
AcDbLine
 10
-2.98214999999998
 20
192.3084
 30
0.0
 11
-9.32944999999998
 21
192.3084
 31
0.0
  0
LINE
  5
332
330
1F
100
AcDbEntity
  8
一般
  6
CONTINUOUS
 62
     7
100
AcDbLine
 10
-2.98214999999998
 20
192.796
 30
0.0
 11
-8.72825
 21
192.796
 31
0.0
  0
LINE
  5
333
330
1F
100
AcDbEntity
  8
一般
  6
CONTINUOUS
 62
     7
100
AcDbLine
 10
-8.72825
 20
192.796
 30
0.0
 11
-8.72825
 21
193.996
 31
0.0
  0
LINE
  5
334
330
1F
100
AcDbEntity
  8
一般
  6
CONTINUOUS
 62
     7
100
AcDbLine
 10
-8.72825
 20
193.996
 30
0.0
 11
-2.98214999999998
 21
193.996
 31
0.0
  0
LINE
  5
335
330
1F
100
AcDbEntity
  8
一般
  6
CONTINUOUS
 62
     7
100
AcDbLine
 10
-8.72825
 20
192.796
 30
0.0
 11
-5.79225
 21
192.796
 31
0.0
  0
LINE
  5
336
330
1F
100
AcDbEntity
  8
一般
  6
CONTINUOUS
 62
     7
100
AcDbLine
 10
1.51785000000001
 20
188.9921
 30
0.0
 11
3.01785000000002
 21
188.9921
 31
0.0
  0
LINE
  5
337
330
1F
100
AcDbEntity
  8
一般
  6
CONTINUOUS
 62
     7
100
AcDbLine
 10
6.07155
 20
192.3085
 30
0.0
 11
3.17535000000002
 21
192.3084
 31
0.0
  0
LINE
  5
338
330
1F
100
AcDbEntity
  8
一般
  6
CONTINUOUS
 62
     7
100
AcDbLine
 10
6.07155
 20
192.3085
 30
0.0
 11
26.54205
 21
192.3092
 31
0.0
  0
LINE
  5
339
330
1F
100
AcDbEntity
  8
一般
  6
CONTINUOUS
 62
     7
100
AcDbLine
 10
3.01785000000002
 20
201.0095
 30
0.0
 11
3.60515000000002
 21
201.0095
 31
0.0
  0
LINE
  5
33A
330
1F
100
AcDbEntity
  8
一般
  6
CONTINUOUS
 62
     7
100
AcDbLine
 10
3.84235000000002
 20
205.5356
 30
0.0
 11
3.86005
 21
205.8218
 31
0.0
  0
LINE
  5
33B
330
1F
100
AcDbEntity
  8
一般
  6
CONTINUOUS
 62
     7
100
AcDbLine
 10
230.16885
 20
67.2118
 30
0.0
 11
230.16885
 21
11.31840000000002
 31
0.0
  0
LINE
  5
33C
330
1F
100
AcDbEntity
  8
一般
  6
CONTINUOUS
 62
     7
100
AcDbLine
 10
230.16885
 20
-10.29159999999998
 30
0.0
 11
223.17105
 21
-27.3941
 31
0.0
  0
LINE
  5
33D
330
1F
100
AcDbEntity
  8
一般
  6
CONTINUOUS
 62
     7
100
AcDbLine
 10
230.16885
 20
-10.29159999999998
 30
0.0
 11
223.17155
 21
-10.29159999999998
 31
0.0
  0
LINE
  5
33E
330
1F
100
AcDbEntity
  8
一般
  6
CONTINUOUS
 62
     7
100
AcDbLine
 10
230.16885
 20
11.31840000000002
 30
0.0
 11
230.16885
 21
-10.29159999999998
 31
0.0
  0
LINE
  5
33F
330
1F
100
AcDbEntity
  8
一般
  6
CONTINUOUS
 62
     7
100
AcDbLine
 10
-116.52435
 20
117.5837
 30
0.0
 11
-116.52435
 21
105.1934
 31
0.0
  0
LINE
  5
340
330
1F
100
AcDbEntity
  8
一般
  6
CONTINUOUS
 62
     7
100
AcDbLine
 10
-180.01925
 20
107.0936
 30
0.0
 11
-173.01925
 21
107.0936
 31
0.0
  0
LINE
  5
341
330
1F
100
AcDbEntity
  8
一般
  6
CONTINUOUS
 62
     7
100
AcDbLine
 10
-134.01695
 20
120.6577
 30
0.0
 11
-146.74415
 21
119.9907
 31
0.0
  0
LINE
  5
342
330
1F
100
AcDbEntity
  8
一般
  6
CONTINUOUS
 62
     7
100
AcDbLine
 10
-134.01695
 20
120.6577
 30
0.0
 11
-133.51695
 21
120.6577
 31
0.0
  0
LINE
  5
343
330
1F
100
AcDbEntity
  8
一般
  6
CONTINUOUS
 62
     7
100
AcDbLine
 10
-118.19005
 20
102.6157
 30
0.0
 11
-114.41285
 21
103.6216
 31
0.0
  0
LINE
  5
344
330
1F
100
AcDbEntity
  8
一般
  6
CONTINUOUS
 62
     7
100
AcDbLine
 10
-114.19015
 20
103.8849
 30
0.0
 11
-114.19015
 21
118.2213
 31
0.0
  0
LINE
  5
345
330
1F
100
AcDbEntity
  8
一般
  6
CONTINUOUS
 62
     7
100
AcDbLine
 10
0.25555000000001
 20
0.46860000000001
 30
0.0
 11
2.17305000000002
 21
0.46870000000001
 31
0.0
  0
LINE
  5
346
330
1F
100
AcDbEntity
  8
一般
  6
CONTINUOUS
 62
     7
100
AcDbLine
 10
-4.41524999999998
 20
-30.1369
 30
0.0
 11
1.69275000000001
 21
-31.7736
 31
0.0
  0
LINE
  5
347
330
1F
100
AcDbEntity
  8
一般
  6
CONTINUOUS
 62
     7
100
AcDbLine
 10
-9.11555
 20
-21.7524
 30
0.0
 11
-1.66574999999999
 21
-0.97609999999999
 31
0.0
  0
LINE
  5
348
330
1F
100
AcDbEntity
  8
一般
  6
CONTINUOUS
 62
     7
100
AcDbLine
 10
-148.75085
 20
52.4614
 30
0.0
 11
-141.26585
 21
52.4614
 31
0.0
  0
LINE
  5
349
330
1F
100
AcDbEntity
  8
一般
  6
CONTINUOUS
 62
     7
100
AcDbLine
 10
-130.70085
 20
50.9614
 30
0.0
 11
-130.70085
 21
49.9614
 31
0.0
  0
LINE
  5
34A
330
1F
100
AcDbEntity
  8
一般
  6
CONTINUOUS
 62
     7
100
AcDbLine
 10
-130.70085
 20
46.4614
 30
0.0
 11
-130.70085
 21
45.4614
 31
0.0
  0
LINE
  5
34B
330
1F
100
AcDbEntity
  8
一般
  6
CONTINUOUS
 62
     7
100
AcDbLine
 10
-148.50085
 20
52.9614
 30
0.0
 11
-148.50085
 21
60.9681
 31
0.0
  0
LINE
  5
34C
330
1F
100
AcDbEntity
  8
一般
  6
CONTINUOUS
 62
     7
100
AcDbLine
 10
-118.19005
 20
52.6157
 30
0.0
 11
-118.19005
 21
50.6157
 31
0.0
  0
LINE
  5
34D
330
1F
100
AcDbEntity
  8
一般
  6
CONTINUOUS
 62
     7
100
AcDbLine
 10
-130.70085
 20
52.4614
 30
0.0
 11
-130.70085
 21
51.4614
 31
0.0
  0
LINE
  5
34E
330
1F
100
AcDbEntity
  8
一般
  6
CONTINUOUS
 62
     7
100
AcDbLine
 10
-142.59785
 20
49.4614
 30
0.0
 11
-148.75085
 21
49.4614
 31
0.0
  0
LINE
  5
34F
330
1F
100
AcDbEntity
  8
一般
  6
CONTINUOUS
 62
     7
100
AcDbLine
 10
-137.96335
 20
52.4614
 30
0.0
 11
-130.45085
 21
52.4614
 31
0.0
  0
LINE
  5
350
330
1F
100
AcDbEntity
  8
一般
  6
CONTINUOUS
 62
     7
100
AcDbLine
 10
-173.01925
 20
74.0935
 30
0.0
 11
-180.01925
 21
74.0935
 31
0.0
  0
LINE
  5
351
330
1F
100
AcDbEntity
  8
一般
  6
CONTINUOUS
 62
     7
100
AcDbLine
 10
-180.01855
 20
84.111
 30
0.0
 11
-173.01995
 21
83.9888
 31
0.0
  0
LINE
  5
352
330
1F
100
AcDbEntity
  8
一般
  6
CONTINUOUS
 62
     7
100
AcDbLine
 10
-130.70085
 20
49.4614
 30
0.0
 11
-130.70085
 21
48.4614
 31
0.0
  0
LINE
  5
353
330
1F
100
AcDbEntity
  8
一般
  6
CONTINUOUS
 62
     7
100
AcDbLine
 10
-141.85485
 20
47.9614
 30
0.0
 11
-148.75085
 21
47.9614
 31
0.0
  0
LINE
  5
354
330
1F
100
AcDbEntity
  8
一般
  6
CONTINUOUS
 62
     7
100
AcDbLine
 10
-137.01385
 20
48.4614
 30
0.0
 11
-130.45085
 21
48.4614
 31
0.0
  0
LINE
  5
355
330
1F
100
AcDbEntity
  8
一般
  6
CONTINUOUS
 62
     7
100
AcDbLine
 10
-2.48655
 20
49.9614
 30
0.0
 11
-2.48655
 21
50.9614
 31
0.0
  0
LINE
  5
356
330
1F
100
AcDbEntity
  8
一般
  6
CONTINUOUS
 62
     7
100
AcDbLine
 10
-2.48655
 20
48.4614
 30
0.0
 11
-2.48655
 21
49.4614
 31
0.0
  0
LINE
  5
357
330
1F
100
AcDbEntity
  8
一般
  6
CONTINUOUS
 62
     7
100
AcDbLine
 10
-2.98655
 20
55.271
 30
0.0
 11
-2.98655
 21
59.8139
 31
0.0
  0
LINE
  5
358
330
1F
100
AcDbEntity
  8
一般
  6
CONTINUOUS
 62
     7
100
AcDbLine
 10
-2.48655
 20
55.271
 30
0.0
 11
-2.98655
 21
55.271
 31
0.0
  0
LINE
  5
359
330
1F
100
AcDbEntity
  8
一般
  6
CONTINUOUS
 62
     7
100
AcDbLine
 10
-2.48655
 20
59.8139
 30
0.0
 11
-2.48655
 21
55.271
 31
0.0
  0
LINE
  5
35A
330
1F
100
AcDbEntity
  8
一般
  6
CONTINUOUS
 62
     7
100
AcDbLine
 10
2.97155000000002
 20
62.4681
 30
0.0
 11
2.97155000000002
 21
17.45460000000002
 31
0.0
  0
LINE
  5
35B
330
1F
100
AcDbEntity
  8
一般
  6
CONTINUOUS
 62
     7
100
AcDbLine
 10
3.17155000000002
 20
62.4681
 30
0.0
 11
3.17155000000002
 21
17.4681
 31
0.0
  0
LINE
  5
35C
330
1F
100
AcDbEntity
  8
一般
  6
CONTINUOUS
 62
     7
100
AcDbLine
 10
1.51345000000001
 20
62.9681
 30
0.0
 11
1.51345000000001
 21
16.95460000000002
 31
0.0
  0
LINE
  5
35D
330
1F
100
AcDbEntity
  8
一般
  6
CONTINUOUS
 62
     7
100
AcDbLine
 10
-2.73654999999998
 20
38.9614
 30
0.0
 11
1.51345000000001
 21
38.9614
 31
0.0
  0
LINE
  5
35E
330
1F
100
AcDbEntity
  8
一般
  6
CONTINUOUS
 62
     7
100
AcDbLine
 10
1.51345000000001
 20
40.9614
 30
0.0
 11
-2.73654999999998
 21
40.9614
 31
0.0
  0
LINE
  5
35F
330
1F
100
AcDbEntity
  8
一般
  6
CONTINUOUS
 62
     7
100
AcDbLine
 10
-2.73654999999998
 20
40.4614
 30
0.0
 11
1.51345000000001
 21
40.4614
 31
0.0
  0
LINE
  5
360
330
1F
100
AcDbEntity
  8
一般
  6
CONTINUOUS
 62
     7
100
AcDbLine
 10
-2.73654999999998
 20
41.9614
 30
0.0
 11
1.51345000000001
 21
41.9614
 31
0.0
  0
LINE
  5
361
330
1F
100
AcDbEntity
  8
一般
  6
CONTINUOUS
 62
     7
100
AcDbLine
 10
1.51345000000001
 20
43.9614
 30
0.0
 11
-2.73654999999998
 21
43.9614
 31
0.0
  0
LINE
  5
362
330
1F
100
AcDbEntity
  8
一般
  6
CONTINUOUS
 62
     7
100
AcDbLine
 10
-2.73654999999998
 20
28.4614
 30
0.0
 11
1.51345000000001
 21
28.4614
 31
0.0
  0
LINE
  5
363
330
1F
100
AcDbEntity
  8
一般
  6
CONTINUOUS
 62
     7
100
AcDbLine
 10
1.51345000000001
 20
30.4614
 30
0.0
 11
-2.73654999999998
 21
30.4614
 31
0.0
  0
LINE
  5
364
330
1F
100
AcDbEntity
  8
一般
  6
CONTINUOUS
 62
     7
100
AcDbLine
 10
-2.73654999999998
 20
29.9614
 30
0.0
 11
1.51345000000001
 21
29.9614
 31
0.0
  0
LINE
  5
365
330
1F
100
AcDbEntity
  8
一般
  6
CONTINUOUS
 62
     7
100
AcDbLine
 10
1.51345000000001
 20
31.9614
 30
0.0
 11
-2.73654999999998
 21
31.9614
 31
0.0
  0
LINE
  5
366
330
1F
100
AcDbEntity
  8
一般
  6
CONTINUOUS
 62
     7
100
AcDbLine
 10
-2.73654999999998
 20
31.4614
 30
0.0
 11
1.51345000000001
 21
31.4614
 31
0.0
  0
LINE
  5
367
330
1F
100
AcDbEntity
  8
一般
  6
CONTINUOUS
 62
     7
100
AcDbLine
 10
1.51345000000001
 20
33.4614
 30
0.0
 11
-2.73654999999998
 21
33.4614
 31
0.0
  0
LINE
  5
368
330
1F
100
AcDbEntity
  8
一般
  6
CONTINUOUS
 62
     7
100
AcDbLine
 10
-2.73654999999998
 20
32.9614
 30
0.0
 11
1.51345000000001
 21
32.9614
 31
0.0
  0
LINE
  5
369
330
1F
100
AcDbEntity
  8
一般
  6
CONTINUOUS
 62
     7
100
AcDbLine
 10
1.51345000000001
 20
34.9614
 30
0.0
 11
-2.73654999999998
 21
34.9614
 31
0.0
  0
LINE
  5
36A
330
1F
100
AcDbEntity
  8
一般
  6
CONTINUOUS
 62
     7
100
AcDbLine
 10
-2.73654999999998
 20
34.4614
 30
0.0
 11
1.51345000000001
 21
34.4614
 31
0.0
  0
LINE
  5
36B
330
1F
100
AcDbEntity
  8
一般
  6
CONTINUOUS
 62
     7
100
AcDbLine
 10
1.51345000000001
 20
36.4614
 30
0.0
 11
-2.73654999999998
 21
36.4614
 31
0.0
  0
LINE
  5
36C
330
1F
100
AcDbEntity
  8
一般
  6
CONTINUOUS
 62
     7
100
AcDbLine
 10
-2.73654999999998
 20
35.9614
 30
0.0
 11
1.51345000000001
 21
35.9614
 31
0.0
  0
LINE
  5
36D
330
1F
100
AcDbEntity
  8
一般
  6
CONTINUOUS
 62
     7
100
AcDbLine
 10
-2.48655
 20
51.4614
 30
0.0
 11
-2.48655
 21
52.4614
 31
0.0
  0
LINE
  5
36E
330
1F
100
AcDbEntity
  8
一般
  6
CONTINUOUS
 62
     7
100
AcDbLine
 10
-2.73654999999998
 20
37.4614
 30
0.0
 11
1.51345000000001
 21
37.4614
 31
0.0
  0
LINE
  5
36F
330
1F
100
AcDbEntity
  8
一般
  6
CONTINUOUS
 62
     7
100
AcDbLine
 10
1.51345000000001
 20
39.4614
 30
0.0
 11
-2.73654999999998
 21
39.4614
 31
0.0
  0
LINE
  5
370
330
1F
100
AcDbEntity
  8
一般
  6
CONTINUOUS
 62
     7
100
AcDbLine
 10
2.97155000000002
 20
17.45460000000002
 30
0.0
 11
3.17155000000002
 21
17.45460000000002
 31
0.0
  0
LINE
  5
371
330
1F
100
AcDbEntity
  8
一般
  6
CONTINUOUS
 62
     7
100
AcDbLine
 10
2.97155000000002
 20
62.4681
 30
0.0
 11
3.17155000000002
 21
62.4681
 31
0.0
  0
LINE
  5
372
330
1F
100
AcDbEntity
  8
一般
  6
CONTINUOUS
 62
     7
100
AcDbLine
 10
1.51345000000001
 20
52.9614
 30
0.0
 11
-2.73654999999998
 21
52.9614
 31
0.0
  0
LINE
  5
373
330
1F
100
AcDbEntity
  8
一般
  6
CONTINUOUS
 62
     7
100
AcDbLine
 10
-2.73654999999998
 20
52.4614
 30
0.0
 11
1.51345000000001
 21
52.4614
 31
0.0
  0
LINE
  5
374
330
1F
100
AcDbEntity
  8
一般
  6
CONTINUOUS
 62
     7
100
AcDbLine
 10
-2.48655
 20
52.9614
 30
0.0
 11
-2.48655
 21
61.4681
 31
0.0
  0
LINE
  5
375
330
1F
100
AcDbEntity
  8
一般
  6
CONTINUOUS
 62
     7
100
AcDbLine
 10
1.51345000000001
 20
49.9614
 30
0.0
 11
-2.73654999999998
 21
49.9614
 31
0.0
  0
LINE
  5
376
330
1F
100
AcDbEntity
  8
一般
  6
CONTINUOUS
 62
     7
100
AcDbLine
 10
-2.73654999999998
 20
49.4614
 30
0.0
 11
1.51345000000001
 21
49.4614
 31
0.0
  0
LINE
  5
377
330
1F
100
AcDbEntity
  8
一般
  6
CONTINUOUS
 62
     7
100
AcDbLine
 10
1.51345000000001
 20
51.4614
 30
0.0
 11
-2.73654999999998
 21
51.4614
 31
0.0
  0
LINE
  5
378
330
1F
100
AcDbEntity
  8
一般
  6
CONTINUOUS
 62
     7
100
AcDbLine
 10
-2.73654999999998
 20
50.9614
 30
0.0
 11
1.51345000000001
 21
50.9614
 31
0.0
  0
LINE
  5
379
330
1F
100
AcDbEntity
  8
一般
  6
CONTINUOUS
 62
     7
100
AcDbLine
 10
-2.48655
 20
37.9614
 30
0.0
 11
-2.48655
 21
38.9614
 31
0.0
  0
LINE
  5
37A
330
1F
100
AcDbEntity
  8
一般
  6
CONTINUOUS
 62
     7
100
AcDbLine
 10
-2.48655
 20
43.9614
 30
0.0
 11
-2.48655
 21
44.9614
 31
0.0
  0
LINE
  5
37B
330
1F
100
AcDbEntity
  8
一般
  6
CONTINUOUS
 62
     7
100
AcDbLine
 10
-2.48655
 20
45.4614
 30
0.0
 11
-2.48655
 21
46.4614
 31
0.0
  0
LINE
  5
37C
330
1F
100
AcDbEntity
  8
一般
  6
CONTINUOUS
 62
     7
100
AcDbLine
 10
-2.48655
 20
42.4614
 30
0.0
 11
-2.48655
 21
43.4614
 31
0.0
  0
LINE
  5
37D
330
1F
100
AcDbEntity
  8
一般
  6
CONTINUOUS
 62
     7
100
AcDbLine
 10
-2.48655
 20
40.9614
 30
0.0
 11
-2.48655
 21
41.9614
 31
0.0
  0
LINE
  5
37E
330
1F
100
AcDbEntity
  8
一般
  6
CONTINUOUS
 62
     7
100
AcDbLine
 10
1.51345000000001
 20
42.4614
 30
0.0
 11
-2.73654999999998
 21
42.4614
 31
0.0
  0
LINE
  5
37F
330
1F
100
AcDbEntity
  8
一般
  6
CONTINUOUS
 62
     7
100
AcDbLine
 10
-2.48655
 20
46.9614
 30
0.0
 11
-2.48655
 21
47.9614
 31
0.0
  0
LINE
  5
380
330
1F
100
AcDbEntity
  8
一般
  6
CONTINUOUS
 62
     7
100
AcDbLine
 10
-2.48655
 20
36.4614
 30
0.0
 11
-2.48655
 21
37.4614
 31
0.0
  0
LINE
  5
381
330
1F
100
AcDbEntity
  8
一般
  6
CONTINUOUS
 62
     7
100
AcDbLine
 10
-2.48655
 20
33.4614
 30
0.0
 11
-2.48655
 21
34.4614
 31
0.0
  0
LINE
  5
382
330
1F
100
AcDbEntity
  8
一般
  6
CONTINUOUS
 62
     7
100
AcDbLine
 10
-2.73654999999998
 20
43.4614
 30
0.0
 11
1.51345000000001
 21
43.4614
 31
0.0
  0
LINE
  5
383
330
1F
100
AcDbEntity
  8
一般
  6
CONTINUOUS
 62
     7
100
AcDbLine
 10
1.51345000000001
 20
45.4614
 30
0.0
 11
-2.73654999999998
 21
45.4614
 31
0.0
  0
LINE
  5
384
330
1F
100
AcDbEntity
  8
一般
  6
CONTINUOUS
 62
     7
100
AcDbLine
 10
-2.73654999999998
 20
44.9614
 30
0.0
 11
1.51345000000001
 21
44.9614
 31
0.0
  0
LINE
  5
385
330
1F
100
AcDbEntity
  8
一般
  6
CONTINUOUS
 62
     7
100
AcDbLine
 10
1.51345000000001
 20
46.9614
 30
0.0
 11
-2.73654999999998
 21
46.9614
 31
0.0
  0
LINE
  5
386
330
1F
100
AcDbEntity
  8
一般
  6
CONTINUOUS
 62
     7
100
AcDbLine
 10
-2.73654999999998
 20
46.4614
 30
0.0
 11
1.51345000000001
 21
46.4614
 31
0.0
  0
LINE
  5
387
330
1F
100
AcDbEntity
  8
一般
  6
CONTINUOUS
 62
     7
100
AcDbLine
 10
1.51345000000001
 20
48.4614
 30
0.0
 11
-2.73654999999998
 21
48.4614
 31
0.0
  0
LINE
  5
388
330
1F
100
AcDbEntity
  8
一般
  6
CONTINUOUS
 62
     7
100
AcDbLine
 10
-2.73654999999998
 20
47.9614
 30
0.0
 11
1.51345000000001
 21
47.9614
 31
0.0
  0
LINE
  5
389
330
1F
100
AcDbEntity
  8
一般
  6
CONTINUOUS
 62
     7
100
AcDbLine
 10
1.51345000000001
 20
27.4614
 30
0.0
 11
-2.73654999999998
 21
27.4614
 31
0.0
  0
LINE
  5
38A
330
1F
100
AcDbEntity
  8
一般
  6
CONTINUOUS
 62
     7
100
AcDbLine
 10
-2.73654999999998
 20
26.9614
 30
0.0
 11
1.51345000000001
 21
26.9614
 31
0.0
  0
LINE
  5
38B
330
1F
100
AcDbEntity
  8
一般
  6
CONTINUOUS
 62
     7
100
AcDbLine
 10
1.51345000000001
 20
28.9614
 30
0.0
 11
-2.73654999999998
 21
28.9614
 31
0.0
  0
LINE
  5
38C
330
1F
100
AcDbEntity
  8
一般
  6
CONTINUOUS
 62
     7
100
AcDbLine
 10
-2.48655
 20
34.9614
 30
0.0
 11
-2.48655
 21
35.9614
 31
0.0
  0
LINE
  5
38D
330
1F
100
AcDbEntity
  8
一般
  6
CONTINUOUS
 62
     7
100
AcDbLine
 10
2.97155000000002
 20
17.45460000000002
 30
0.0
 11
2.97155000000002
 21
16.95460000000002
 31
0.0
  0
LINE
  5
38E
330
1F
100
AcDbEntity
  8
一般
  6
CONTINUOUS
 62
     7
100
AcDbLine
 10
1.51345000000001
 20
16.95460000000002
 30
0.0
 11
2.97155000000002
 21
16.95460000000002
 31
0.0
  0
LINE
  5
38F
330
1F
100
AcDbEntity
  8
一般
  6
CONTINUOUS
 62
     7
100
AcDbLine
 10
1.51345000000001
 20
17.45460000000002
 30
0.0
 11
-1.48654999999999
 21
17.45460000000002
 31
0.0
  0
LINE
  5
390
330
1F
100
AcDbEntity
  8
一般
  6
CONTINUOUS
 62
     7
100
AcDbLine
 10
-2.48655
 20
18.45460000000002
 30
0.0
 11
-2.48655
 21
26.9614
 31
0.0
  0
LINE
  5
391
330
1F
100
AcDbEntity
  8
一般
  6
CONTINUOUS
 62
     7
100
AcDbLine
 10
-2.98655
 20
59.8139
 30
0.0
 11
-2.48655
 21
59.8139
 31
0.0
  0
LINE
  5
392
330
1F
100
AcDbEntity
  8
一般
  6
CONTINUOUS
 62
     7
100
AcDbLine
 10
2.97155000000002
 20
62.4681
 30
0.0
 11
2.97155000000002
 21
62.9681
 31
0.0
  0
LINE
  5
393
330
1F
100
AcDbEntity
  8
一般
  6
CONTINUOUS
 62
     7
100
AcDbLine
 10
1.51345000000001
 20
62.9681
 30
0.0
 11
2.97155000000002
 21
62.9681
 31
0.0
  0
LINE
  5
394
330
1F
100
AcDbEntity
  8
一般
  6
CONTINUOUS
 62
     7
100
AcDbLine
 10
-1.48654999999999
 20
62.4681
 30
0.0
 11
1.51345000000001
 21
62.4681
 31
0.0
  0
LINE
  5
395
330
1F
100
AcDbEntity
  8
一般
  6
CONTINUOUS
 62
     7
100
AcDbLine
 10
1.51345000000001
 20
37.9614
 30
0.0
 11
-2.73654999999998
 21
37.9614
 31
0.0
  0
LINE
  5
396
330
1F
100
AcDbEntity
  8
一般
  6
CONTINUOUS
 62
     7
100
AcDbLine
 10
-2.48655
 20
27.4614
 30
0.0
 11
-2.48655
 21
28.4614
 31
0.0
  0
LINE
  5
397
330
1F
100
AcDbEntity
  8
一般
  6
CONTINUOUS
 62
     7
100
AcDbLine
 10
-2.48655
 20
28.9614
 30
0.0
 11
-2.48655
 21
29.9614
 31
0.0
  0
LINE
  5
398
330
1F
100
AcDbEntity
  8
一般
  6
CONTINUOUS
 62
     7
100
AcDbLine
 10
-2.48655
 20
30.4614
 30
0.0
 11
-2.48655
 21
31.4614
 31
0.0
  0
LINE
  5
399
330
1F
100
AcDbEntity
  8
一般
  6
CONTINUOUS
 62
     7
100
AcDbLine
 10
-2.48655
 20
31.9614
 30
0.0
 11
-2.48655
 21
32.9614
 31
0.0
  0
LINE
  5
39A
330
1F
100
AcDbEntity
  8
一般
  6
CONTINUOUS
 62
     7
100
AcDbLine
 10
-2.48655
 20
39.4614
 30
0.0
 11
-2.48655
 21
40.4614
 31
0.0
  0
LINE
  5
39B
330
1F
100
AcDbEntity
  8
一般
  6
CONTINUOUS
 62
     7
100
AcDbLine
 10
-139.60085
 20
59.8139
 30
0.0
 11
-145.10085
 21
55.271
 31
0.0
  0
LINE
  5
39C
330
1F
100
AcDbEntity
  8
一般
  6
CONTINUOUS
 62
     7
100
AcDbLine
 10
-145.10085
 20
55.271
 30
0.0
 11
-134.10085
 21
55.271
 31
0.0
  0
LINE
  5
39D
330
1F
100
AcDbEntity
  8
一般
  6
CONTINUOUS
 62
     7
100
AcDbLine
 10
-139.60085
 20
59.8139
 30
0.0
 11
-134.10085
 21
55.271
 31
0.0
  0
LINE
  5
39E
330
1F
100
AcDbEntity
  8
一般
  6
CONTINUOUS
 62
     7
100
AcDbLine
 10
-139.59855
 20
49.1956
 30
0.0
 11
-139.59855
 21
50.6728
 31
0.0
  0
LINE
  5
39F
330
1F
100
AcDbEntity
  8
一般
  6
CONTINUOUS
 62
     7
100
AcDbLine
 10
-130.70085
 20
60.9681
 30
0.0
 11
-130.70085
 21
52.9614
 31
0.0
  0
LINE
  5
3A0
330
1F
100
AcDbEntity
  8
一般
  6
CONTINUOUS
 62
     7
100
AcDbLine
 10
-147.00085
 20
62.4681
 30
0.0
 11
-132.20085
 21
62.4681
 31
0.0
  0
LINE
  5
3A1
330
1F
100
AcDbEntity
  8
一般
  6
CONTINUOUS
 62
     7
100
AcDbLine
 10
-132.20085
 20
62.9681
 30
0.0
 11
-147.00085
 21
62.9681
 31
0.0
  0
LINE
  5
3A2
330
1F
100
AcDbEntity
  8
一般
  6
CONTINUOUS
 62
     7
100
AcDbLine
 10
-141.58435
 20
46.9614
 30
0.0
 11
-130.45085
 21
46.9614
 31
0.0
  0
LINE
  5
3A3
330
1F
100
AcDbEntity
  8
一般
  6
CONTINUOUS
 62
     7
100
AcDbLine
 10
-130.45085
 20
47.9614
 30
0.0
 11
-137.37435
 21
47.9614
 31
0.0
  0
LINE
  5
3A4
330
1F
100
AcDbEntity
  8
一般
  6
CONTINUOUS
 62
     7
100
AcDbLine
 10
-148.50085
 20
45.4614
 30
0.0
 11
-148.50085
 21
46.4614
 31
0.0
  0
LINE
  5
3A5
330
1F
100
AcDbEntity
  8
一般
  6
CONTINUOUS
 62
     7
100
AcDbLine
 10
-148.50085
 20
49.9614
 30
0.0
 11
-148.50085
 21
50.9614
 31
0.0
  0
LINE
  5
3A6
330
1F
100
AcDbEntity
  8
一般
  6
CONTINUOUS
 62
     7
100
AcDbLine
 10
-138.42445
 20
46.4614
 30
0.0
 11
-148.75085
 21
46.4614
 31
0.0
  0
LINE
  5
3A7
330
1F
100
AcDbEntity
  8
一般
  6
CONTINUOUS
 62
     7
100
AcDbLine
 10
-130.45085
 20
46.4614
 30
0.0
 11
-138.42445
 21
46.4614
 31
0.0
  0
LINE
  5
3A8
330
1F
100
AcDbEntity
  8
一般
  6
CONTINUOUS
 62
     7
100
AcDbLine
 10
-130.51695
 20
-0.53139999999999
 30
0.0
 11
-130.51695
 21
-26.956
 31
0.0
  0
LINE
  5
3A9
330
1F
100
AcDbEntity
  8
一般
  6
CONTINUOUS
 62
     7
100
AcDbLine
 10
-130.70085
 20
47.9614
 30
0.0
 11
-130.70085
 21
46.9614
 31
0.0
  0
LINE
  5
3AA
330
1F
100
AcDbEntity
  8
一般
  6
CONTINUOUS
 62
     7
100
AcDbLine
 10
-130.45085
 20
52.9614
 30
0.0
 11
-148.75085
 21
52.9614
 31
0.0
  0
LINE
  5
3AB
330
1F
100
AcDbEntity
  8
一般
  6
CONTINUOUS
 62
     7
100
AcDbLine
 10
-173.01925
 20
-26.9806
 30
0.0
 11
-173.01925
 21
-13.806
 31
0.0
  0
LINE
  5
3AC
330
1F
100
AcDbEntity
  8
一般
  6
CONTINUOUS
 62
     7
100
AcDbLine
 10
-133.51695
 20
0.46860000000001
 30
0.0
 11
-131.51695
 21
0.46860000000001
 31
0.0
  0
LINE
  5
3AD
330
1F
100
AcDbEntity
  8
一般
  6
CONTINUOUS
 62
     7
100
AcDbLine
 10
-148.75085
 20
32.9614
 30
0.0
 11
-130.45085
 21
32.9614
 31
0.0
  0
LINE
  5
3AE
330
1F
100
AcDbEntity
  8
一般
  6
CONTINUOUS
 62
     7
100
AcDbLine
 10
-148.50085
 20
31.9614
 30
0.0
 11
-148.50085
 21
32.9614
 31
0.0
  0
LINE
  5
3AF
330
1F
100
AcDbEntity
  8
一般
  6
CONTINUOUS
 62
     7
100
AcDbLine
 10
-130.70085
 20
28.4614
 30
0.0
 11
-130.70085
 21
27.4614
 31
0.0
  0
LINE
  5
3B0
330
1F
100
AcDbEntity
  8
一般
  6
CONTINUOUS
 62
     7
100
AcDbLine
 10
-130.70085
 20
26.9614
 30
0.0
 11
-130.70085
 21
18.95460000000002
 31
0.0
  0
LINE
  5
3B1
330
1F
100
AcDbEntity
  8
一般
  6
CONTINUOUS
 62
     7
100
AcDbLine
 10
-148.50085
 20
18.95460000000002
 30
0.0
 11
-148.50085
 21
26.9614
 31
0.0
  0
LINE
  5
3B2
330
1F
100
AcDbEntity
  8
一般
  6
CONTINUOUS
 62
     7
100
AcDbLine
 10
-130.45085
 20
27.4614
 30
0.0
 11
-137.96535
 21
27.4614
 31
0.0
  0
LINE
  5
3B3
330
1F
100
AcDbEntity
  8
一般
  6
CONTINUOUS
 62
     7
100
AcDbLine
 10
-180.01855
 20
-26.8933
 30
0.0
 11
-180.01855
 21
-13.92819999999998
 31
0.0
  0
LINE
  5
3B4
330
1F
100
AcDbEntity
  8
一般
  6
CONTINUOUS
 62
     7
100
AcDbLine
 10
-131.51695
 20
-34.4983
 30
0.0
 11
-129.06945
 21
-34.4983
 31
0.0
  0
LINE
  5
3B5
330
1F
100
AcDbEntity
  8
一般
  6
CONTINUOUS
 62
     7
100
AcDbLine
 10
-148.75085
 20
49.9614
 30
0.0
 11
-142.61455
 21
49.9614
 31
0.0
  0
LINE
  5
3B6
330
1F
100
AcDbEntity
  8
一般
  6
CONTINUOUS
 62
     7
100
AcDbLine
 10
-137.01925
 20
51.4614
 30
0.0
 11
-130.45085
 21
51.4614
 31
0.0
  0
LINE
  5
3B7
330
1F
100
AcDbEntity
  8
一般
  6
CONTINUOUS
 62
     7
100
AcDbLine
 10
-130.45085
 20
50.9614
 30
0.0
 11
-136.78785
 21
50.9614
 31
0.0
  0
LINE
  5
3B8
330
1F
100
AcDbEntity
  8
一般
  6
CONTINUOUS
 62
     7
100
AcDbLine
 10
-180.01785
 20
-13.92819999999998
 30
0.0
 11
-173.01925
 21
-13.806
 31
0.0
  0
LINE
  5
3B9
330
1F
100
AcDbEntity
  8
一般
  6
CONTINUOUS
 62
     7
100
AcDbLine
 10
-128.06945
 20
-0.53139999999999
 30
0.0
 11
-128.06945
 21
-33.4983
 31
0.0
  0
LINE
  5
3BA
330
1F
100
AcDbEntity
  8
一般
  6
CONTINUOUS
 62
     7
100
AcDbLine
 10
-130.45085
 20
49.4614
 30
0.0
 11
-136.61765
 21
49.4614
 31
0.0
  0
LINE
  5
3BB
330
1F
100
AcDbEntity
  8
一般
  6
CONTINUOUS
 62
     7
100
AcDbLine
 10
-118.19005
 20
50.6157
 30
0.0
 11
-114.41285
 21
49.6097
 31
0.0
  0
LINE
  5
3BC
330
1F
100
AcDbEntity
  8
一般
  6
CONTINUOUS
 62
     7
100
AcDbLine
 10
-148.50085
 20
48.4614
 30
0.0
 11
-148.50085
 21
49.4614
 31
0.0
  0
LINE
  5
3BD
330
1F
100
AcDbEntity
  8
一般
  6
CONTINUOUS
 62
     7
100
AcDbLine
 10
-148.75085
 20
48.4614
 30
0.0
 11
-142.21535
 21
48.4614
 31
0.0
  0
LINE
  5
3BE
330
1F
100
AcDbEntity
  8
一般
  6
CONTINUOUS
 62
     7
100
AcDbLine
 10
-148.50085
 20
46.9614
 30
0.0
 11
-148.50085
 21
47.9614
 31
0.0
  0
LINE
  5
3BF
330
1F
100
AcDbEntity
  8
一般
  6
CONTINUOUS
 62
     7
100
AcDbLine
 10
-148.75085
 20
28.4614
 30
0.0
 11
-130.45085
 21
28.4614
 31
0.0
  0
LINE
  5
3C0
330
1F
100
AcDbEntity
  8
一般
  6
CONTINUOUS
 62
     7
100
AcDbLine
 10
-130.51695
 20
-26.956
 30
0.0
 11
-130.51695
 21
-33.4983
 31
0.0
  0
LINE
  5
3C1
330
1F
100
AcDbEntity
  8
一般
  6
CONTINUOUS
 62
     7
100
AcDbLine
 10
-131.51695
 20
-34.4983
 30
0.0
 11
-133.51695
 21
-34.4983
 31
0.0
  0
LINE
  5
3C2
330
1F
100
AcDbEntity
  8
一般
  6
CONTINUOUS
 62
     7
100
AcDbLine
 10
-134.01695
 20
-17.04099999999998
 30
0.0
 11
-135.21695
 21
-17.04099999999998
 31
0.0
  0
LINE
  5
3C3
330
1F
100
AcDbEntity
  8
一般
  6
CONTINUOUS
 62
     7
100
AcDbLine
 10
-134.01695
 20
-30.041
 30
0.0
 11
-135.21695
 21
-30.041
 31
0.0
  0
LINE
  5
3C4
330
1F
100
AcDbEntity
  8
一般
  6
CONTINUOUS
 62
     7
100
AcDbLine
 10
-148.75085
 20
43.9614
 30
0.0
 11
-143.85085
 21
43.9614
 31
0.0
  0
LINE
  5
3C5
330
1F
100
AcDbEntity
  8
一般
  6
CONTINUOUS
 62
     7
100
AcDbLine
 10
-148.75085
 20
46.9614
 30
0.0
 11
-141.58435
 21
46.9614
 31
0.0
  0
LINE
  5
3C6
330
1F
100
AcDbEntity
  8
一般
  6
CONTINUOUS
 62
     7
100
AcDbLine
 10
-136.61455
 20
49.9614
 30
0.0
 11
-130.45085
 21
49.9614
 31
0.0
  0
LINE
  5
3C7
330
1F
100
AcDbEntity
  8
一般
  6
CONTINUOUS
 62
     7
100
AcDbLine
 10
-148.50085
 20
51.4614
 30
0.0
 11
-148.50085
 21
52.4614
 31
0.0
  0
LINE
  5
3C8
330
1F
100
AcDbEntity
  8
一般
  6
CONTINUOUS
 62
     7
100
AcDbLine
 10
-140.27095
 20
49.9342
 30
0.0
 11
-138.92625
 21
49.9342
 31
0.0
  0
LINE
  5
3C9
330
1F
100
AcDbEntity
  8
一般
  6
CONTINUOUS
 62
     7
100
AcDbLine
 10
-148.75085
 20
45.4614
 30
0.0
 11
-130.45085
 21
45.4614
 31
0.0
  0
LINE
  5
3CA
330
1F
100
AcDbEntity
  8
一般
  6
CONTINUOUS
 62
     7
100
AcDbLine
 10
-130.45085
 20
33.4614
 30
0.0
 11
-148.75085
 21
33.4614
 31
0.0
  0
LINE
  5
3CB
330
1F
100
AcDbEntity
  8
一般
  6
CONTINUOUS
 62
     7
100
AcDbLine
 10
-148.75085
 20
31.4614
 30
0.0
 11
-130.45085
 21
31.4614
 31
0.0
  0
LINE
  5
3CC
330
1F
100
AcDbEntity
  8
一般
  6
CONTINUOUS
 62
     7
100
AcDbLine
 10
-130.45085
 20
31.9614
 30
0.0
 11
-148.75085
 21
31.9614
 31
0.0
  0
LINE
  5
3CD
330
1F
100
AcDbEntity
  8
一般
  6
CONTINUOUS
 62
     7
100
AcDbLine
 10
-148.75085
 20
29.9614
 30
0.0
 11
-130.45085
 21
29.9614
 31
0.0
  0
LINE
  5
3CE
330
1F
100
AcDbEntity
  8
一般
  6
CONTINUOUS
 62
     7
100
AcDbLine
 10
-138.71505
 20
24.9681
 30
0.0
 11
-140.55255
 21
24.9681
 31
0.0
  0
LINE
  5
3CF
330
1F
100
AcDbEntity
  8
一般
  6
CONTINUOUS
 62
     7
100
AcDbLine
 10
-132.20085
 20
16.95460000000002
 30
0.0
 11
-147.00085
 21
16.95460000000002
 31
0.0
  0
LINE
  5
3D0
330
1F
100
AcDbEntity
  8
一般
  6
CONTINUOUS
 62
     7
100
AcDbLine
 10
-130.45085
 20
34.9614
 30
0.0
 11
-148.75085
 21
34.9614
 31
0.0
  0
LINE
  5
3D1
330
1F
100
AcDbEntity
  8
一般
  6
CONTINUOUS
 62
     7
100
AcDbLine
 10
-131.51695
 20
0.46860000000001
 30
0.0
 11
-129.06945
 21
0.46860000000001
 31
0.0
  0
LINE
  5
3D2
330
1F
100
AcDbEntity
  8
一般
  6
CONTINUOUS
 62
     7
100
AcDbLine
 10
-130.70085
 20
32.9614
 30
0.0
 11
-130.70085
 21
31.9614
 31
0.0
  0
LINE
  5
3D3
330
1F
100
AcDbEntity
  8
一般
  6
CONTINUOUS
 62
     7
100
AcDbLine
 10
-148.75085
 20
51.4614
 30
0.0
 11
-142.20995
 21
51.4614
 31
0.0
  0
LINE
  5
3D4
330
1F
100
AcDbEntity
  8
一般
  6
CONTINUOUS
 62
     7
100
AcDbLine
 10
-142.44135
 20
50.9614
 30
0.0
 11
-148.75085
 21
50.9614
 31
0.0
  0
LINE
  5
3D5
330
1F
100
AcDbEntity
  8
一般
  6
CONTINUOUS
 62
     7
100
AcDbLine
 10
-130.45085
 20
28.9614
 30
0.0
 11
-148.75085
 21
28.9614
 31
0.0
  0
LINE
  5
3D6
330
1F
100
AcDbEntity
  8
一般
  6
CONTINUOUS
 62
     7
100
AcDbLine
 10
-130.70085
 20
38.9614
 30
0.0
 11
-130.70085
 21
37.9614
 31
0.0
  0
LINE
  5
3D7
330
1F
100
AcDbEntity
  8
一般
  6
CONTINUOUS
 62
     7
100
AcDbLine
 10
-130.45085
 20
37.9614
 30
0.0
 11
-148.75085
 21
37.9614
 31
0.0
  0
LINE
  5
3D8
330
1F
100
AcDbEntity
  8
一般
  6
CONTINUOUS
 62
     7
100
AcDbLine
 10
-134.01695
 20
16.95460000000002
 30
0.0
 11
-134.01695
 21
-32.3868
 31
0.0
  0
LINE
  5
3D9
330
1F
100
AcDbEntity
  8
一般
  6
CONTINUOUS
 62
     7
100
AcDbLine
 10
-135.21695
 20
-17.04099999999998
 30
0.0
 11
-135.21695
 21
-30.041
 31
0.0
  0
LINE
  5
3DA
330
1F
100
AcDbEntity
  8
一般
  6
CONTINUOUS
 62
     7
100
AcDbLine
 10
-137.39175
 20
26.9614
 30
0.0
 11
-130.45085
 21
26.9614
 31
0.0
  0
LINE
  5
3DB
330
1F
100
AcDbEntity
  8
一般
  6
CONTINUOUS
 62
     7
100
AcDbLine
 10
-130.45085
 20
30.4614
 30
0.0
 11
-148.75085
 21
30.4614
 31
0.0
  0
LINE
  5
3DC
330
1F
100
AcDbEntity
  8
一般
  6
CONTINUOUS
 62
     7
100
AcDbLine
 10
-135.35085
 20
40.9614
 30
0.0
 11
-130.45085
 21
40.9614
 31
0.0
  0
LINE
  5
3DD
330
1F
100
AcDbEntity
  8
一般
  6
CONTINUOUS
 62
     7
100
AcDbLine
 10
-149.00085
 20
60.9681
 30
0.0
 11
-149.00085
 21
18.95460000000002
 31
0.0
  0
LINE
  5
3DE
330
1F
100
AcDbEntity
  8
一般
  6
CONTINUOUS
 62
     7
100
AcDbLine
 10
-130.70085
 20
35.9614
 30
0.0
 11
-130.70085
 21
34.9614
 31
0.0
  0
LINE
  5
3DF
330
1F
100
AcDbEntity
  8
一般
  6
CONTINUOUS
 62
     7
100
AcDbLine
 10
-130.70085
 20
34.4614
 30
0.0
 11
-130.70085
 21
33.4614
 31
0.0
  0
LINE
  5
3E0
330
1F
100
AcDbEntity
  8
一般
  6
CONTINUOUS
 62
     7
100
AcDbLine
 10
-148.75085
 20
35.9614
 30
0.0
 11
-130.45085
 21
35.9614
 31
0.0
  0
LINE
  5
3E1
330
1F
100
AcDbEntity
  8
一般
  6
CONTINUOUS
 62
     7
100
AcDbLine
 10
-130.45085
 20
43.4614
 30
0.0
 11
-135.35085
 21
43.4614
 31
0.0
  0
LINE
  5
3E2
330
1F
100
AcDbEntity
  8
一般
  6
CONTINUOUS
 62
     7
100
AcDbLine
 10
-173.01925
 20
-26.9806
 30
0.0
 11
-180.01855
 21
-26.8933
 31
0.0
  0
LINE
  5
3E3
330
1F
100
AcDbEntity
  8
一般
  6
CONTINUOUS
 62
     7
100
AcDbLine
 10
-143.85085
 20
43.4614
 30
0.0
 11
-148.75085
 21
43.4614
 31
0.0
  0
LINE
  5
3E4
330
1F
100
AcDbEntity
  8
一般
  6
CONTINUOUS
 62
     7
100
AcDbLine
 10
-130.45085
 20
39.4614
 30
0.0
 11
-148.75085
 21
39.4614
 31
0.0
  0
LINE
  5
3E5
330
1F
100
AcDbEntity
  8
一般
  6
CONTINUOUS
 62
     7
100
AcDbLine
 10
-130.70085
 20
31.4614
 30
0.0
 11
-130.70085
 21
30.4614
 31
0.0
  0
LINE
  5
3E6
330
1F
100
AcDbEntity
  8
一般
  6
CONTINUOUS
 62
     7
100
AcDbLine
 10
-130.70085
 20
29.9614
 30
0.0
 11
-130.70085
 21
28.9614
 31
0.0
  0
LINE
  5
3E7
330
1F
100
AcDbEntity
  8
一般
  6
CONTINUOUS
 62
     7
100
AcDbLine
 10
-148.75085
 20
26.9614
 30
0.0
 11
-141.87595
 21
26.9614
 31
0.0
  0
LINE
  5
3E8
330
1F
100
AcDbEntity
  8
一般
  6
CONTINUOUS
 62
     7
100
AcDbLine
 10
-141.30225
 20
27.4614
 30
0.0
 11
-148.75085
 21
27.4614
 31
0.0
  0
LINE
  5
3E9
330
1F
100
AcDbEntity
  8
一般
  6
CONTINUOUS
 62
     7
100
AcDbLine
 10
-130.45085
 20
41.9614
 30
0.0
 11
-135.35085
 21
41.9614
 31
0.0
  0
LINE
  5
3EA
330
1F
100
AcDbEntity
  8
一般
  6
CONTINUOUS
 62
     7
100
AcDbLine
 10
-130.70085
 20
43.4614
 30
0.0
 11
-130.70085
 21
42.4614
 31
0.0
  0
LINE
  5
3EB
330
1F
100
AcDbEntity
  8
一般
  6
CONTINUOUS
 62
     7
100
AcDbLine
 10
-143.85085
 20
41.9614
 30
0.0
 11
-148.75085
 21
41.9614
 31
0.0
  0
LINE
  5
3EC
330
1F
100
AcDbEntity
  8
一般
  6
CONTINUOUS
 62
     7
100
AcDbLine
 10
-148.75085
 20
42.4614
 30
0.0
 11
-143.85085
 21
42.4614
 31
0.0
  0
LINE
  5
3ED
330
1F
100
AcDbEntity
  8
一般
  6
CONTINUOUS
 62
     7
100
AcDbLine
 10
-139.60085
 20
24.2071
 30
0.0
 11
-139.60085
 21
25.6842
 31
0.0
  0
LINE
  5
3EE
330
1F
100
AcDbEntity
  8
一般
  6
CONTINUOUS
 62
     7
100
AcDbLine
 10
-148.50085
 20
28.9614
 30
0.0
 11
-148.50085
 21
29.9614
 31
0.0
  0
LINE
  5
3EF
330
1F
100
AcDbEntity
  8
一般
  6
CONTINUOUS
 62
     7
100
AcDbLine
 10
-148.50085
 20
30.4614
 30
0.0
 11
-148.50085
 21
31.4614
 31
0.0
  0
LINE
  5
3F0
330
1F
100
AcDbEntity
  8
一般
  6
CONTINUOUS
 62
     7
100
AcDbLine
 10
-148.50085
 20
27.4614
 30
0.0
 11
-148.50085
 21
28.4614
 31
0.0
  0
LINE
  5
3F1
330
1F
100
AcDbEntity
  8
一般
  6
CONTINUOUS
 62
     7
100
AcDbLine
 10
-148.50085
 20
33.4614
 30
0.0
 11
-148.50085
 21
34.4614
 31
0.0
  0
LINE
  5
3F2
330
1F
100
AcDbEntity
  8
一般
  6
CONTINUOUS
 62
     7
100
AcDbLine
 10
-130.70085
 20
41.9614
 30
0.0
 11
-130.70085
 21
40.9614
 31
0.0
  0
LINE
  5
3F3
330
1F
100
AcDbEntity
  8
一般
  6
CONTINUOUS
 62
     7
100
AcDbLine
 10
-148.50085
 20
40.9614
 30
0.0
 11
-148.50085
 21
41.9614
 31
0.0
  0
LINE
  5
3F4
330
1F
100
AcDbEntity
  8
一般
  6
CONTINUOUS
 62
     7
100
AcDbLine
 10
-148.75085
 20
40.9614
 30
0.0
 11
-143.85085
 21
40.9614
 31
0.0
  0
LINE
  5
3F5
330
1F
100
AcDbEntity
  8
一般
  6
CONTINUOUS
 62
     7
100
AcDbLine
 10
-148.50085
 20
36.4614
 30
0.0
 11
-148.50085
 21
37.4614
 31
0.0
  0
LINE
  5
3F6
330
1F
100
AcDbEntity
  8
一般
  6
CONTINUOUS
 62
     7
100
AcDbLine
 10
-135.35085
 20
42.4614
 30
0.0
 11
-130.45085
 21
42.4614
 31
0.0
  0
LINE
  5
3F7
330
1F
100
AcDbEntity
  8
一般
  6
CONTINUOUS
 62
     7
100
AcDbLine
 10
-130.20085
 20
18.95460000000002
 30
0.0
 11
-130.20085
 21
60.9681
 31
0.0
  0
LINE
  5
3F8
330
1F
100
AcDbEntity
  8
一般
  6
CONTINUOUS
 62
     7
100
AcDbLine
 10
-130.70085
 20
40.4614
 30
0.0
 11
-130.70085
 21
39.4614
 31
0.0
  0
LINE
  5
3F9
330
1F
100
AcDbEntity
  8
一般
  6
CONTINUOUS
 62
     7
100
AcDbLine
 10
-132.20085
 20
17.45460000000002
 30
0.0
 11
-147.00085
 21
17.45460000000002
 31
0.0
  0
LINE
  5
3FA
330
1F
100
AcDbEntity
  8
一般
  6
CONTINUOUS
 62
     7
100
AcDbLine
 10
-130.45085
 20
36.4614
 30
0.0
 11
-148.75085
 21
36.4614
 31
0.0
  0
LINE
  5
3FB
330
1F
100
AcDbEntity
  8
一般
  6
CONTINUOUS
 62
     7
100
AcDbLine
 10
-148.75085
 20
34.4614
 30
0.0
 11
-130.45085
 21
34.4614
 31
0.0
  0
LINE
  5
3FC
330
1F
100
AcDbEntity
  8
一般
  6
CONTINUOUS
 62
     7
100
AcDbLine
 10
-148.50085
 20
34.9614
 30
0.0
 11
-148.50085
 21
35.9614
 31
0.0
  0
LINE
  5
3FD
330
1F
100
AcDbEntity
  8
一般
  6
CONTINUOUS
 62
     7
100
AcDbLine
 10
-148.50085
 20
39.4614
 30
0.0
 11
-148.50085
 21
40.4614
 31
0.0
  0
LINE
  5
3FE
330
1F
100
AcDbEntity
  8
一般
  6
CONTINUOUS
 62
     7
100
AcDbLine
 10
-116.52435
 20
47.7027
 30
0.0
 11
-116.52435
 21
-20.3533
 31
0.0
  0
LINE
  5
3FF
330
1F
100
AcDbEntity
  8
一般
  6
CONTINUOUS
 62
     7
100
AcDbLine
 10
-114.19015
 20
-18.079
 30
0.0
 11
-114.19015
 21
49.3198
 31
0.0
  0
LINE
  5
400
330
1F
100
AcDbEntity
  8
一般
  6
CONTINUOUS
 62
     7
100
AcDbLine
 10
-147.21795
 20
-30.041
 30
0.0
 11
-147.21795
 21
16.9664
 31
0.0
  0
LINE
  5
401
330
1F
100
AcDbEntity
  8
一般
  6
CONTINUOUS
 62
     7
100
AcDbLine
 10
-180.04135
 20
-13.07929999999998
 30
0.0
 11
-180.04135
 21
-3.92819999999998
 31
0.0
  0
LINE
  5
402
330
1F
100
AcDbEntity
  8
一般
  6
CONTINUOUS
 62
     7
100
AcDbLine
 10
-130.70085
 20
37.4614
 30
0.0
 11
-130.70085
 21
36.4614
 31
0.0
  0
LINE
  5
403
330
1F
100
AcDbEntity
  8
一般
  6
CONTINUOUS
 62
     7
100
AcDbLine
 10
-130.70085
 20
44.9614
 30
0.0
 11
-130.70085
 21
43.9614
 31
0.0
  0
LINE
  5
404
330
1F
100
AcDbEntity
  8
一般
  6
CONTINUOUS
 62
     7
100
AcDbLine
 10
-148.50085
 20
43.9614
 30
0.0
 11
-148.50085
 21
44.9614
 31
0.0
  0
LINE
  5
405
330
1F
100
AcDbEntity
  8
一般
  6
CONTINUOUS
 62
     7
100
AcDbLine
 10
-130.45085
 20
44.9614
 30
0.0
 11
-148.75085
 21
44.9614
 31
0.0
  0
LINE
  5
406
330
1F
100
AcDbEntity
  8
一般
  6
CONTINUOUS
 62
     7
100
AcDbLine
 10
-148.50085
 20
37.9614
 30
0.0
 11
-148.50085
 21
38.9614
 31
0.0
  0
LINE
  5
407
330
1F
100
AcDbEntity
  8
一般
  6
CONTINUOUS
 62
     7
100
AcDbLine
 10
-148.75085
 20
38.9614
 30
0.0
 11
-130.45085
 21
38.9614
 31
0.0
  0
LINE
  5
408
330
1F
100
AcDbEntity
  8
一般
  6
CONTINUOUS
 62
     7
100
AcDbLine
 10
-135.35085
 20
43.9614
 30
0.0
 11
-130.45085
 21
43.9614
 31
0.0
  0
LINE
  5
409
330
1F
100
AcDbEntity
  8
一般
  6
CONTINUOUS
 62
     7
100
AcDbLine
 10
-143.85085
 20
40.4614
 30
0.0
 11
-148.75085
 21
40.4614
 31
0.0
  0
LINE
  5
40A
330
1F
100
AcDbEntity
  8
一般
  6
CONTINUOUS
 62
     7
100
AcDbLine
 10
-130.45085
 20
40.4614
 30
0.0
 11
-135.35085
 21
40.4614
 31
0.0
  0
LINE
  5
40B
330
1F
100
AcDbEntity
  8
一般
  6
CONTINUOUS
 62
     7
100
AcDbLine
 10
-148.50085
 20
42.4614
 30
0.0
 11
-148.50085
 21
43.4614
 31
0.0
  0
LINE
  5
40C
330
1F
100
AcDbEntity
  8
一般
  6
CONTINUOUS
 62
     7
100
AcDbLine
 10
180.96425
 20
238.3109
 30
0.0
 11
180.96425
 21
231.8109
 31
0.0
  0
LINE
  5
40D
330
1F
100
AcDbEntity
  8
一般
  6
CONTINUOUS
 62
     7
100
AcDbLine
 10
182.95545
 20
231.8109
 30
0.0
 11
183.44675
 21
231.8109
 31
0.0
  0
LINE
  5
40E
330
1F
100
AcDbEntity
  8
一般
  6
CONTINUOUS
 62
     7
100
AcDbLine
 10
45.24845
 20
231.8108
 30
0.0
 11
45.24845
 21
238.3108
 31
0.0
  0
LINE
  5
40F
330
1F
100
AcDbEntity
  8
一般
  6
CONTINUOUS
 62
     7
100
AcDbLine
 10
54.17565
 20
53.4578
 30
0.0
 11
172.17565
 21
53.4578
 31
0.0
  0
LINE
  5
410
330
1F
100
AcDbEntity
  8
一般
  6
CONTINUOUS
 62
     7
100
AcDbLine
 10
166.17165
 20
56.4578
 30
0.0
 11
60.17165
 21
56.4578
 31
0.0
  0
LINE
  5
411
330
1F
100
AcDbEntity
  8
一般
  6
CONTINUOUS
 62
     7
100
AcDbLine
 10
54.17165
 20
53.4578
 30
0.0
 11
172.17165
 21
53.4578
 31
0.0
  0
LINE
  5
412
330
1F
100
AcDbEntity
  8
一般
  6
CONTINUOUS
 62
     7
100
AcDbLine
 10
54.17145
 20
52.4578
 30
0.0
 11
172.17185
 21
52.4578
 31
0.0
  0
LINE
  5
413
330
1F
100
AcDbEntity
  8
一般
  6
CONTINUOUS
 62
     7
100
AcDbLine
 10
54.17545
 20
52.4578
 30
0.0
 11
172.17585
 21
52.4578
 31
0.0
  0
LINE
  5
414
330
1F
100
AcDbEntity
  8
一般
  6
CONTINUOUS
 62
     7
100
AcDbLine
 10
54.17565
 20
99.4578
 30
0.0
 11
172.17565
 21
99.4578
 31
0.0
  0
LINE
  5
415
330
1F
100
AcDbEntity
  8
一般
  6
CONTINUOUS
 62
     7
100
AcDbLine
 10
54.17165
 20
99.4578
 30
0.0
 11
172.17165
 21
99.4578
 31
0.0
  0
LINE
  5
416
330
1F
100
AcDbEntity
  8
一般
  6
CONTINUOUS
 62
     7
100
AcDbLine
 10
54.17545
 20
100.4578
 30
0.0
 11
172.17585
 21
100.4578
 31
0.0
  0
LINE
  5
417
330
1F
100
AcDbEntity
  8
一般
  6
CONTINUOUS
 62
     7
100
AcDbLine
 10
43.00885
 20
240.8108
 30
0.0
 11
191.34615
 21
240.8108
 31
0.0
  0
LINE
  5
418
330
1F
100
AcDbEntity
  8
一般
  6
CONTINUOUS
 62
     7
100
AcDbLine
 10
-116.52435
 20
-20.3533
 30
0.0
 11
-116.52435
 21
-37.1634
 31
0.0
  0
LINE
  5
419
330
1F
100
AcDbEntity
  8
一般
  6
CONTINUOUS
 62
     7
100
AcDbLine
 10
-147.21795
 20
-37.5219
 30
0.0
 11
-147.21795
 21
-30.041
 31
0.0
  0
LINE
  5
41A
330
1F
100
AcDbEntity
  8
一般
  6
CONTINUOUS
 62
     7
100
AcDbLine
 10
-147.21795
 20
-37.5219
 30
0.0
 11
-171.15315
 21
-37.1042
 31
0.0
  0
LINE
  5
41B
330
1F
100
AcDbEntity
  8
一般
  6
CONTINUOUS
 62
     7
100
AcDbLine
 10
96.12745
 20
231.8109
 30
0.0
 11
96.12745
 21
234.3109
 31
0.0
  0
LINE
  5
41C
330
1F
100
AcDbEntity
  8
一般
  6
CONTINUOUS
 62
     7
100
AcDbLine
 10
100.92745
 20
231.8109
 30
0.0
 11
96.12745
 21
231.8109
 31
0.0
  0
LINE
  5
41D
330
1F
100
AcDbEntity
  8
一般
  6
CONTINUOUS
 62
     7
100
AcDbLine
 10
115.64835
 20
231.8108
 30
0.0
 11
110.84835
 21
231.8108
 31
0.0
  0
LINE
  5
41E
330
1F
100
AcDbEntity
  8
一般
  6
CONTINUOUS
 62
     7
100
AcDbLine
 10
110.84835
 20
231.8108
 30
0.0
 11
110.84835
 21
234.3108
 31
0.0
  0
LINE
  5
41F
330
1F
100
AcDbEntity
  8
一般
  6
CONTINUOUS
 62
     7
100
AcDbLine
 10
115.64835
 20
234.3108
 30
0.0
 11
115.64835
 21
231.8108
 31
0.0
  0
LINE
  5
420
330
1F
100
AcDbEntity
  8
一般
  6
CONTINUOUS
 62
     7
100
AcDbLine
 10
102.24835
 20
231.8108
 30
0.0
 11
124.24835
 21
231.8108
 31
0.0
  0
LINE
  5
421
330
1F
100
AcDbEntity
  8
一般
  6
CONTINUOUS
 62
     7
100
AcDbLine
 10
102.17745
 20
231.8109
 30
0.0
 11
124.17745
 21
231.8109
 31
0.0
  0
LINE
  5
422
330
1F
100
AcDbEntity
  8
一般
  6
CONTINUOUS
 62
     7
100
AcDbLine
 10
96.92745
 20
234.3109
 30
0.0
 11
96.92745
 21
231.8109
 31
0.0
  0
LINE
  5
423
330
1F
100
AcDbEntity
  8
一般
  6
CONTINUOUS
 62
     7
100
AcDbLine
 10
125.42745
 20
231.8109
 30
0.0
 11
130.22745
 21
231.8109
 31
0.0
  0
LINE
  5
424
330
1F
100
AcDbEntity
  8
一般
  6
CONTINUOUS
 62
     7
100
AcDbLine
 10
129.42745
 20
234.3109
 30
0.0
 11
129.42745
 21
231.8109
 31
0.0
  0
LINE
  5
425
330
1F
100
AcDbEntity
  8
一般
  6
CONTINUOUS
 62
     7
100
AcDbLine
 10
130.22745
 20
231.8109
 30
0.0
 11
130.22745
 21
234.3109
 31
0.0
  0
LINE
  5
426
330
1F
100
AcDbEntity
  8
一般
  6
CONTINUOUS
 62
     7
100
AcDbLine
 10
96.12745
 20
234.3109
 30
0.0
 11
96.92745
 21
234.3109
 31
0.0
  0
LINE
  5
427
330
1F
100
AcDbEntity
  8
一般
  6
CONTINUOUS
 62
     7
100
AcDbLine
 10
110.84835
 20
234.3108
 30
0.0
 11
115.64835
 21
234.3108
 31
0.0
  0
LINE
  5
428
330
1F
100
AcDbEntity
  8
一般
  6
CONTINUOUS
 62
     7
100
AcDbLine
 10
96.92745
 20
234.3109
 30
0.0
 11
96.92745
 21
238.3109
 31
0.0
  0
LINE
  5
429
330
1F
100
AcDbEntity
  8
一般
  6
CONTINUOUS
 62
     7
100
AcDbLine
 10
130.22745
 20
234.3109
 30
0.0
 11
129.42745
 21
234.3109
 31
0.0
  0
LINE
  5
42A
330
1F
100
AcDbEntity
  8
一般
  6
CONTINUOUS
 62
     7
100
AcDbLine
 10
129.42745
 20
234.3109
 30
0.0
 11
129.42745
 21
238.3109
 31
0.0
  0
LINE
  5
42B
330
1F
100
AcDbEntity
  8
一般
  6
CONTINUOUS
 62
     7
100
AcDbLine
 10
185.44675
 20
231.8109
 30
0.0
 11
189.44675
 21
231.8109
 31
0.0
  0
LINE
  5
42C
330
1F
100
AcDbEntity
  8
一般
  6
CONTINUOUS
 62
     7
100
AcDbLine
 10
180.96425
 20
231.8109
 30
0.0
 11
193.96425
 21
231.8109
 31
0.0
  0
LINE
  5
42D
330
1F
100
AcDbEntity
  8
一般
  6
CONTINUOUS
 62
     7
100
AcDbLine
 10
183.44675
 20
231.8109
 30
0.0
 11
191.44675
 21
231.8109
 31
0.0
  0
LINE
  5
42E
330
1F
100
AcDbEntity
  8
一般
  6
CONTINUOUS
 62
     7
100
AcDbLine
 10
191.93805
 20
231.8109
 30
0.0
 11
191.44675
 21
231.8109
 31
0.0
  0
LINE
  5
42F
330
1F
100
AcDbEntity
  8
一般
  6
CONTINUOUS
 62
     7
100
AcDbLine
 10
193.96425
 20
231.8109
 30
0.0
 11
193.96425
 21
238.3109
 31
0.0
  0
LINE
  5
430
330
1F
100
AcDbEntity
  8
一般
  6
CONTINUOUS
 62
     7
100
AcDbLine
 10
-147.21795
 20
-40.0138
 30
0.0
 11
-147.21795
 21
-37.5219
 31
0.0
  0
LINE
  5
431
330
1F
100
AcDbEntity
  8
一般
  6
CONTINUOUS
 62
     7
100
AcDbLine
 10
-133.51695
 20
16.95460000000002
 30
0.0
 11
-133.51695
 21
-40.7349
 31
0.0
  0
LINE
  5
432
330
1F
100
AcDbEntity
  8
一般
  6
CONTINUOUS
 62
     7
100
AcDbLine
 10
-134.01695
 20
-40.7349
 30
0.0
 11
-134.01695
 21
16.95460000000002
 31
0.0
  0
LINE
  5
433
330
1F
100
AcDbEntity
  8
一般
  6
CONTINUOUS
 62
     7
100
AcDbLine
 10
-134.01695
 20
-24.0386
 30
0.0
 11
-134.01695
 21
-40.7349
 31
0.0
  0
LINE
  5
434
330
1F
100
AcDbEntity
  8
一般
  6
CONTINUOUS
 62
     7
100
AcDbLine
 10
-133.51695
 20
-40.7349
 30
0.0
 11
-134.01695
 21
-40.7349
 31
0.0
  0
LINE
  5
435
330
1F
100
AcDbEntity
  8
一般
  6
CONTINUOUS
 62
     7
100
AcDbLine
 10
-134.01695
 20
-40.7349
 30
0.0
 11
-171.12395
 21
-40.0884
 31
0.0
  0
LINE
  5
436
330
1F
100
AcDbEntity
  8
一般
  6
CONTINUOUS
 62
     7
100
AcDbLine
 10
-134.01695
 20
-39.7292
 30
0.0
 11
-134.01695
 21
-40.7349
 31
0.0
  0
LINE
  5
437
330
1F
100
AcDbEntity
  8
一般
  6
CONTINUOUS
 62
     7
100
AcDbLine
 10
-133.51655
 20
-40.7349
 30
0.0
 11
-115.61155
 21
-39.7966
 31
0.0
  0
LINE
  5
438
330
1F
100
AcDbEntity
  8
一般
  6
CONTINUOUS
 62
     7
100
AcDbLine
 10
-134.01695
 20
-39.7292
 30
0.0
 11
-134.01695
 21
-40.7349
 31
0.0
  0
LINE
  5
439
330
1F
100
AcDbEntity
  8
一般
  6
CONTINUOUS
 62
     7
100
AcDbLine
 10
-181.54205
 20
-38.0695
 30
0.0
 11
-189.04205
 21
-38.0695
 31
0.0
  0
LINE
  5
43A
330
1F
100
AcDbEntity
  8
一般
  6
CONTINUOUS
 62
     7
100
AcDbLine
 10
-180.04205
 20
-38.0695
 30
0.0
 11
-181.54205
 21
-38.0695
 31
0.0
  0
LINE
  5
43B
330
1F
100
AcDbEntity
  8
一般
  6
CONTINUOUS
 62
     7
100
AcDbLine
 10
7.15975
 20
206.016
 30
0.0
 11
8.41255
 21
229.922
 31
0.0
  0
LINE
  5
43C
330
1F
100
AcDbEntity
  8
一般
  6
CONTINUOUS
 62
     7
100
AcDbLine
 10
10.40985
 20
231.8174
 30
0.0
 11
15.67245000000002
 21
231.8153
 31
0.0
  0
LINE
  5
43D
330
1F
100
AcDbEntity
  8
一般
  6
CONTINUOUS
 62
     7
100
AcDbLine
 10
219.18635
 20
206.0096
 30
0.0
 11
217.93135
 21
229.9158
 31
0.0
  0
LINE
  5
43E
330
1F
100
AcDbEntity
  8
一般
  6
CONTINUOUS
 62
     7
100
AcDbLine
 10
9.97905
 20
247.8108
 30
0.0
 11
31.04105
 21
247.8108
 31
0.0
  0
LINE
  5
43F
330
1F
100
AcDbEntity
  8
一般
  6
CONTINUOUS
 62
     7
100
AcDbLine
 10
32.24845
 20
238.3108
 30
0.0
 11
32.24845
 21
231.8108
 31
0.0
  0
LINE
  5
440
330
1F
100
AcDbEntity
  8
一般
  6
DOTTED
 62
     2
100
AcDbLine
 10
211.40225
 20
111.9305
 30
0.0
 11
14.95275
 21
111.9305
 31
0.0
  0
LINE
  5
441
330
1F
100
AcDbEntity
  8
一般
  6
CONTINUOUS
 62
     7
100
AcDbLine
 10
3.17535000000002
 20
192.8085
 30
0.0
 11
223.14915
 21
192.8085
 31
0.0
  0
LINE
  5
442
330
1F
100
AcDbEntity
  8
一般
  6
CONTINUOUS
 62
     7
100
AcDbLine
 10
3.17385000000002
 20
103.523
 30
0.0
 11
223.17075
 21
103.523
 31
0.0
  0
LINE
  5
443
330
1F
100
AcDbEntity
  8
一般
  6
CONTINUOUS
 62
     7
100
AcDbLine
 10
4.66765
 20
120.6577
 30
0.0
 11
221.67565
 21
120.6577
 31
0.0
  0
LINE
  5
444
330
1F
100
AcDbEntity
  8
一般
  6
CONTINUOUS
 62
     7
100
AcDbLine
 10
4.34165000000002
 20
206.0095
 30
0.0
 11
213.68635
 21
206.0095
 31
0.0
  0
LINE
  5
445
330
1F
100
AcDbEntity
  8
一般
  6
CONTINUOUS
 62
     7
100
AcDbLine
 10
6.07975
 20
192.8085
 30
0.0
 11
223.17885
 21
192.8085
 31
0.0
  0
LINE
  5
446
330
1F
100
AcDbEntity
  8
一般
  6
CONTINUOUS
 62
     7
100
AcDbLine
 10
3.17535000000002
 20
192.3085
 30
0.0
 11
223.14915
 21
192.3085
 31
0.0
  0
LINE
  5
447
330
1F
100
AcDbEntity
  8
一般
  6
CONTINUOUS
 62
     7
100
AcDbLine
 10
32.24845
 20
231.8108
 30
0.0
 11
45.24845
 21
231.8108
 31
0.0
  0
LINE
  5
448
330
1F
100
AcDbEntity
  8
一般
  6
CONTINUOUS
 62
     7
100
AcDbLine
 10
44.74845
 20
238.8108
 30
0.0
 11
32.74845
 21
238.8108
 31
0.0
  0
LINE
  5
449
330
1F
100
AcDbEntity
  8
一般
  6
CONTINUOUS
 62
     7
100
AcDbLine
 10
215.93405
 20
231.811
 30
0.0
 11
16.19605000000002
 21
231.8108
 31
0.0
  0
LINE
  5
44A
330
1F
100
AcDbEntity
  8
一般
  6
CONTINUOUS
 62
     7
100
AcDbLine
 10
34.05285
 20
238.8111
 30
0.0
 11
44.90885
 21
238.811
 31
0.0
  0
LINE
  5
44B
330
1F
100
AcDbEntity
  8
一般
  6
CONTINUOUS
 62
     7
100
AcDbLine
 10
34.04105
 20
238.811
 30
0.0
 11
164.19555
 21
238.8108
 31
0.0
  0
LINE
  5
44C
330
1F
100
AcDbEntity
  8
一般
  6
CONTINUOUS
 62
     7
100
AcDbLine
 10
34.04105
 20
240.8108
 30
0.0
 11
43.00885
 21
240.8108
 31
0.0
  0
LINE
  5
44D
330
1F
100
AcDbEntity
  8
一般
  6
CONTINUOUS
 62
     7
100
AcDbLine
 10
-134.01695
 20
-39.7349
 30
0.0
 11
-134.01695
 21
-37.7349
 31
0.0
  0
LINE
  5
44E
330
1F
100
AcDbEntity
  8
一般
  6
CONTINUOUS
 62
     7
100
AcDbLine
 10
-114.19015
 20
-38.2986
 30
0.0
 11
-114.19015
 21
-18.079
 31
0.0
  0
LINE
  5
44F
330
1F
100
AcDbEntity
  8
一般
  6
CONTINUOUS
 62
     7
100
AcDbLine
 10
-180.01925
 20
74.0935
 30
0.0
 11
-180.01925
 21
107.0936
 31
0.0
  0
LINE
  5
450
330
1F
100
AcDbEntity
  8
一般
  6
DOTTED
 62
     2
100
AcDbLine
 10
14.95275
 20
-38.0695
 30
0.0
 11
211.40225
 21
-38.0695
 31
0.0
  0
LINE
  5
451
330
1F
100
AcDbEntity
  8
一般
  6
CONTINUOUS
 62
     7
100
AcDbLine
 10
221.67065
 20
-40.7349
 30
0.0
 11
4.66255000000002
 21
-40.7349
 31
0.0
  0
LINE
  5
452
330
1F
100
AcDbEntity
  8
一般
  6
CONTINUOUS
 62
     7
100
AcDbLine
 10
223.17075
 20
49.3925
 30
0.0
 11
3.17385000000002
 21
49.3925
 31
0.0
  0
LINE
  5
453
330
1F
100
AcDbEntity
  8
一般
  6
CONTINUOUS
 62
     7
100
AcDbLine
 10
33.54105
 20
245.3108
 30
0.0
 11
33.54105
 21
241.3108
 31
0.0
  0
LINE
  5
454
330
1F
100
AcDbEntity
  8
一般
  6
CONTINUOUS
 62
     7
100
AcDbLine
 10
9.97905
 20
245.8108
 30
0.0
 11
31.04105
 21
245.8108
 31
0.0
  0
LINE
  5
455
330
1F
100
AcDbEntity
  8
一般
  6
CONTINUOUS
 62
     7
100
AcDbLine
 10
31.54105
 20
245.3108
 30
0.0
 11
31.54105
 21
241.311
 31
0.0
  0
LINE
  5
456
330
1F
100
AcDbEntity
  8
一般
  6
CONTINUOUS
 62
     7
100
AcDbLine
 10
230.16885
 20
89.7052
 30
0.0
 11
223.17475
 21
89.7052
 31
0.0
  0
LINE
  5
457
330
1F
100
AcDbEntity
  8
一般
  6
CONTINUOUS
 62
     7
100
AcDbLine
 10
169.17165
 20
93.4578
 30
0.0
 11
169.17165
 21
59.4578
 31
0.0
  0
LINE
  5
458
330
1F
100
AcDbEntity
  8
一般
  6
CONTINUOUS
 62
     7
100
AcDbLine
 10
57.17165
 20
59.4578
 30
0.0
 11
57.17165
 21
93.4578
 31
0.0
  0
LINE
  5
459
330
1F
100
AcDbEntity
  8
一般
  6
CONTINUOUS
 62
     7
100
AcDbLine
 10
-180.04205
 20
84.0935
 30
0.0
 11
-180.04205
 21
111.9305
 31
0.0
  0
LINE
  5
45A
330
1F
100
AcDbEntity
  8
一般
  6
CONTINUOUS
 62
     7
100
AcDbLine
 10
-187.04205
 20
111.9305
 30
0.0
 11
-187.04205
 21
-38.0695
 31
0.0
  0
LINE
  5
45B
330
1F
100
AcDbEntity
  8
一般
  6
CONTINUOUS
 62
     7
100
AcDbLine
 10
-189.04205
 20
111.9032
 30
0.0
 11
-189.04205
 21
-38.0968
 31
0.0
  0
LINE
  5
45C
330
1F
100
AcDbEntity
  8
一般
  6
CONTINUOUS
 62
     7
100
AcDbLine
 10
-180.04205
 20
111.9305
 30
0.0
 11
-180.04205
 21
-38.0695
 31
0.0
  0
LINE
  5
45D
330
1F
100
AcDbEntity
  8
一般
  6
DOTTED
 62
     2
100
AcDbLine
 10
31.51475
 20
111.9305
 30
0.0
 11
31.51475
 21
-38.0695
 31
0.0
  0
LINE
  5
45E
330
1F
100
AcDbEntity
  8
一般
  6
DOTTED
 62
     2
100
AcDbLine
 10
9.95275
 20
-33.0695
 30
0.0
 11
9.95275
 21
106.9305
 31
0.0
  0
LINE
  5
45F
330
1F
100
AcDbEntity
  8
一般
  6
CONTINUOUS
 62
     7
100
AcDbLine
 10
-118.19005
 20
101.6157
 30
0.0
 11
-118.19005
 21
50.6157
 31
0.0
  0
LINE
  5
460
330
1F
100
AcDbEntity
  8
一般
  6
CONTINUOUS
 62
     7
100
AcDbLine
 10
-133.51695
 20
120.6577
 30
0.0
 11
-133.51695
 21
62.9681
 31
0.0
  0
LINE
  5
461
330
1F
100
AcDbEntity
  8
一般
  6
CONTINUOUS
 62
     7
100
AcDbLine
 10
-147.21795
 20
62.9563
 30
0.0
 11
-147.21795
 21
119.4914
 31
0.0
  0
LINE
  5
462
330
1F
100
AcDbEntity
  8
一般
  6
CONTINUOUS
 62
     7
100
AcDbLine
 10
-180.01925
 20
97.0761
 30
0.0
 11
-180.01925
 21
84.111
 31
0.0
  0
LINE
  5
463
330
1F
100
AcDbEntity
  8
一般
  6
CONTINUOUS
 62
     7
100
AcDbLine
 10
-173.01925
 20
107.0936
 30
0.0
 11
-173.01925
 21
74.0935
 31
0.0
  0
LINE
  5
464
330
1F
100
AcDbEntity
  8
一般
  6
CONTINUOUS
 62
     7
100
AcDbLine
 10
3.17545
 20
-39.2349
 30
0.0
 11
3.16765
 21
119.1577
 31
0.0
  0
LINE
  5
465
330
1F
100
AcDbEntity
  8
一般
  6
CONTINUOUS
 62
     7
100
AcDbLine
 10
-173.01925
 20
-38.0911
 30
0.0
 11
-173.01925
 21
94.5032
 31
0.0
  0
LINE
  5
466
330
1F
100
AcDbEntity
  8
一般
  6
CONTINUOUS
 62
     7
100
AcDbLine
 10
60.17165
 20
96.4578
 30
0.0
 11
166.17165
 21
96.4578
 31
0.0
  0
LINE
  5
467
330
1F
100
AcDbEntity
  8
一般
  6
CONTINUOUS
 62
     7
100
AcDbLine
 10
-173.01995
 20
97.1634
 30
0.0
 11
-180.01925
 21
97.0761
 31
0.0
  0
LINE
  5
468
330
1F
100
AcDbEntity
  8
一般
  6
DOTTED
 62
     2
100
AcDbLine
 10
194.84035
 20
111.9305
 30
0.0
 11
194.84035
 21
-38.0695
 31
0.0
  0
LINE
  5
469
330
1F
100
AcDbEntity
  8
一般
  6
DOTTED
 62
     2
100
AcDbLine
 10
216.40225
 20
-33.0695
 30
0.0
 11
216.40225
 21
106.9305
 31
0.0
  0
LINE
  5
46A
330
1F
100
AcDbEntity
  8
一般
  6
CONTINUOUS
 62
     7
100
AcDbLine
 10
173.17565
 20
98.4578
 30
0.0
 11
173.17565
 21
54.4578
 31
0.0
  0
LINE
  5
46B
330
1F
100
AcDbEntity
  8
一般
  6
CONTINUOUS
 62
     7
100
AcDbLine
 10
174.17585
 20
98.4578
 30
0.0
 11
174.17585
 21
54.4578
 31
0.0
  0
LINE
  5
46C
330
1F
100
AcDbEntity
  8
一般
  6
CONTINUOUS
 62
     7
100
AcDbLine
 10
230.16885
 20
89.7052
 30
0.0
 11
223.17525
 21
106.7955
 31
0.0
  0
LINE
  5
46D
330
1F
100
AcDbEntity
  8
一般
  6
CONTINUOUS
 62
     7
100
AcDbLine
 10
174.17185
 20
98.4578
 30
0.0
 11
174.17185
 21
54.4578
 31
0.0
  0
LINE
  5
46E
330
1F
100
AcDbEntity
  8
一般
  6
CONTINUOUS
 62
     7
100
AcDbLine
 10
173.17165
 20
98.4578
 30
0.0
 11
173.17165
 21
54.4578
 31
0.0
  0
LINE
  5
46F
330
1F
100
AcDbEntity
  8
一般
  6
CONTINUOUS
 62
     7
100
AcDbLine
 10
223.17565
 20
119.1577
 30
0.0
 11
223.17065
 21
-39.2349
 31
0.0
  0
LINE
  5
470
330
1F
100
AcDbEntity
  8
一般
  6
CONTINUOUS
 62
     7
100
AcDbLine
 10
53.17165
 20
54.4578
 30
0.0
 11
53.17165
 21
98.4578
 31
0.0
  0
LINE
  5
471
330
1F
100
AcDbEntity
  8
一般
  6
CONTINUOUS
 62
     7
100
AcDbLine
 10
52.17545
 20
98.4578
 30
0.0
 11
52.17545
 21
54.4578
 31
0.0
  0
LINE
  5
472
330
1F
100
AcDbEntity
  8
一般
  6
CONTINUOUS
 62
     7
100
AcDbLine
 10
53.17565
 20
54.4578
 30
0.0
 11
53.17565
 21
98.4578
 31
0.0
  0
LINE
  5
473
330
1F
100
AcDbEntity
  8
一般
  6
CONTINUOUS
 62
     7
100
AcDbLine
 10
52.17145
 20
98.4578
 30
0.0
 11
52.17145
 21
54.4578
 31
0.0
  0
LINE
  5
474
330
1F
100
AcDbEntity
  8
一般
  6
CONTINUOUS
 62
     7
100
AcDbLine
 10
230.16885
 20
67.2118
 30
0.0
 11
230.16885
 21
89.7052
 31
0.0
  0
LINE
  5
4B1
330
1F
100
AcDbEntity
  8
一般
  6
CONTINUOUS
 62
     7
100
AcDbLine
 10
19.07882912888016
 20
103.93255078125
 30
0.0
 11
16.98942008986986
 21
102.7262299101302
 31
0.0
  0
LINE
  5
4B2
330
1F
100
AcDbEntity
  8
1
  6
CONTINUOUS
 62
     7
100
AcDbLine
 10
223.1741521112092
 20
71.70679998431646
 30
0.0
 11
230.16885
 21
71.70657614682122
 31
0.0
  0
LINE
  5
4B3
330
1F
100
AcDbEntity
  8
1
  6
CONTINUOUS
 62
     7
100
AcDbLine
 10
223.1721318148075
 20
7.70680001619795
 30
0.0
 11
230.16885
 21
7.70657611405113
 31
0.0
  0
LINE
  5
4B4
330
1F
100
AcDbEntity
  8
1
  6
CONTINUOUS
 62
     7
100
AcDbLine
 10
223.1746256181784
 20
86.70679997684427
 30
0.0
 11
230.16885
 21
86.70657615450173
 31
0.0
  0
LINE
  5
4B5
330
1F
100
AcDbEntity
  8
1
  6
CONTINUOUS
 62
     7
100
AcDbLine
 10
223.1716583078384
 20
-7.29319997632984
 30
0.0
 11
230.16885
 21
-7.29342389362936
 31
0.0
  0
LINE
  5
4B6
330
1F
100
AcDbEntity
  8
1
  6
DOT_CENTER
 62
     2
100
AcDbLine
 10
20.28515
 20
241.8108
 30
0.0
 11
20.28515
 21
251.8108
 31
0.0
  0
LINE
  5
4B7
330
1F
100
AcDbEntity
  8
1
  6
DOT_CENTER
 62
     2
100
AcDbLine
 10
206.12665
 20
241.8108
 30
0.0
 11
206.12665
 21
251.8108
 31
0.0
  0
LINE
  5
4B8
330
1F
100
AcDbEntity
  8
1
  6
DOT_CENTER
 62
     2
100
AcDbLine
 10
-193.04205
 20
99.4305
 30
0.0
 11
-183.04205
 21
99.4305
 31
0.0
  0
LINE
  5
4B9
330
1F
100
AcDbEntity
  8
1
  6
DOT_CENTER
 62
     2
100
AcDbLine
 10
-193.04205
 20
-25.5695
 30
0.0
 11
-183.04205
 21
-25.5695
 31
0.0
  0
ARC
  5
4BA
330
1F
100
AcDbEntity
  8
0
  6
CONTINUOUS
 62
     7
100
AcDbCircle
 10
122.676431
 20
-54.930818
 30
0.0
 40
0.3000000000000114
100
AcDbArc
 50
0.0
 51
90.0
  0
ARC
  5
4BB
330
1F
100
AcDbEntity
  8
0
  6
CONTINUOUS
 62
     7
100
AcDbCircle
 10
122.018533
 20
-54.930818
 30
0.0
 40
0.2999999999999901
100
AcDbArc
 50
90.0
 51
180.0
  0
ARC
  5
4BC
330
1F
100
AcDbEntity
  8
0
  6
CONTINUOUS
 62
     7
100
AcDbCircle
 10
119.061249
 20
-54.930818
 30
0.0
 40
0.2999999999999972
100
AcDbArc
 50
0.0
 51
90.0
  0
ARC
  5
4BD
330
1F
100
AcDbEntity
  8
0
  6
CONTINUOUS
 62
     7
100
AcDbCircle
 10
117.826711
 20
-54.930818
 30
0.0
 40
0.2999999999999901
100
AcDbArc
 50
90.0
 51
180.0
  0
ARC
  5
4BE
330
1F
100
AcDbEntity
  8
0
  6
CONTINUOUS
 62
     7
100
AcDbCircle
 10
113.8666
 20
-54.930818
 30
0.0
 40
0.2999999999999972
100
AcDbArc
 50
0.0
 51
90.0
  0
ARC
  5
4BF
330
1F
100
AcDbEntity
  8
0
  6
CONTINUOUS
 62
     7
100
AcDbCircle
 10
104.4166
 20
-53.93303300000001
 30
0.0
 40
0.1000000000001493
100
AcDbArc
 50
105.0001950002565
 51
180.0
  0
ARC
  5
4C0
330
1F
100
AcDbEntity
  8
0
  6
CONTINUOUS
 62
     7
100
AcDbCircle
 10
104.9666
 20
-53.57860400000001
 30
0.0
 40
0.1000000000001356
100
AcDbArc
 50
285.0001950002585
 51
0.0
  0
ARC
  5
4C1
330
1F
100
AcDbEntity
  8
0
  6
CONTINUOUS
 62
     7
100
AcDbCircle
 10
126.1666
 20
-43.23490000000001
 30
0.0
 40
0.5
100
AcDbArc
 50
270.0
 51
0.0
  0
ARC
  5
4C2
330
1F
100
AcDbEntity
  8
0
  6
CONTINUOUS
 62
     7
100
AcDbCircle
 10
124.1666
 20
-44.23490000000001
 30
0.0
 40
0.5
100
AcDbArc
 50
90.0
 51
180.0
  0
ARC
  5
4C3
330
1F
100
AcDbEntity
  8
0
  6
CONTINUOUS
 62
     7
100
AcDbCircle
 10
123.1666
 20
-48.23490000000001
 30
0.0
 40
0.5
100
AcDbArc
 50
270.0
 51
0.0
  0
ARC
  5
4C4
330
1F
100
AcDbEntity
  8
0
  6
CONTINUOUS
 62
     7
100
AcDbCircle
 10
103.1666
 20
-48.23490000000001
 30
0.0
 40
0.5
100
AcDbArc
 50
180.0
 51
270.0
  0
ARC
  5
4C5
330
1F
100
AcDbEntity
  8
0
  6
CONTINUOUS
 62
     7
100
AcDbCircle
 10
102.1666
 20
-44.23490000000001
 30
0.0
 40
0.5
100
AcDbArc
 50
0.0
 51
90.0
  0
ARC
  5
4C6
330
1F
100
AcDbEntity
  8
0
  6
CONTINUOUS
 62
     7
100
AcDbCircle
 10
121.7666
 20
-49.23490000000001
 30
0.0
 40
0.5
100
AcDbArc
 50
90.0
 51
180.0
  0
ARC
  5
4C7
330
1F
100
AcDbEntity
  8
0
  6
CONTINUOUS
 62
     7
100
AcDbCircle
 10
104.5666
 20
-49.23490000000001
 30
0.0
 40
0.5
100
AcDbArc
 50
0.0
 51
90.0
  0
ARC
  5
4C8
330
1F
100
AcDbEntity
  8
0
  6
CONTINUOUS
 62
     7
100
AcDbCircle
 10
100.1666
 20
-43.23490000000001
 30
0.0
 40
0.5
100
AcDbArc
 50
180.0
 51
270.0
  0
ARC
  5
4C9
330
1F
100
AcDbEntity
  8
0
  6
CONTINUOUS
 62
     7
100
AcDbCircle
 10
102.647266
 20
-54.930818
 30
0.0
 40
0.2999999999999901
100
AcDbArc
 50
90.0
 51
176.1859249999889
  0
ARC
  5
4CA
330
1F
100
AcDbEntity
  8
0
  6
CONTINUOUS
 62
     7
100
AcDbCircle
 10
123.685934
 20
-54.930818
 30
0.0
 40
0.2999999999997308
100
AcDbArc
 50
3.8140750000113
 51
90.0
  0
ARC
  5
4CB
330
1F
100
AcDbEntity
  8
0
  6
CONTINUOUS
 62
     7
100
AcDbCircle
 10
119.752386
 20
-68.13081799999996
 30
0.0
 40
1.000000000000028
100
AcDbArc
 50
270.0
 51
315.0000000000173
  0
ARC
  5
4CC
330
1F
100
AcDbEntity
  8
0
  6
CONTINUOUS
 62
     7
100
AcDbCircle
 10
122.6666
 20
-65.71660499999997
 30
0.0
 40
1.00000000000031
100
AcDbArc
 50
315.0000000000184
 51
359.9999999999984
  0
ARC
  5
4CD
330
1F
100
AcDbEntity
  8
0
  6
CONTINUOUS
 62
     7
100
AcDbCircle
 10
103.6666
 20
-65.71660499999997
 30
0.0
 40
1.0
100
AcDbArc
 50
180.0000000000016
 51
224.9999999999833
  0
ARC
  5
4CE
330
1F
100
AcDbEntity
  8
0
  6
CONTINUOUS
 62
     7
100
AcDbCircle
 10
106.580814
 20
-68.13081800000006
 30
0.0
 40
1.000000000000249
100
AcDbArc
 50
224.999999999977
 51
270.0
  0
ARC
  5
4CF
330
1F
100
AcDbEntity
  8
0
  6
CONTINUOUS
 62
     7
100
AcDbCircle
 10
104.314667
 20
-54.930818
 30
0.0
 40
0.2999999999999972
100
AcDbArc
 50
0.0
 51
90.0
  0
ARC
  5
4D0
330
1F
100
AcDbEntity
  8
0
  6
CONTINUOUS
 62
     7
100
AcDbCircle
 10
103.656769
 20
-54.930818
 30
0.0
 40
0.2999999999999901
100
AcDbArc
 50
90.0
 51
180.0
  0
ARC
  5
4D1
330
1F
100
AcDbEntity
  8
0
  6
CONTINUOUS
 62
     7
100
AcDbCircle
 10
108.506489
 20
-54.930818
 30
0.0
 40
0.2999999999999972
100
AcDbArc
 50
0.0
 51
90.0
  0
ARC
  5
4D2
330
1F
100
AcDbEntity
  8
0
  6
CONTINUOUS
 62
     7
100
AcDbCircle
 10
107.271951
 20
-54.930818
 30
0.0
 40
0.2999999999999901
100
AcDbArc
 50
90.0
 51
180.0
  0
ARC
  5
4D3
330
1F
100
AcDbEntity
  8
0
  6
CONTINUOUS
 62
     7
100
AcDbCircle
 10
112.4666
 20
-54.930818
 30
0.0
 40
0.2999999999999901
100
AcDbArc
 50
90.0
 51
180.0
  0
ARC
  5
4D4
330
1F
100
AcDbEntity
  8
0
  6
CONTINUOUS
 62
     7
100
AcDbCircle
 10
103.1666
 20
-54.63081800000001
 30
0.0
 40
0.5
100
AcDbArc
 50
90.0
 51
180.0
  0
ARC
  5
4D5
330
1F
100
AcDbEntity
  8
0
  6
CONTINUOUS
 62
     7
100
AcDbCircle
 10
123.1666
 20
-54.63081800000001
 30
0.0
 40
0.5
100
AcDbArc
 50
0.0
 51
90.0
  0
ARC
  5
4D6
330
1F
100
AcDbEntity
  8
0
  6
CONTINUOUS
 62
     7
100
AcDbCircle
 10
124.4666
 20
-58.430818
 30
0.0
 40
0.2000000000000099
100
AcDbArc
 50
270.0
 51
0.0
  0
ARC
  5
4D7
330
1F
100
AcDbEntity
  8
0
  6
CONTINUOUS
 62
     7
100
AcDbCircle
 10
123.8666
 20
-58.83081800000001
 30
0.0
 40
0.1999999999999957
100
AcDbArc
 50
90.0
 51
180.0
  0
ARC
  5
4D8
330
1F
100
AcDbEntity
  8
0
  6
CONTINUOUS
 62
     7
100
AcDbCircle
 10
101.8666
 20
-58.430818
 30
0.0
 40
0.2000000000000028
100
AcDbArc
 50
180.0
 51
270.0
  0
ARC
  5
4D9
330
1F
100
AcDbEntity
  8
0
  6
CONTINUOUS
 62
     7
100
AcDbCircle
 10
102.4666
 20
-58.83081800000001
 30
0.0
 40
0.2000000000000028
100
AcDbArc
 50
0.0
 51
90.0
  0
ARC
  5
4DA
330
1F
100
AcDbEntity
  8
0
  6
CONTINUOUS
 62
     7
100
AcDbCircle
 10
118.4166
 20
-56.70616200000001
 30
0.0
 40
9.424655999999748
100
AcDbArc
 50
246.5535050000025
 51
293.4464949999975
  0
ARC
  5
4DB
330
1F
100
AcDbEntity
  8
0
  6
CONTINUOUS
 62
     7
100
AcDbCircle
 10
107.9166
 20
-56.70616200000001
 30
0.0
 40
9.424655999999748
100
AcDbArc
 50
246.5535050000025
 51
293.4464949999975
  0
ARC
  5
4DC
330
1F
100
AcDbEntity
  8
0
  6
CONTINUOUS
 62
     7
100
AcDbCircle
 10
-141.838219
 20
-54.32886537246341
 30
0.0
 40
0.3000000000000114
100
AcDbArc
 50
0.0
 51
90.0
  0
ARC
  5
4DD
330
1F
100
AcDbEntity
  8
0
  6
CONTINUOUS
 62
     7
100
AcDbCircle
 10
-142.496117
 20
-54.32886537246341
 30
0.0
 40
0.3000000000000114
100
AcDbArc
 50
90.0
 51
180.0
  0
ARC
  5
4DE
330
1F
100
AcDbEntity
  8
0
  6
CONTINUOUS
 62
     7
100
AcDbCircle
 10
-145.453401
 20
-54.32886537246341
 30
0.0
 40
0.3000000000000114
100
AcDbArc
 50
0.0
 51
90.0
  0
ARC
  5
4DF
330
1F
100
AcDbEntity
  8
0
  6
CONTINUOUS
 62
     7
100
AcDbCircle
 10
-146.687939
 20
-54.32886537246341
 30
0.0
 40
0.3000000000000114
100
AcDbArc
 50
90.0
 51
180.0
  0
ARC
  5
4E0
330
1F
100
AcDbEntity
  8
0
  6
CONTINUOUS
 62
     7
100
AcDbCircle
 10
-150.64805
 20
-54.32886537246341
 30
0.0
 40
0.3000000000000114
100
AcDbArc
 50
0.0
 51
90.0
  0
ARC
  5
4E1
330
1F
100
AcDbEntity
  8
0
  6
CONTINUOUS
 62
     7
100
AcDbCircle
 10
-160.09805
 20
-53.3310803724634
 30
0.0
 40
0.100000000000125
100
AcDbArc
 50
105.0001950002518
 51
180.0
  0
ARC
  5
4E2
330
1F
100
AcDbEntity
  8
0
  6
CONTINUOUS
 62
     7
100
AcDbCircle
 10
-159.54805
 20
-52.97665137246341
 30
0.0
 40
0.1000000000001319
100
AcDbArc
 50
285.0001950002508
 51
0.0
  0
ARC
  5
4E3
330
1F
100
AcDbEntity
  8
0
  6
CONTINUOUS
 62
     7
100
AcDbCircle
 10
-138.34805
 20
-42.63294737246341
 30
0.0
 40
0.5
100
AcDbArc
 50
270.0
 51
0.0
  0
ARC
  5
4E4
330
1F
100
AcDbEntity
  8
0
  6
CONTINUOUS
 62
     7
100
AcDbCircle
 10
-140.34805
 20
-43.63294737246341
 30
0.0
 40
0.5
100
AcDbArc
 50
90.0
 51
180.0
  0
ARC
  5
4E5
330
1F
100
AcDbEntity
  8
0
  6
CONTINUOUS
 62
     7
100
AcDbCircle
 10
-141.34805
 20
-47.63294737246341
 30
0.0
 40
0.5
100
AcDbArc
 50
270.0
 51
0.0
  0
ARC
  5
4E6
330
1F
100
AcDbEntity
  8
0
  6
CONTINUOUS
 62
     7
100
AcDbCircle
 10
-161.34805
 20
-47.63294737246341
 30
0.0
 40
0.5
100
AcDbArc
 50
180.0
 51
270.0
  0
ARC
  5
4E7
330
1F
100
AcDbEntity
  8
0
  6
CONTINUOUS
 62
     7
100
AcDbCircle
 10
-162.34805
 20
-43.63294737246341
 30
0.0
 40
0.5
100
AcDbArc
 50
0.0
 51
90.0
  0
ARC
  5
4E8
330
1F
100
AcDbEntity
  8
0
  6
CONTINUOUS
 62
     7
100
AcDbCircle
 10
-142.74805
 20
-48.63294737246341
 30
0.0
 40
0.5
100
AcDbArc
 50
90.0
 51
180.0
  0
ARC
  5
4E9
330
1F
100
AcDbEntity
  8
0
  6
CONTINUOUS
 62
     7
100
AcDbCircle
 10
-159.94805
 20
-48.63294737246341
 30
0.0
 40
0.5
100
AcDbArc
 50
0.0
 51
90.0
  0
ARC
  5
4EA
330
1F
100
AcDbEntity
  8
0
  6
CONTINUOUS
 62
     7
100
AcDbCircle
 10
-164.34805
 20
-42.63294737246341
 30
0.0
 40
0.5
100
AcDbArc
 50
180.0
 51
270.0
  0
ARC
  5
4EB
330
1F
100
AcDbEntity
  8
0
  6
CONTINUOUS
 62
     7
100
AcDbCircle
 10
-161.867384
 20
-54.32886537246341
 30
0.0
 40
0.3000000000000114
100
AcDbArc
 50
90.0
 51
176.1859249999904
  0
ARC
  5
4EC
330
1F
100
AcDbEntity
  8
0
  6
CONTINUOUS
 62
     7
100
AcDbCircle
 10
-140.828716
 20
-54.32886537246341
 30
0.0
 40
0.2999999999997304
100
AcDbArc
 50
3.81407500000994
 51
90.0
  0
ARC
  5
4ED
330
1F
100
AcDbEntity
  8
0
  6
CONTINUOUS
 62
     7
100
AcDbCircle
 10
-144.762264
 20
-67.5288653724634
 30
0.0
 40
1.0
100
AcDbArc
 50
270.0
 51
315.0000000000178
  0
ARC
  5
4EE
330
1F
100
AcDbEntity
  8
0
  6
CONTINUOUS
 62
     7
100
AcDbCircle
 10
-141.84805
 20
-65.11465237246338
 30
0.0
 40
1.00000000000033
100
AcDbArc
 50
315.0000000000184
 51
359.9999999999968
  0
ARC
  5
4EF
330
1F
100
AcDbEntity
  8
0
  6
CONTINUOUS
 62
     7
100
AcDbCircle
 10
-160.84805
 20
-65.11465237246338
 30
0.0
 40
1.0
100
AcDbArc
 50
180.0000000000032
 51
224.9999999999821
  0
ARC
  5
4F0
330
1F
100
AcDbEntity
  8
0
  6
CONTINUOUS
 62
     7
100
AcDbCircle
 10
-157.933836
 20
-67.52886537246346
 30
0.0
 40
1.000000000000229
100
AcDbArc
 50
224.9999999999781
 51
270.0
  0
ARC
  5
4F1
330
1F
100
AcDbEntity
  8
0
  6
CONTINUOUS
 62
     7
100
AcDbCircle
 10
-160.199983
 20
-54.32886537246341
 30
0.0
 40
0.3000000000000114
100
AcDbArc
 50
0.0
 51
90.0
  0
ARC
  5
4F2
330
1F
100
AcDbEntity
  8
0
  6
CONTINUOUS
 62
     7
100
AcDbCircle
 10
-160.857881
 20
-54.32886537246341
 30
0.0
 40
0.3000000000000114
100
AcDbArc
 50
90.0
 51
180.0
  0
ARC
  5
4F3
330
1F
100
AcDbEntity
  8
0
  6
CONTINUOUS
 62
     7
100
AcDbCircle
 10
-156.008161
 20
-54.32886537246341
 30
0.0
 40
0.3000000000000114
100
AcDbArc
 50
0.0
 51
90.0
  0
ARC
  5
4F4
330
1F
100
AcDbEntity
  8
0
  6
CONTINUOUS
 62
     7
100
AcDbCircle
 10
-157.242699
 20
-54.32886537246341
 30
0.0
 40
0.3000000000000114
100
AcDbArc
 50
90.0
 51
180.0
  0
ARC
  5
4F5
330
1F
100
AcDbEntity
  8
0
  6
CONTINUOUS
 62
     7
100
AcDbCircle
 10
-152.04805
 20
-54.32886537246341
 30
0.0
 40
0.3000000000000114
100
AcDbArc
 50
90.0
 51
180.0
  0
ARC
  5
4F6
330
1F
100
AcDbEntity
  8
0
  6
CONTINUOUS
 62
     7
100
AcDbCircle
 10
-161.34805
 20
-54.0288653724634
 30
0.0
 40
0.5
100
AcDbArc
 50
90.0
 51
180.0
  0
ARC
  5
4F7
330
1F
100
AcDbEntity
  8
0
  6
CONTINUOUS
 62
     7
100
AcDbCircle
 10
-141.34805
 20
-54.0288653724634
 30
0.0
 40
0.5
100
AcDbArc
 50
0.0
 51
90.0
  0
ARC
  5
4F8
330
1F
100
AcDbEntity
  8
0
  6
CONTINUOUS
 62
     7
100
AcDbCircle
 10
-140.04805
 20
-57.82886537246341
 30
0.0
 40
0.1999999999999886
100
AcDbArc
 50
270.0
 51
0.0
  0
ARC
  5
4F9
330
1F
100
AcDbEntity
  8
0
  6
CONTINUOUS
 62
     7
100
AcDbCircle
 10
-140.64805
 20
-58.2288653724634
 30
0.0
 40
0.2000000000000028
100
AcDbArc
 50
90.0
 51
180.0
  0
ARC
  5
4FA
330
1F
100
AcDbEntity
  8
0
  6
CONTINUOUS
 62
     7
100
AcDbCircle
 10
-162.64805
 20
-57.82886537246341
 30
0.0
 40
0.1999999999999886
100
AcDbArc
 50
180.0
 51
270.0
  0
ARC
  5
4FB
330
1F
100
AcDbEntity
  8
0
  6
CONTINUOUS
 62
     7
100
AcDbCircle
 10
-162.04805
 20
-58.2288653724634
 30
0.0
 40
0.1999999999999886
100
AcDbArc
 50
0.0
 51
90.0
  0
ARC
  5
4FC
330
1F
100
AcDbEntity
  8
0
  6
CONTINUOUS
 62
     7
100
AcDbCircle
 10
-146.09805
 20
-56.1042093724634
 30
0.0
 40
9.424655999999795
100
AcDbArc
 50
246.5535050000026
 51
293.4464949999974
  0
ARC
  5
4FD
330
1F
100
AcDbEntity
  8
0
  6
CONTINUOUS
 62
     7
100
AcDbCircle
 10
-156.59805
 20
-56.1042093724634
 30
0.0
 40
9.424655999999795
100
AcDbArc
 50
246.5535050000026
 51
293.4464949999974
  0
ARC
  5
4FE
330
1F
100
AcDbEntity
  8
0
  6
CONTINUOUS
 62
     7
100
AcDbCircle
 10
156.676431
 20
-54.930818
 30
0.0
 40
0.2999999999999829
100
AcDbArc
 50
0.0
 51
90.0
  0
ARC
  5
4FF
330
1F
100
AcDbEntity
  8
0
  6
CONTINUOUS
 62
     7
100
AcDbCircle
 10
156.018533
 20
-54.930818
 30
0.0
 40
0.2999999999999901
100
AcDbArc
 50
90.0
 51
180.0
  0
ARC
  5
500
330
1F
100
AcDbEntity
  8
0
  6
CONTINUOUS
 62
     7
100
AcDbCircle
 10
153.061249
 20
-54.930818
 30
0.0
 40
0.2999999999999829
100
AcDbArc
 50
0.0
 51
90.0
  0
ARC
  5
501
330
1F
100
AcDbEntity
  8
0
  6
CONTINUOUS
 62
     7
100
AcDbCircle
 10
151.826711
 20
-54.930818
 30
0.0
 40
0.2999999999999901
100
AcDbArc
 50
90.0
 51
180.0
  0
ARC
  5
502
330
1F
100
AcDbEntity
  8
0
  6
CONTINUOUS
 62
     7
100
AcDbCircle
 10
147.8666
 20
-54.930818
 30
0.0
 40
0.2999999999999829
100
AcDbArc
 50
0.0
 51
90.0
  0
ARC
  5
503
330
1F
100
AcDbEntity
  8
0
  6
CONTINUOUS
 62
     7
100
AcDbCircle
 10
138.4166
 20
-53.93303300000001
 30
0.0
 40
0.1000000000001456
100
AcDbArc
 50
105.0001950002486
 51
180.0
  0
ARC
  5
504
330
1F
100
AcDbEntity
  8
0
  6
CONTINUOUS
 62
     7
100
AcDbCircle
 10
138.9666
 20
-53.57860400000001
 30
0.0
 40
0.1000000000001393
100
AcDbArc
 50
285.0001950002665
 51
0.0
  0
ARC
  5
505
330
1F
100
AcDbEntity
  8
0
  6
CONTINUOUS
 62
     7
100
AcDbCircle
 10
160.1666
 20
-43.23490000000001
 30
0.0
 40
0.5
100
AcDbArc
 50
270.0
 51
0.0
  0
ARC
  5
506
330
1F
100
AcDbEntity
  8
0
  6
CONTINUOUS
 62
     7
100
AcDbCircle
 10
158.1666
 20
-44.23490000000001
 30
0.0
 40
0.5
100
AcDbArc
 50
90.0
 51
180.0
  0
ARC
  5
507
330
1F
100
AcDbEntity
  8
0
  6
CONTINUOUS
 62
     7
100
AcDbCircle
 10
157.1666
 20
-48.23490000000001
 30
0.0
 40
0.5
100
AcDbArc
 50
270.0
 51
0.0
  0
ARC
  5
508
330
1F
100
AcDbEntity
  8
0
  6
CONTINUOUS
 62
     7
100
AcDbCircle
 10
137.1666
 20
-48.23490000000001
 30
0.0
 40
0.5
100
AcDbArc
 50
180.0
 51
270.0
  0
ARC
  5
509
330
1F
100
AcDbEntity
  8
0
  6
CONTINUOUS
 62
     7
100
AcDbCircle
 10
136.1666
 20
-44.23490000000001
 30
0.0
 40
0.5
100
AcDbArc
 50
0.0
 51
90.0
  0
ARC
  5
50A
330
1F
100
AcDbEntity
  8
0
  6
CONTINUOUS
 62
     7
100
AcDbCircle
 10
155.7666
 20
-49.23490000000001
 30
0.0
 40
0.5
100
AcDbArc
 50
90.0
 51
180.0
  0
ARC
  5
50B
330
1F
100
AcDbEntity
  8
0
  6
CONTINUOUS
 62
     7
100
AcDbCircle
 10
138.5666
 20
-49.23490000000001
 30
0.0
 40
0.5
100
AcDbArc
 50
0.0
 51
90.0
  0
ARC
  5
50C
330
1F
100
AcDbEntity
  8
0
  6
CONTINUOUS
 62
     7
100
AcDbCircle
 10
134.1666
 20
-43.23490000000001
 30
0.0
 40
0.5
100
AcDbArc
 50
180.0
 51
270.0
  0
ARC
  5
50D
330
1F
100
AcDbEntity
  8
0
  6
CONTINUOUS
 62
     7
100
AcDbCircle
 10
136.647266
 20
-54.930818
 30
0.0
 40
0.2999999999999901
100
AcDbArc
 50
90.0
 51
176.1859249999887
  0
ARC
  5
50E
330
1F
100
AcDbEntity
  8
0
  6
CONTINUOUS
 62
     7
100
AcDbCircle
 10
157.685934
 20
-54.930818
 30
0.0
 40
0.2999999999997308
100
AcDbArc
 50
3.8140750000113
 51
90.0
  0
ARC
  5
50F
330
1F
100
AcDbEntity
  8
0
  6
CONTINUOUS
 62
     7
100
AcDbCircle
 10
153.752386
 20
-68.13081799999996
 30
0.0
 40
1.000000000000028
100
AcDbArc
 50
270.0
 51
315.0000000000178
  0
ARC
  5
510
330
1F
100
AcDbEntity
  8
0
  6
CONTINUOUS
 62
     7
100
AcDbCircle
 10
156.6666
 20
-65.71660499999997
 30
0.0
 40
1.00000000000032
100
AcDbArc
 50
315.000000000019
 51
359.9999999999984
  0
ARC
  5
511
330
1F
100
AcDbEntity
  8
0
  6
CONTINUOUS
 62
     7
100
AcDbCircle
 10
137.6666
 20
-65.71660499999997
 30
0.0
 40
1.0
100
AcDbArc
 50
180.0000000000016
 51
224.9999999999845
  0
ARC
  5
512
330
1F
100
AcDbEntity
  8
0
  6
CONTINUOUS
 62
     7
100
AcDbCircle
 10
140.580814
 20
-68.13081800000006
 30
0.0
 40
1.000000000000249
100
AcDbArc
 50
224.999999999977
 51
270.0
  0
ARC
  5
513
330
1F
100
AcDbEntity
  8
0
  6
CONTINUOUS
 62
     7
100
AcDbCircle
 10
138.314667
 20
-54.930818
 30
0.0
 40
0.3000000000000114
100
AcDbArc
 50
0.0
 51
90.0
  0
ARC
  5
514
330
1F
100
AcDbEntity
  8
0
  6
CONTINUOUS
 62
     7
100
AcDbCircle
 10
137.656769
 20
-54.930818
 30
0.0
 40
0.2999999999999901
100
AcDbArc
 50
90.0
 51
180.0
  0
ARC
  5
515
330
1F
100
AcDbEntity
  8
0
  6
CONTINUOUS
 62
     7
100
AcDbCircle
 10
142.506489
 20
-54.930818
 30
0.0
 40
0.3000000000000114
100
AcDbArc
 50
0.0
 51
90.0
  0
ARC
  5
516
330
1F
100
AcDbEntity
  8
0
  6
CONTINUOUS
 62
     7
100
AcDbCircle
 10
141.271951
 20
-54.930818
 30
0.0
 40
0.2999999999999901
100
AcDbArc
 50
90.0
 51
180.0
  0
ARC
  5
517
330
1F
100
AcDbEntity
  8
0
  6
CONTINUOUS
 62
     7
100
AcDbCircle
 10
146.4666
 20
-54.930818
 30
0.0
 40
0.2999999999999901
100
AcDbArc
 50
90.0
 51
180.0
  0
ARC
  5
518
330
1F
100
AcDbEntity
  8
0
  6
CONTINUOUS
 62
     7
100
AcDbCircle
 10
137.1666
 20
-54.63081800000001
 30
0.0
 40
0.5
100
AcDbArc
 50
90.0
 51
180.0
  0
ARC
  5
519
330
1F
100
AcDbEntity
  8
0
  6
CONTINUOUS
 62
     7
100
AcDbCircle
 10
157.1666
 20
-54.63081800000001
 30
0.0
 40
0.5
100
AcDbArc
 50
0.0
 51
90.0
  0
ARC
  5
51A
330
1F
100
AcDbEntity
  8
0
  6
CONTINUOUS
 62
     7
100
AcDbCircle
 10
158.4666
 20
-58.430818
 30
0.0
 40
0.2000000000000099
100
AcDbArc
 50
270.0
 51
0.0
  0
ARC
  5
51B
330
1F
100
AcDbEntity
  8
0
  6
CONTINUOUS
 62
     7
100
AcDbCircle
 10
157.8666
 20
-58.83081800000001
 30
0.0
 40
0.1999999999999957
100
AcDbArc
 50
90.0
 51
180.0
  0
ARC
  5
51C
330
1F
100
AcDbEntity
  8
0
  6
CONTINUOUS
 62
     7
100
AcDbCircle
 10
135.8666
 20
-58.430818
 30
0.0
 40
0.2000000000000171
100
AcDbArc
 50
180.0
 51
270.0
  0
ARC
  5
51D
330
1F
100
AcDbEntity
  8
0
  6
CONTINUOUS
 62
     7
100
AcDbCircle
 10
136.4666
 20
-58.83081800000001
 30
0.0
 40
0.1999999999999886
100
AcDbArc
 50
0.0
 51
90.0
  0
ARC
  5
51E
330
1F
100
AcDbEntity
  8
0
  6
CONTINUOUS
 62
     7
100
AcDbCircle
 10
152.4166
 20
-56.70616200000001
 30
0.0
 40
9.424655999999748
100
AcDbArc
 50
246.5535050000025
 51
293.4464949999975
  0
ARC
  5
51F
330
1F
100
AcDbEntity
  8
0
  6
CONTINUOUS
 62
     7
100
AcDbCircle
 10
141.9166
 20
-56.70616200000001
 30
0.0
 40
9.424655999999748
100
AcDbArc
 50
246.5535050000025
 51
293.4464949999975
  0
ARC
  5
520
330
1F
100
AcDbEntity
  8
0
  6
CONTINUOUS
 62
     7
100
AcDbCircle
 10
190.676431
 20
-54.930818
 30
0.0
 40
0.2999999999999829
100
AcDbArc
 50
0.0
 51
90.0
  0
ARC
  5
521
330
1F
100
AcDbEntity
  8
0
  6
CONTINUOUS
 62
     7
100
AcDbCircle
 10
190.018533
 20
-54.930818
 30
0.0
 40
0.2999999999999901
100
AcDbArc
 50
90.0
 51
180.0
  0
ARC
  5
522
330
1F
100
AcDbEntity
  8
0
  6
CONTINUOUS
 62
     7
100
AcDbCircle
 10
187.061249
 20
-54.930818
 30
0.0
 40
0.2999999999999829
100
AcDbArc
 50
0.0
 51
90.0
  0
ARC
  5
523
330
1F
100
AcDbEntity
  8
0
  6
CONTINUOUS
 62
     7
100
AcDbCircle
 10
185.826711
 20
-54.930818
 30
0.0
 40
0.2999999999999901
100
AcDbArc
 50
90.0
 51
180.0
  0
ARC
  5
524
330
1F
100
AcDbEntity
  8
0
  6
CONTINUOUS
 62
     7
100
AcDbCircle
 10
181.8666
 20
-54.930818
 30
0.0
 40
0.2999999999999829
100
AcDbArc
 50
0.0
 51
90.0
  0
ARC
  5
525
330
1F
100
AcDbEntity
  8
0
  6
CONTINUOUS
 62
     7
100
AcDbCircle
 10
172.4166
 20
-53.93303300000001
 30
0.0
 40
0.1000000000001456
100
AcDbArc
 50
105.0001950002486
 51
180.0
  0
ARC
  5
526
330
1F
100
AcDbEntity
  8
0
  6
CONTINUOUS
 62
     7
100
AcDbCircle
 10
172.9666
 20
-53.57860400000001
 30
0.0
 40
0.1000000000001393
100
AcDbArc
 50
285.0001950002665
 51
0.0
  0
ARC
  5
527
330
1F
100
AcDbEntity
  8
0
  6
CONTINUOUS
 62
     7
100
AcDbCircle
 10
194.1666
 20
-43.23490000000001
 30
0.0
 40
0.5
100
AcDbArc
 50
270.0
 51
0.0
  0
ARC
  5
528
330
1F
100
AcDbEntity
  8
0
  6
CONTINUOUS
 62
     7
100
AcDbCircle
 10
192.1666
 20
-44.23490000000001
 30
0.0
 40
0.5
100
AcDbArc
 50
90.0
 51
180.0
  0
ARC
  5
529
330
1F
100
AcDbEntity
  8
0
  6
CONTINUOUS
 62
     7
100
AcDbCircle
 10
191.1666
 20
-48.23490000000001
 30
0.0
 40
0.5
100
AcDbArc
 50
270.0
 51
0.0
  0
ARC
  5
52A
330
1F
100
AcDbEntity
  8
0
  6
CONTINUOUS
 62
     7
100
AcDbCircle
 10
171.1666
 20
-48.23490000000001
 30
0.0
 40
0.5
100
AcDbArc
 50
180.0
 51
270.0
  0
ARC
  5
52B
330
1F
100
AcDbEntity
  8
0
  6
CONTINUOUS
 62
     7
100
AcDbCircle
 10
170.1666
 20
-44.23490000000001
 30
0.0
 40
0.5
100
AcDbArc
 50
0.0
 51
90.0
  0
ARC
  5
52C
330
1F
100
AcDbEntity
  8
0
  6
CONTINUOUS
 62
     7
100
AcDbCircle
 10
189.7666
 20
-49.23490000000001
 30
0.0
 40
0.5
100
AcDbArc
 50
90.0
 51
180.0
  0
ARC
  5
52D
330
1F
100
AcDbEntity
  8
0
  6
CONTINUOUS
 62
     7
100
AcDbCircle
 10
172.5666
 20
-49.23490000000001
 30
0.0
 40
0.5
100
AcDbArc
 50
0.0
 51
90.0
  0
ARC
  5
52E
330
1F
100
AcDbEntity
  8
0
  6
CONTINUOUS
 62
     7
100
AcDbCircle
 10
168.1666
 20
-43.23490000000001
 30
0.0
 40
0.5
100
AcDbArc
 50
180.0
 51
270.0
  0
ARC
  5
52F
330
1F
100
AcDbEntity
  8
0
  6
CONTINUOUS
 62
     7
100
AcDbCircle
 10
170.647266
 20
-54.930818
 30
0.0
 40
0.2999999999999901
100
AcDbArc
 50
90.0
 51
176.1859249999887
  0
ARC
  5
530
330
1F
100
AcDbEntity
  8
0
  6
CONTINUOUS
 62
     7
100
AcDbCircle
 10
191.685934
 20
-54.930818
 30
0.0
 40
0.2999999999997308
100
AcDbArc
 50
3.8140750000113
 51
90.0
  0
ARC
  5
531
330
1F
100
AcDbEntity
  8
0
  6
CONTINUOUS
 62
     7
100
AcDbCircle
 10
187.752386
 20
-68.13081799999996
 30
0.0
 40
1.000000000000028
100
AcDbArc
 50
270.0
 51
315.0000000000178
  0
ARC
  5
532
330
1F
100
AcDbEntity
  8
0
  6
CONTINUOUS
 62
     7
100
AcDbCircle
 10
190.6666
 20
-65.71660499999997
 30
0.0
 40
1.00000000000032
100
AcDbArc
 50
315.000000000019
 51
359.9999999999984
  0
ARC
  5
533
330
1F
100
AcDbEntity
  8
0
  6
CONTINUOUS
 62
     7
100
AcDbCircle
 10
171.6666
 20
-65.71660499999997
 30
0.0
 40
1.0
100
AcDbArc
 50
180.0000000000016
 51
224.9999999999845
  0
ARC
  5
534
330
1F
100
AcDbEntity
  8
0
  6
CONTINUOUS
 62
     7
100
AcDbCircle
 10
174.580814
 20
-68.13081800000006
 30
0.0
 40
1.000000000000249
100
AcDbArc
 50
224.999999999977
 51
270.0
  0
ARC
  5
535
330
1F
100
AcDbEntity
  8
0
  6
CONTINUOUS
 62
     7
100
AcDbCircle
 10
172.314667
 20
-54.930818
 30
0.0
 40
0.3000000000000114
100
AcDbArc
 50
0.0
 51
90.0
  0
ARC
  5
536
330
1F
100
AcDbEntity
  8
0
  6
CONTINUOUS
 62
     7
100
AcDbCircle
 10
171.656769
 20
-54.930818
 30
0.0
 40
0.2999999999999901
100
AcDbArc
 50
90.0
 51
180.0
  0
ARC
  5
537
330
1F
100
AcDbEntity
  8
0
  6
CONTINUOUS
 62
     7
100
AcDbCircle
 10
176.506489
 20
-54.930818
 30
0.0
 40
0.3000000000000114
100
AcDbArc
 50
0.0
 51
90.0
  0
ARC
  5
538
330
1F
100
AcDbEntity
  8
0
  6
CONTINUOUS
 62
     7
100
AcDbCircle
 10
175.271951
 20
-54.930818
 30
0.0
 40
0.2999999999999901
100
AcDbArc
 50
90.0
 51
180.0
  0
ARC
  5
539
330
1F
100
AcDbEntity
  8
0
  6
CONTINUOUS
 62
     7
100
AcDbCircle
 10
180.4666
 20
-54.930818
 30
0.0
 40
0.2999999999999901
100
AcDbArc
 50
90.0
 51
180.0
  0
ARC
  5
53A
330
1F
100
AcDbEntity
  8
0
  6
CONTINUOUS
 62
     7
100
AcDbCircle
 10
171.1666
 20
-54.63081800000001
 30
0.0
 40
0.5
100
AcDbArc
 50
90.0
 51
180.0
  0
ARC
  5
53B
330
1F
100
AcDbEntity
  8
0
  6
CONTINUOUS
 62
     7
100
AcDbCircle
 10
191.1666
 20
-54.63081800000001
 30
0.0
 40
0.5
100
AcDbArc
 50
0.0
 51
90.0
  0
ARC
  5
53C
330
1F
100
AcDbEntity
  8
0
  6
CONTINUOUS
 62
     7
100
AcDbCircle
 10
192.4666
 20
-58.430818
 30
0.0
 40
0.2000000000000099
100
AcDbArc
 50
270.0
 51
0.0
  0
ARC
  5
53D
330
1F
100
AcDbEntity
  8
0
  6
CONTINUOUS
 62
     7
100
AcDbCircle
 10
191.8666
 20
-58.83081800000001
 30
0.0
 40
0.1999999999999957
100
AcDbArc
 50
90.0
 51
180.0
  0
ARC
  5
53E
330
1F
100
AcDbEntity
  8
0
  6
CONTINUOUS
 62
     7
100
AcDbCircle
 10
169.8666
 20
-58.430818
 30
0.0
 40
0.2000000000000171
100
AcDbArc
 50
180.0
 51
270.0
  0
ARC
  5
53F
330
1F
100
AcDbEntity
  8
0
  6
CONTINUOUS
 62
     7
100
AcDbCircle
 10
170.4666
 20
-58.83081800000001
 30
0.0
 40
0.1999999999999886
100
AcDbArc
 50
0.0
 51
90.0
  0
ARC
  5
540
330
1F
100
AcDbEntity
  8
0
  6
CONTINUOUS
 62
     7
100
AcDbCircle
 10
186.4166
 20
-56.70616200000001
 30
0.0
 40
9.424655999999748
100
AcDbArc
 50
246.5535050000025
 51
293.4464949999975
  0
ARC
  5
541
330
1F
100
AcDbEntity
  8
0
  6
CONTINUOUS
 62
     7
100
AcDbCircle
 10
175.9166
 20
-56.70616200000001
 30
0.0
 40
9.424655999999748
100
AcDbArc
 50
246.5535050000025
 51
293.4464949999975
  0
ARC
  5
542
330
1F
100
AcDbEntity
  8
0
  6
CONTINUOUS
 62
     7
100
AcDbCircle
 10
88.67643100000001
 20
-54.930818
 30
0.0
 40
0.2999999999999972
100
AcDbArc
 50
0.0
 51
90.0
  0
ARC
  5
543
330
1F
100
AcDbEntity
  8
0
  6
CONTINUOUS
 62
     7
100
AcDbCircle
 10
88.018533
 20
-54.930818
 30
0.0
 40
0.2999999999999901
100
AcDbArc
 50
90.0
 51
180.0
  0
ARC
  5
544
330
1F
100
AcDbEntity
  8
0
  6
CONTINUOUS
 62
     7
100
AcDbCircle
 10
85.061249
 20
-54.930818
 30
0.0
 40
0.2999999999999972
100
AcDbArc
 50
0.0
 51
90.0
  0
ARC
  5
545
330
1F
100
AcDbEntity
  8
0
  6
CONTINUOUS
 62
     7
100
AcDbCircle
 10
83.826711
 20
-54.930818
 30
0.0
 40
0.2999999999999901
100
AcDbArc
 50
90.0
 51
180.0
  0
ARC
  5
546
330
1F
100
AcDbEntity
  8
0
  6
CONTINUOUS
 62
     7
100
AcDbCircle
 10
79.8666
 20
-54.930818
 30
0.0
 40
0.2999999999999972
100
AcDbArc
 50
0.0
 51
90.0
  0
ARC
  5
547
330
1F
100
AcDbEntity
  8
0
  6
CONTINUOUS
 62
     7
100
AcDbCircle
 10
70.4166
 20
-53.93303300000001
 30
0.0
 40
0.1000000000001493
100
AcDbArc
 50
105.0001950002565
 51
180.0
  0
ARC
  5
548
330
1F
100
AcDbEntity
  8
0
  6
CONTINUOUS
 62
     7
100
AcDbCircle
 10
70.9666
 20
-53.57860400000001
 30
0.0
 40
0.1000000000001356
100
AcDbArc
 50
285.0001950002585
 51
0.0
  0
ARC
  5
549
330
1F
100
AcDbEntity
  8
0
  6
CONTINUOUS
 62
     7
100
AcDbCircle
 10
92.16659999999999
 20
-43.23490000000001
 30
0.0
 40
0.5
100
AcDbArc
 50
270.0
 51
0.0
  0
ARC
  5
54A
330
1F
100
AcDbEntity
  8
0
  6
CONTINUOUS
 62
     7
100
AcDbCircle
 10
90.1666
 20
-44.23490000000001
 30
0.0
 40
0.5
100
AcDbArc
 50
90.0
 51
180.0
  0
ARC
  5
54B
330
1F
100
AcDbEntity
  8
0
  6
CONTINUOUS
 62
     7
100
AcDbCircle
 10
89.1666
 20
-48.23490000000001
 30
0.0
 40
0.5
100
AcDbArc
 50
270.0
 51
0.0
  0
ARC
  5
54C
330
1F
100
AcDbEntity
  8
0
  6
CONTINUOUS
 62
     7
100
AcDbCircle
 10
69.1666
 20
-48.23490000000001
 30
0.0
 40
0.5
100
AcDbArc
 50
180.0
 51
270.0
  0
ARC
  5
54D
330
1F
100
AcDbEntity
  8
0
  6
CONTINUOUS
 62
     7
100
AcDbCircle
 10
68.1666
 20
-44.23490000000001
 30
0.0
 40
0.5
100
AcDbArc
 50
0.0
 51
90.0
  0
ARC
  5
54E
330
1F
100
AcDbEntity
  8
0
  6
CONTINUOUS
 62
     7
100
AcDbCircle
 10
87.7666
 20
-49.23490000000001
 30
0.0
 40
0.5
100
AcDbArc
 50
90.0
 51
180.0
  0
ARC
  5
54F
330
1F
100
AcDbEntity
  8
0
  6
CONTINUOUS
 62
     7
100
AcDbCircle
 10
70.56660000000001
 20
-49.23490000000001
 30
0.0
 40
0.5
100
AcDbArc
 50
0.0
 51
90.0
  0
ARC
  5
550
330
1F
100
AcDbEntity
  8
0
  6
CONTINUOUS
 62
     7
100
AcDbCircle
 10
66.1666
 20
-43.23490000000001
 30
0.0
 40
0.5
100
AcDbArc
 50
180.0
 51
270.0
  0
ARC
  5
551
330
1F
100
AcDbEntity
  8
0
  6
CONTINUOUS
 62
     7
100
AcDbCircle
 10
68.647266
 20
-54.930818
 30
0.0
 40
0.2999999999999901
100
AcDbArc
 50
90.0
 51
176.1859249999887
  0
ARC
  5
552
330
1F
100
AcDbEntity
  8
0
  6
CONTINUOUS
 62
     7
100
AcDbCircle
 10
89.685934
 20
-54.930818
 30
0.0
 40
0.2999999999997308
100
AcDbArc
 50
3.8140750000113
 51
90.0
  0
ARC
  5
553
330
1F
100
AcDbEntity
  8
0
  6
CONTINUOUS
 62
     7
100
AcDbCircle
 10
85.752386
 20
-68.13081799999996
 30
0.0
 40
1.000000000000028
100
AcDbArc
 50
270.0
 51
315.0000000000173
  0
ARC
  5
554
330
1F
100
AcDbEntity
  8
0
  6
CONTINUOUS
 62
     7
100
AcDbCircle
 10
88.6666
 20
-65.71660499999997
 30
0.0
 40
1.00000000000031
100
AcDbArc
 50
315.0000000000184
 51
359.9999999999984
  0
ARC
  5
555
330
1F
100
AcDbEntity
  8
0
  6
CONTINUOUS
 62
     7
100
AcDbCircle
 10
69.6666
 20
-65.71660499999997
 30
0.0
 40
1.0
100
AcDbArc
 50
180.0000000000016
 51
224.9999999999833
  0
ARC
  5
556
330
1F
100
AcDbEntity
  8
0
  6
CONTINUOUS
 62
     7
100
AcDbCircle
 10
72.580814
 20
-68.13081800000006
 30
0.0
 40
1.000000000000249
100
AcDbArc
 50
224.999999999977
 51
270.0
  0
ARC
  5
557
330
1F
100
AcDbEntity
  8
0
  6
CONTINUOUS
 62
     7
100
AcDbCircle
 10
70.314667
 20
-54.930818
 30
0.0
 40
0.2999999999999972
100
AcDbArc
 50
0.0
 51
90.0
  0
ARC
  5
558
330
1F
100
AcDbEntity
  8
0
  6
CONTINUOUS
 62
     7
100
AcDbCircle
 10
69.656769
 20
-54.930818
 30
0.0
 40
0.2999999999999901
100
AcDbArc
 50
90.0
 51
180.0
  0
ARC
  5
559
330
1F
100
AcDbEntity
  8
0
  6
CONTINUOUS
 62
     7
100
AcDbCircle
 10
74.506489
 20
-54.930818
 30
0.0
 40
0.2999999999999972
100
AcDbArc
 50
0.0
 51
90.0
  0
ARC
  5
55A
330
1F
100
AcDbEntity
  8
0
  6
CONTINUOUS
 62
     7
100
AcDbCircle
 10
73.271951
 20
-54.930818
 30
0.0
 40
0.2999999999999901
100
AcDbArc
 50
90.0
 51
180.0
  0
ARC
  5
55B
330
1F
100
AcDbEntity
  8
0
  6
CONTINUOUS
 62
     7
100
AcDbCircle
 10
78.4666
 20
-54.930818
 30
0.0
 40
0.2999999999999901
100
AcDbArc
 50
90.0
 51
180.0
  0
ARC
  5
55C
330
1F
100
AcDbEntity
  8
0
  6
CONTINUOUS
 62
     7
100
AcDbCircle
 10
69.1666
 20
-54.63081800000001
 30
0.0
 40
0.5
100
AcDbArc
 50
90.0
 51
180.0
  0
ARC
  5
55D
330
1F
100
AcDbEntity
  8
0
  6
CONTINUOUS
 62
     7
100
AcDbCircle
 10
89.1666
 20
-54.63081800000001
 30
0.0
 40
0.5
100
AcDbArc
 50
0.0
 51
90.0
  0
ARC
  5
55E
330
1F
100
AcDbEntity
  8
0
  6
CONTINUOUS
 62
     7
100
AcDbCircle
 10
90.4666
 20
-58.430818
 30
0.0
 40
0.2000000000000099
100
AcDbArc
 50
270.0
 51
0.0
  0
ARC
  5
55F
330
1F
100
AcDbEntity
  8
0
  6
CONTINUOUS
 62
     7
100
AcDbCircle
 10
89.8666
 20
-58.83081800000001
 30
0.0
 40
0.1999999999999957
100
AcDbArc
 50
90.0
 51
180.0
  0
ARC
  5
560
330
1F
100
AcDbEntity
  8
0
  6
CONTINUOUS
 62
     7
100
AcDbCircle
 10
67.8666
 20
-58.430818
 30
0.0
 40
0.2000000000000028
100
AcDbArc
 50
180.0
 51
270.0
  0
ARC
  5
561
330
1F
100
AcDbEntity
  8
0
  6
CONTINUOUS
 62
     7
100
AcDbCircle
 10
68.4666
 20
-58.83081800000001
 30
0.0
 40
0.2000000000000028
100
AcDbArc
 50
0.0
 51
90.0
  0
ARC
  5
562
330
1F
100
AcDbEntity
  8
0
  6
CONTINUOUS
 62
     7
100
AcDbCircle
 10
84.4166
 20
-56.70616200000001
 30
0.0
 40
9.424655999999748
100
AcDbArc
 50
246.5535050000025
 51
293.4464949999975
  0
ARC
  5
563
330
1F
100
AcDbEntity
  8
0
  6
CONTINUOUS
 62
     7
100
AcDbCircle
 10
73.9166
 20
-56.70616200000001
 30
0.0
 40
9.424655999999748
100
AcDbArc
 50
246.5535050000025
 51
293.4464949999975
  0
ARC
  5
564
330
1F
100
AcDbEntity
  8
0
  6
CONTINUOUS
 62
     7
100
AcDbCircle
 10
54.67643100000001
 20
-54.930818
 30
0.0
 40
0.3000000000000043
100
AcDbArc
 50
0.0
 51
90.0
  0
ARC
  5
565
330
1F
100
AcDbEntity
  8
0
  6
CONTINUOUS
 62
     7
100
AcDbCircle
 10
54.01853300000001
 20
-54.930818
 30
0.0
 40
0.2999999999999901
100
AcDbArc
 50
90.0
 51
180.0
  0
ARC
  5
566
330
1F
100
AcDbEntity
  8
0
  6
CONTINUOUS
 62
     7
100
AcDbCircle
 10
51.061249
 20
-54.930818
 30
0.0
 40
0.3000000000000043
100
AcDbArc
 50
0.0
 51
90.0
  0
ARC
  5
567
330
1F
100
AcDbEntity
  8
0
  6
CONTINUOUS
 62
     7
100
AcDbCircle
 10
49.826711
 20
-54.930818
 30
0.0
 40
0.2999999999999901
100
AcDbArc
 50
90.0
 51
180.0
  0
ARC
  5
568
330
1F
100
AcDbEntity
  8
0
  6
CONTINUOUS
 62
     7
100
AcDbCircle
 10
45.86660000000001
 20
-54.930818
 30
0.0
 40
0.2999999999999901
100
AcDbArc
 50
0.0
 51
90.0
  0
ARC
  5
569
330
1F
100
AcDbEntity
  8
0
  6
CONTINUOUS
 62
     7
100
AcDbCircle
 10
36.4166
 20
-53.93303300000001
 30
0.0
 40
0.1000000000001493
100
AcDbArc
 50
105.0001950002565
 51
180.0
  0
ARC
  5
56A
330
1F
100
AcDbEntity
  8
0
  6
CONTINUOUS
 62
     7
100
AcDbCircle
 10
36.9666
 20
-53.57860400000001
 30
0.0
 40
0.1000000000001356
100
AcDbArc
 50
285.0001950002585
 51
0.0
  0
ARC
  5
56B
330
1F
100
AcDbEntity
  8
0
  6
CONTINUOUS
 62
     7
100
AcDbCircle
 10
58.16659999999999
 20
-43.23490000000001
 30
0.0
 40
0.5
100
AcDbArc
 50
270.0
 51
0.0
  0
ARC
  5
56C
330
1F
100
AcDbEntity
  8
0
  6
CONTINUOUS
 62
     7
100
AcDbCircle
 10
56.1666
 20
-44.23490000000001
 30
0.0
 40
0.5
100
AcDbArc
 50
90.0
 51
180.0
  0
ARC
  5
56D
330
1F
100
AcDbEntity
  8
0
  6
CONTINUOUS
 62
     7
100
AcDbCircle
 10
55.1666
 20
-48.23490000000001
 30
0.0
 40
0.5
100
AcDbArc
 50
270.0
 51
0.0
  0
ARC
  5
56E
330
1F
100
AcDbEntity
  8
0
  6
CONTINUOUS
 62
     7
100
AcDbCircle
 10
35.1666
 20
-48.23490000000001
 30
0.0
 40
0.5
100
AcDbArc
 50
180.0
 51
270.0
  0
ARC
  5
56F
330
1F
100
AcDbEntity
  8
0
  6
CONTINUOUS
 62
     7
100
AcDbCircle
 10
34.1666
 20
-44.23490000000001
 30
0.0
 40
0.5
100
AcDbArc
 50
0.0
 51
90.0
  0
ARC
  5
570
330
1F
100
AcDbEntity
  8
0
  6
CONTINUOUS
 62
     7
100
AcDbCircle
 10
53.7666
 20
-49.23490000000001
 30
0.0
 40
0.5
100
AcDbArc
 50
90.0
 51
180.0
  0
ARC
  5
571
330
1F
100
AcDbEntity
  8
0
  6
CONTINUOUS
 62
     7
100
AcDbCircle
 10
36.56660000000001
 20
-49.23490000000001
 30
0.0
 40
0.5
100
AcDbArc
 50
0.0
 51
90.0
  0
ARC
  5
572
330
1F
100
AcDbEntity
  8
0
  6
CONTINUOUS
 62
     7
100
AcDbCircle
 10
32.1666
 20
-43.23490000000001
 30
0.0
 40
0.5000000000000036
100
AcDbArc
 50
180.0
 51
270.0
  0
ARC
  5
573
330
1F
100
AcDbEntity
  8
0
  6
CONTINUOUS
 62
     7
100
AcDbCircle
 10
34.647266
 20
-54.930818
 30
0.0
 40
0.2999999999999901
100
AcDbArc
 50
90.0
 51
176.1859249999887
  0
ARC
  5
574
330
1F
100
AcDbEntity
  8
0
  6
CONTINUOUS
 62
     7
100
AcDbCircle
 10
55.685934
 20
-54.930818
 30
0.0
 40
0.2999999999997308
100
AcDbArc
 50
3.8140750000113
 51
90.0
  0
ARC
  5
575
330
1F
100
AcDbEntity
  8
0
  6
CONTINUOUS
 62
     7
100
AcDbCircle
 10
51.752386
 20
-68.13081799999996
 30
0.0
 40
1.000000000000028
100
AcDbArc
 50
270.0
 51
315.0000000000176
  0
ARC
  5
576
330
1F
100
AcDbEntity
  8
0
  6
CONTINUOUS
 62
     7
100
AcDbCircle
 10
54.6666
 20
-65.71660499999997
 30
0.0
 40
1.000000000000314
100
AcDbArc
 50
315.0000000000188
 51
359.9999999999984
  0
ARC
  5
577
330
1F
100
AcDbEntity
  8
0
  6
CONTINUOUS
 62
     7
100
AcDbCircle
 10
35.6666
 20
-65.71660499999997
 30
0.0
 40
1.0
100
AcDbArc
 50
180.0000000000016
 51
224.9999999999836
  0
ARC
  5
578
330
1F
100
AcDbEntity
  8
0
  6
CONTINUOUS
 62
     7
100
AcDbCircle
 10
38.580814
 20
-68.13081800000006
 30
0.0
 40
1.000000000000239
100
AcDbArc
 50
224.9999999999775
 51
270.0
  0
ARC
  5
579
330
1F
100
AcDbEntity
  8
0
  6
CONTINUOUS
 62
     7
100
AcDbCircle
 10
36.314667
 20
-54.930818
 30
0.0
 40
0.2999999999999972
100
AcDbArc
 50
0.0
 51
90.0
  0
ARC
  5
57A
330
1F
100
AcDbEntity
  8
0
  6
CONTINUOUS
 62
     7
100
AcDbCircle
 10
35.656769
 20
-54.930818
 30
0.0
 40
0.2999999999999901
100
AcDbArc
 50
90.0
 51
180.0
  0
ARC
  5
57B
330
1F
100
AcDbEntity
  8
0
  6
CONTINUOUS
 62
     7
100
AcDbCircle
 10
40.506489
 20
-54.930818
 30
0.0
 40
0.2999999999999972
100
AcDbArc
 50
0.0
 51
90.0
  0
ARC
  5
57C
330
1F
100
AcDbEntity
  8
0
  6
CONTINUOUS
 62
     7
100
AcDbCircle
 10
39.271951
 20
-54.930818
 30
0.0
 40
0.2999999999999901
100
AcDbArc
 50
90.0
 51
180.0
  0
ARC
  5
57D
330
1F
100
AcDbEntity
  8
0
  6
CONTINUOUS
 62
     7
100
AcDbCircle
 10
44.4666
 20
-54.930818
 30
0.0
 40
0.2999999999999901
100
AcDbArc
 50
90.0
 51
180.0
  0
ARC
  5
57E
330
1F
100
AcDbEntity
  8
0
  6
CONTINUOUS
 62
     7
100
AcDbCircle
 10
35.1666
 20
-54.63081800000001
 30
0.0
 40
0.5
100
AcDbArc
 50
90.0
 51
180.0
  0
ARC
  5
57F
330
1F
100
AcDbEntity
  8
0
  6
CONTINUOUS
 62
     7
100
AcDbCircle
 10
55.1666
 20
-54.63081800000001
 30
0.0
 40
0.5
100
AcDbArc
 50
0.0
 51
90.0
  0
ARC
  5
580
330
1F
100
AcDbEntity
  8
0
  6
CONTINUOUS
 62
     7
100
AcDbCircle
 10
56.4666
 20
-58.430818
 30
0.0
 40
0.2000000000000099
100
AcDbArc
 50
270.0
 51
0.0
  0
ARC
  5
581
330
1F
100
AcDbEntity
  8
0
  6
CONTINUOUS
 62
     7
100
AcDbCircle
 10
55.86660000000001
 20
-58.83081800000001
 30
0.0
 40
0.1999999999999957
100
AcDbArc
 50
90.0
 51
180.0
  0
ARC
  5
582
330
1F
100
AcDbEntity
  8
0
  6
CONTINUOUS
 62
     7
100
AcDbCircle
 10
33.86660000000001
 20
-58.430818
 30
0.0
 40
0.2000000000000099
100
AcDbArc
 50
180.0
 51
270.0
  0
ARC
  5
583
330
1F
100
AcDbEntity
  8
0
  6
CONTINUOUS
 62
     7
100
AcDbCircle
 10
34.4666
 20
-58.83081800000001
 30
0.0
 40
0.2000000000000028
100
AcDbArc
 50
0.0
 51
90.0
  0
ARC
  5
584
330
1F
100
AcDbEntity
  8
0
  6
CONTINUOUS
 62
     7
100
AcDbCircle
 10
50.4166
 20
-56.70616200000001
 30
0.0
 40
9.424655999999752
100
AcDbArc
 50
246.5535050000024
 51
293.4464949999975
  0
ARC
  5
585
330
1F
100
AcDbEntity
  8
0
  6
CONTINUOUS
 62
     7
100
AcDbCircle
 10
39.9166
 20
-56.70616200000001
 30
0.0
 40
9.424655999999752
100
AcDbArc
 50
246.5535050000024
 51
293.4464949999975
  0
ARC
  5
586
330
1F
100
AcDbEntity
  8
一般
  6
CONTINUOUS
 62
     7
100
AcDbCircle
 10
97.42745
 20
238.3109
 30
0.0
 40
0.5
100
AcDbArc
 50
90.0
 51
180.0
  0
ARC
  5
587
330
1F
100
AcDbEntity
  8
一般
  6
CONTINUOUS
 62
     7
100
AcDbCircle
 10
128.92745
 20
238.3109
 30
0.0
 40
0.5
100
AcDbArc
 50
0.0
 51
90.0
  0
ARC
  5
588
330
1F
100
AcDbEntity
  8
一般
  6
CONTINUOUS
 62
     7
100
AcDbCircle
 10
44.74845
 20
238.3108
 30
0.0
 40
0.5
100
AcDbArc
 50
0.0
 51
90.0
  0
ARC
  5
589
330
1F
100
AcDbEntity
  8
一般
  6
CONTINUOUS
 62
     7
100
AcDbCircle
 10
195.34615
 20
245.3108
 30
0.0
 40
0.5
100
AcDbArc
 50
90.0
 51
180.0
  0
ARC
  5
58A
330
1F
100
AcDbEntity
  8
一般
  6
CONTINUOUS
 62
     7
100
AcDbCircle
 10
195.34615
 20
245.3108
 30
0.0
 40
2.5
100
AcDbArc
 50
90.0
 51
180.0
  0
ARC
  5
58B
330
1F
100
AcDbEntity
  8
一般
  6
CONTINUOUS
 62
     7
100
AcDbCircle
 10
192.34615
 20
241.3108
 30
0.0
 40
0.5
100
AcDbArc
 50
270.0
 51
0.0
  0
ARC
  5
58C
330
1F
100
AcDbEntity
  8
一般
  6
CONTINUOUS
 62
     7
100
AcDbCircle
 10
192.34615
 20
241.311
 30
0.0
 40
2.5
100
AcDbArc
 50
270.0
 51
0.0
  0
ARC
  5
58D
330
1F
100
AcDbEntity
  8
一般
  6
CONTINUOUS
 62
     7
100
AcDbCircle
 10
181.46425
 20
238.3109
 30
0.0
 40
0.5
100
AcDbArc
 50
90.0
 51
180.0
  0
ARC
  5
58E
330
1F
100
AcDbEntity
  8
一般
  6
CONTINUOUS
 62
     7
100
AcDbCircle
 10
193.46425
 20
238.3109
 30
0.0
 40
0.5
100
AcDbArc
 50
0.0
 51
90.0
  0
ARC
  5
58F
330
1F
100
AcDbEntity
  8
一般
  6
CONTINUOUS
 62
     7
100
AcDbCircle
 10
226.86235
 20
192.3085
 30
0.0
 40
0.799999999999983
100
AcDbArc
 50
90.0
 51
0.0
  0
ARC
  5
590
330
1F
100
AcDbEntity
  8
一般
  6
CONTINUOUS
 62
     7
100
AcDbCircle
 10
221.67565
 20
119.1577
 30
0.0
 40
1.5
100
AcDbArc
 50
0.0
 51
90.0
  0
ARC
  5
591
330
1F
100
AcDbEntity
  8
一般
  6
DOTTED
 62
     2
100
AcDbCircle
 10
211.40225
 20
106.9305
 30
0.0
 40
5.0
100
AcDbArc
 50
0.0
 51
90.0
  0
ARC
  5
592
330
1F
100
AcDbEntity
  8
一般
  6
CONTINUOUS
 62
     7
100
AcDbCircle
 10
222.01255
 20
205.5095
 30
0.0
 40
0.4999816996651021
100
AcDbArc
 50
2.99230923889177
 51
90.0
  0
ARC
  5
593
330
1F
100
AcDbEntity
  8
一般
  6
CONTINUOUS
 62
     7
100
AcDbCircle
 10
228.36235
 20
190.1779
 30
0.0
 40
2.0000054024927
100
AcDbArc
 50
312.6718228885076
 51
0.0
  0
ARC
  5
594
330
1F
100
AcDbEntity
  8
一般
  6
CONTINUOUS
 62
     7
100
AcDbCircle
 10
172.17165
 20
98.4578
 30
0.0
 40
1.0
100
AcDbArc
 50
0.0
 51
90.0
  0
ARC
  5
595
330
1F
100
AcDbEntity
  8
一般
  6
CONTINUOUS
 62
     7
100
AcDbCircle
 10
172.17185
 20
98.4578
 30
0.0
 40
2.0
100
AcDbArc
 50
0.0
 51
90.0
  0
ARC
  5
596
330
1F
100
AcDbEntity
  8
一般
  6
CONTINUOUS
 62
     7
100
AcDbCircle
 10
172.17585
 20
98.4578
 30
0.0
 40
2.0
100
AcDbArc
 50
0.0
 51
90.0
  0
ARC
  5
597
330
1F
100
AcDbEntity
  8
一般
  6
CONTINUOUS
 62
     7
100
AcDbCircle
 10
172.17565
 20
98.4578
 30
0.0
 40
1.0
100
AcDbArc
 50
0.0
 51
90.0
  0
ARC
  5
598
330
1F
100
AcDbEntity
  8
一般
  6
CONTINUOUS
 62
     7
100
AcDbCircle
 10
-1.48214999999999
 20
206.2921
 30
0.0
 40
1.5
100
AcDbArc
 50
90.0
 51
180.0
  0
ARC
  5
599
330
1F
100
AcDbEntity
  8
一般
  6
CONTINUOUS
 62
     7
100
AcDbCircle
 10
2.75745
 20
190.7421
 30
0.0
 40
0.5000517673201459
100
AcDbArc
 50
301.3823107024603
 51
58.61768929753746
  0
ARC
  5
59A
330
1F
100
AcDbEntity
  8
一般
  6
CONTINUOUS
 62
     7
100
AcDbCircle
 10
4.05965000000002
 20
205.8095
 30
0.0
 40
0.1999999999999886
100
AcDbArc
 50
90.0
 51
177.0188368355624
  0
ARC
  5
59B
330
1F
100
AcDbEntity
  8
一般
  6
CONTINUOUS
 62
     7
100
AcDbCircle
 10
4.66765
 20
119.1577
 30
0.0
 40
1.5
100
AcDbArc
 50
90.0
 51
180.0
  0
ARC
  5
59C
330
1F
100
AcDbEntity
  8
一般
  6
CONTINUOUS
 62
     7
100
AcDbCircle
 10
3.87225
 20
206.0095
 30
0.0
 40
1.199999999999989
100
AcDbArc
 50
90.0
 51
135.3983967602327
  0
ARC
  5
59D
330
1F
100
AcDbEntity
  8
一般
  6
CONTINUOUS
 62
     7
100
AcDbCircle
 10
54.17145
 20
98.4578
 30
0.0
 40
2.0
100
AcDbArc
 50
90.0
 51
180.0
  0
ARC
  5
59E
330
1F
100
AcDbEntity
  8
一般
  6
CONTINUOUS
 62
     7
100
AcDbCircle
 10
54.17165
 20
98.4578
 30
0.0
 40
1.0
100
AcDbArc
 50
90.0
 51
180.0
  0
ARC
  5
59F
330
1F
100
AcDbEntity
  8
一般
  6
CONTINUOUS
 62
     7
100
AcDbCircle
 10
54.17565
 20
98.4578
 30
0.0
 40
1.0
100
AcDbArc
 50
90.0
 51
180.0
  0
ARC
  5
5A0
330
1F
100
AcDbEntity
  8
一般
  6
CONTINUOUS
 62
     7
100
AcDbCircle
 10
54.17545
 20
98.4578
 30
0.0
 40
2.0
100
AcDbArc
 50
90.0
 51
180.0
  0
ARC
  5
5A1
330
1F
100
AcDbEntity
  8
一般
  6
CONTINUOUS
 62
     7
100
AcDbCircle
 10
226.86235
 20
192.3013999999998
 30
0.0
 40
3.5
100
AcDbArc
 50
0.0
 51
179.8837715781299
  0
ARC
  5
5A2
330
1F
100
AcDbEntity
  8
一般
  6
CONTINUOUS
 62
     7
100
AcDbCircle
 10
216.56395
 20
181.3006
 30
0.0
 40
5.999914732727451
100
AcDbArc
 50
274.1212681115896
 51
357.0001114905149
  0
ARC
  5
5A3
330
1F
100
AcDbEntity
  8
一般
  6
CONTINUOUS
 62
     7
100
AcDbCircle
 10
3.32235000000002
 20
205.2921
 30
0.0
 40
0.5
100
AcDbArc
 50
270.0
 51
90.0
  0
ARC
  5
5A4
330
1F
100
AcDbEntity
  8
一般
  6
CONTINUOUS
 62
     7
100
AcDbCircle
 10
-1.48214999999999
 20
190.4921
 30
0.0
 40
0.9999999999999898
100
AcDbArc
 50
180.0
 51
270.0
  0
ARC
  5
5A5
330
1F
100
AcDbEntity
  8
一般
  6
CONTINUOUS
 62
     7
100
AcDbCircle
 10
-1.48214999999999
 20
190.4921
 30
0.0
 40
1.49999999999999
100
AcDbArc
 50
180.0
 51
270.0
  0
ARC
  5
5A6
330
1F
100
AcDbEntity
  8
一般
  6
CONTINUOUS
 62
     7
100
AcDbCircle
 10
-1.48214999999999
 20
206.2921
 30
0.0
 40
1.0
100
AcDbArc
 50
90.0
 51
180.0
  0
ARC
  5
5A7
330
1F
100
AcDbEntity
  8
一般
  6
CONTINUOUS
 62
     7
100
AcDbCircle
 10
4.34165000000002
 20
205.5095
 30
0.0
 40
0.5
100
AcDbArc
 50
90.0
 51
177.007690761159
  0
ARC
  5
5A8
330
1F
100
AcDbEntity
  8
一般
  6
CONTINUOUS
 62
     7
100
AcDbCircle
 10
9.76055
 20
181.3003
 30
0.0
 40
6.000027170771792
100
AcDbArc
 50
183.0007921511485
 51
265.8682548135309
  0
ARC
  5
5A9
330
1F
100
AcDbEntity
  8
一般
  6
CONTINUOUS
 62
     7
100
AcDbCircle
 10
-115.69015
 20
118.2213
 30
0.0
 40
1.5
100
AcDbArc
 50
0.0
 51
87.00006151373469
  0
ARC
  5
5AA
330
1F
100
AcDbEntity
  8
一般
  6
CONTINUOUS
 62
     7
100
AcDbCircle
 10
-146.71795
 20
119.4914
 30
0.0
 40
0.4999869298291752
100
AcDbArc
 50
93.00375307003918
 51
180.0
  0
ARC
  5
5AB
330
1F
100
AcDbEntity
  8
一般
  6
CONTINUOUS
 62
     7
100
AcDbCircle
 10
-114.49015
 20
103.9115
 30
0.0
 40
0.3000030833174926
100
AcDbArc
 50
284.9117334035018
 51
0.0
  0
ARC
  5
5AC
330
1F
100
AcDbEntity
  8
一般
  6
DOTTED
 62
     2
100
AcDbCircle
 10
14.95275
 20
106.9305
 30
0.0
 40
5.0
100
AcDbArc
 50
90.0
 51
180.0
  0
ARC
  5
5AD
330
1F
100
AcDbEntity
  8
一般
  6
CONTINUOUS
 62
     7
100
AcDbCircle
 10
-8.82944999999998
 20
189.728
 30
0.0
 40
0.5
100
AcDbArc
 50
180.0
 51
260.0026413458093
  0
ARC
  5
5AE
330
1F
100
AcDbEntity
  8
一般
  6
CONTINUOUS
 62
     7
100
AcDbCircle
 10
2.49365000000002
 20
186.2082
 30
0.0
 40
1.000073722282513
100
AcDbArc
 50
3.00345285444045
 51
79.99799390182896
  0
ARC
  5
5AF
330
1F
100
AcDbEntity
  8
一般
  6
CONTINUOUS
 62
     7
100
AcDbCircle
 10
172.17165
 20
54.4578
 30
0.0
 40
1.0
100
AcDbArc
 50
270.0
 51
0.0
  0
ARC
  5
5B0
330
1F
100
AcDbEntity
  8
一般
  6
CONTINUOUS
 62
     7
100
AcDbCircle
 10
172.17565
 20
54.4578
 30
0.0
 40
1.0
100
AcDbArc
 50
270.0
 51
0.0
  0
ARC
  5
5B1
330
1F
100
AcDbEntity
  8
一般
  6
CONTINUOUS
 62
     7
100
AcDbCircle
 10
172.17185
 20
54.4578
 30
0.0
 40
2.0
100
AcDbArc
 50
270.0
 51
0.0
  0
ARC
  5
5B2
330
1F
100
AcDbEntity
  8
一般
  6
CONTINUOUS
 62
     7
100
AcDbCircle
 10
172.17585
 20
54.4578
 30
0.0
 40
2.0
100
AcDbArc
 50
270.0
 51
0.0
  0
ARC
  5
5B3
330
1F
100
AcDbEntity
  8
一般
  6
CONTINUOUS
 62
     7
100
AcDbCircle
 10
-171.01925
 20
113.4319
 30
0.0
 40
1.999942481672917
100
AcDbArc
 50
93.00089213470667
 51
180.0
  0
ARC
  5
5B4
330
1F
100
AcDbEntity
  8
一般
  6
CONTINUOUS
 62
     7
100
AcDbCircle
 10
166.17165
 20
59.4578
 30
0.0
 40
3.0
100
AcDbArc
 50
270.0
 51
0.0
  0
ARC
  5
5B5
330
1F
100
AcDbEntity
  8
一般
  6
CONTINUOUS
 62
     7
100
AcDbCircle
 10
54.17545
 20
54.4578
 30
0.0
 40
2.0
100
AcDbArc
 50
180.0
 51
270.0
  0
ARC
  5
5B6
330
1F
100
AcDbEntity
  8
一般
  6
CONTINUOUS
 62
     7
100
AcDbCircle
 10
54.17565
 20
54.4578
 30
0.0
 40
1.0
100
AcDbArc
 50
180.0
 51
270.0
  0
ARC
  5
5B7
330
1F
100
AcDbEntity
  8
一般
  6
CONTINUOUS
 62
     7
100
AcDbCircle
 10
54.17165
 20
54.4578
 30
0.0
 40
1.0
100
AcDbArc
 50
180.0
 51
270.0
  0
ARC
  5
5B8
330
1F
100
AcDbEntity
  8
一般
  6
CONTINUOUS
 62
     7
100
AcDbCircle
 10
54.17145
 20
54.4578
 30
0.0
 40
2.0
100
AcDbArc
 50
180.0
 51
270.0
  0
ARC
  5
5B9
330
1F
100
AcDbEntity
  8
一般
  6
CONTINUOUS
 62
     7
100
AcDbCircle
 10
60.17165
 20
59.4578
 30
0.0
 40
3.0
100
AcDbArc
 50
180.0
 51
270.0
  0
ARC
  5
5BA
330
1F
100
AcDbEntity
  8
一般
  6
CONTINUOUS
 62
     7
100
AcDbCircle
 10
0.25565000000001
 20
-1.53139999999999
 30
0.0
 40
2.0000000025
100
AcDbArc
 50
90.00286478897327
 51
163.8802822946901
  0
ARC
  5
5BB
330
1F
100
AcDbEntity
  8
一般
  6
CONTINUOUS
 62
     7
100
AcDbCircle
 10
1.17515000000001
 20
-33.7054
 30
0.0
 40
2.00000000249999
100
AcDbArc
 50
0.00286478897316
 51
74.9979038287536
  0
ARC
  5
5BC
330
1F
100
AcDbEntity
  8
一般
  6
CONTINUOUS
 62
     7
100
AcDbCircle
 10
2.17295000000002
 20
1.46870000000001
 30
0.0
 40
1.000000005
100
AcDbArc
 50
270.0057295779322
 51
0.00572957793164
  0
ARC
  5
5BD
330
1F
100
AcDbEntity
  8
一般
  6
CONTINUOUS
 62
     7
100
AcDbCircle
 10
-2.32604999999998
 20
-23.456
 30
0.0
 40
6.999968800644777
100
AcDbArc
 50
165.9143252962477
 51
257.3656328111063
  0
ARC
  5
5BE
330
1F
100
AcDbEntity
  8
一般
  6
CONTINUOUS
 62
     7
100
AcDbCircle
 10
-130.45085
 20
52.7114
 30
0.0
 40
0.25
100
AcDbArc
 50
270.0
 51
90.0
  0
ARC
  5
5BF
330
1F
100
AcDbEntity
  8
一般
  6
CONTINUOUS
 62
     7
100
AcDbCircle
 10
-130.45085
 20
51.2114
 30
0.0
 40
0.25
100
AcDbArc
 50
270.0
 51
90.0
  0
ARC
  5
5C0
330
1F
100
AcDbEntity
  8
一般
  6
CONTINUOUS
 62
     7
100
AcDbCircle
 10
-130.45085
 20
49.7114
 30
0.0
 40
0.25
100
AcDbArc
 50
270.0
 51
90.0
  0
ARC
  5
5C1
330
1F
100
AcDbEntity
  8
一般
  6
CONTINUOUS
 62
     7
100
AcDbCircle
 10
-148.75085
 20
51.2114
 30
0.0
 40
0.25
100
AcDbArc
 50
90.0
 51
270.0
  0
ARC
  5
5C2
330
1F
100
AcDbEntity
  8
一般
  6
CONTINUOUS
 62
     7
100
AcDbCircle
 10
-114.49015
 20
49.3198
 30
0.0
 40
0.2999999999999972
100
AcDbArc
 50
0.0
 51
75.08826659649905
  0
ARC
  5
5C3
330
1F
100
AcDbEntity
  8
一般
  6
CONTINUOUS
 62
     7
100
AcDbCircle
 10
-2.73654999999998
 20
51.2114
 30
0.0
 40
0.25
100
AcDbArc
 50
90.0
 51
270.0
  0
ARC
  5
5C4
330
1F
100
AcDbEntity
  8
一般
  6
CONTINUOUS
 62
     7
100
AcDbCircle
 10
-2.73654999999998
 20
49.7114
 30
0.0
 40
0.25
100
AcDbArc
 50
90.0
 51
270.0
  0
ARC
  5
5C5
330
1F
100
AcDbEntity
  8
一般
  6
CONTINUOUS
 62
     7
100
AcDbCircle
 10
-2.73654999999998
 20
34.7114
 30
0.0
 40
0.25
100
AcDbArc
 50
90.0
 51
270.0
  0
ARC
  5
5C6
330
1F
100
AcDbEntity
  8
一般
  6
CONTINUOUS
 62
     7
100
AcDbCircle
 10
-2.73654999999998
 20
52.7114
 30
0.0
 40
0.25
100
AcDbArc
 50
90.0
 51
270.0
  0
ARC
  5
5C7
330
1F
100
AcDbEntity
  8
一般
  6
CONTINUOUS
 62
     7
100
AcDbCircle
 10
-2.73654999999998
 20
45.2114
 30
0.0
 40
0.25
100
AcDbArc
 50
90.0
 51
270.0
  0
ARC
  5
5C8
330
1F
100
AcDbEntity
  8
一般
  6
CONTINUOUS
 62
     7
100
AcDbCircle
 10
-2.73654999999998
 20
43.7114
 30
0.0
 40
0.25
100
AcDbArc
 50
90.0
 51
270.0
  0
ARC
  5
5C9
330
1F
100
AcDbEntity
  8
一般
  6
CONTINUOUS
 62
     7
100
AcDbCircle
 10
-2.73654999999998
 20
42.2114
 30
0.0
 40
0.25
100
AcDbArc
 50
90.0
 51
270.0
  0
ARC
  5
5CA
330
1F
100
AcDbEntity
  8
一般
  6
CONTINUOUS
 62
     7
100
AcDbCircle
 10
-2.73654999999998
 20
40.7114
 30
0.0
 40
0.25
100
AcDbArc
 50
90.0
 51
270.0
  0
ARC
  5
5CB
330
1F
100
AcDbEntity
  8
一般
  6
CONTINUOUS
 62
     7
100
AcDbCircle
 10
-2.73654999999998
 20
48.2114
 30
0.0
 40
0.25
100
AcDbArc
 50
90.0
 51
270.0
  0
ARC
  5
5CC
330
1F
100
AcDbEntity
  8
一般
  6
CONTINUOUS
 62
     7
100
AcDbCircle
 10
-2.73654999999998
 20
46.7114
 30
0.0
 40
0.25
100
AcDbArc
 50
90.0
 51
270.0
  0
ARC
  5
5CD
330
1F
100
AcDbEntity
  8
一般
  6
CONTINUOUS
 62
     7
100
AcDbCircle
 10
-2.73654999999998
 20
39.2114
 30
0.0
 40
0.25
100
AcDbArc
 50
90.0
 51
270.0
  0
ARC
  5
5CE
330
1F
100
AcDbEntity
  8
一般
  6
CONTINUOUS
 62
     7
100
AcDbCircle
 10
-2.73654999999998
 20
37.7114
 30
0.0
 40
0.25
100
AcDbArc
 50
90.0
 51
270.0
  0
ARC
  5
5CF
330
1F
100
AcDbEntity
  8
一般
  6
CONTINUOUS
 62
     7
100
AcDbCircle
 10
-2.73654999999998
 20
36.2114
 30
0.0
 40
0.25
100
AcDbArc
 50
90.0
 51
270.0
  0
ARC
  5
5D0
330
1F
100
AcDbEntity
  8
一般
  6
CONTINUOUS
 62
     7
100
AcDbCircle
 10
-1.48654999999999
 20
18.45460000000002
 30
0.0
 40
1.00000000000001
100
AcDbArc
 50
180.0
 51
270.0
  0
ARC
  5
5D1
330
1F
100
AcDbEntity
  8
一般
  6
CONTINUOUS
 62
     7
100
AcDbCircle
 10
-1.48654999999999
 20
61.4681
 30
0.0
 40
1.0
100
AcDbArc
 50
90.0
 51
180.0
  0
ARC
  5
5D2
330
1F
100
AcDbEntity
  8
一般
  6
CONTINUOUS
 62
     7
100
AcDbCircle
 10
-2.73654999999998
 20
33.2114
 30
0.0
 40
0.25
100
AcDbArc
 50
90.0
 51
270.0
  0
ARC
  5
5D3
330
1F
100
AcDbEntity
  8
一般
  6
CONTINUOUS
 62
     7
100
AcDbCircle
 10
-2.73654999999998
 20
31.7114
 30
0.0
 40
0.25
100
AcDbArc
 50
90.0
 51
270.0
  0
ARC
  5
5D4
330
1F
100
AcDbEntity
  8
一般
  6
CONTINUOUS
 62
     7
100
AcDbCircle
 10
-2.73654999999998
 20
30.2114
 30
0.0
 40
0.25
100
AcDbArc
 50
90.0
 51
270.0
  0
ARC
  5
5D5
330
1F
100
AcDbEntity
  8
一般
  6
CONTINUOUS
 62
     7
100
AcDbCircle
 10
-2.73654999999998
 20
28.7114
 30
0.0
 40
0.25
100
AcDbArc
 50
90.0
 51
270.0
  0
ARC
  5
5D6
330
1F
100
AcDbEntity
  8
一般
  6
CONTINUOUS
 62
     7
100
AcDbCircle
 10
-2.73654999999998
 20
27.2114
 30
0.0
 40
0.25
100
AcDbArc
 50
90.0
 51
270.0
  0
ARC
  5
5D7
330
1F
100
AcDbEntity
  8
一般
  6
CONTINUOUS
 62
     7
100
AcDbCircle
 10
-147.00085
 20
60.9681
 30
0.0
 40
2.0
100
AcDbArc
 50
90.0
 51
180.0
  0
ARC
  5
5D8
330
1F
100
AcDbEntity
  8
一般
  6
CONTINUOUS
 62
     7
100
AcDbCircle
 10
-132.20085
 20
60.9681
 30
0.0
 40
1.5
100
AcDbArc
 50
0.0
 51
90.0
  0
ARC
  5
5D9
330
1F
100
AcDbEntity
  8
一般
  6
CONTINUOUS
 62
     7
100
AcDbCircle
 10
-132.20085
 20
60.9681
 30
0.0
 40
2.0
100
AcDbArc
 50
0.0
 51
90.0
  0
ARC
  5
5DA
330
1F
100
AcDbEntity
  8
一般
  6
CONTINUOUS
 62
     7
100
AcDbCircle
 10
-147.00085
 20
60.9681
 30
0.0
 40
1.5
100
AcDbArc
 50
90.0
 51
180.0
  0
ARC
  5
5DB
330
1F
100
AcDbEntity
  8
一般
  6
CONTINUOUS
 62
     7
100
AcDbCircle
 10
-148.75085
 20
48.2114
 30
0.0
 40
0.25
100
AcDbArc
 50
90.0
 51
270.0
  0
ARC
  5
5DC
330
1F
100
AcDbEntity
  8
一般
  6
CONTINUOUS
 62
     7
100
AcDbCircle
 10
-130.45085
 20
48.2114
 30
0.0
 40
0.25
100
AcDbArc
 50
270.0
 51
90.0
  0
ARC
  5
5DD
330
1F
100
AcDbEntity
  8
一般
  6
CONTINUOUS
 62
     7
100
AcDbCircle
 10
-148.75085
 20
52.7114
 30
0.0
 40
0.25
100
AcDbArc
 50
90.0
 51
270.0
  0
ARC
  5
5DE
330
1F
100
AcDbEntity
  8
一般
  6
CONTINUOUS
 62
     7
100
AcDbCircle
 10
-131.51695
 20
-0.53139999999999
 30
0.0
 40
1.0
100
AcDbArc
 50
0.0
 51
90.0
  0
ARC
  5
5DF
330
1F
100
AcDbEntity
  8
一般
  6
CONTINUOUS
 62
     7
100
AcDbCircle
 10
-147.00085
 20
18.95460000000002
 30
0.0
 40
1.5
100
AcDbArc
 50
180.0
 51
270.0
  0
ARC
  5
5E0
330
1F
100
AcDbEntity
  8
一般
  6
CONTINUOUS
 62
     7
100
AcDbCircle
 10
-129.06945
 20
-33.4983
 30
0.0
 40
1.0
100
AcDbArc
 50
270.0
 51
0.0
  0
ARC
  5
5E1
330
1F
100
AcDbEntity
  8
一般
  6
CONTINUOUS
 62
     7
100
AcDbCircle
 10
-148.75085
 20
49.7114
 30
0.0
 40
0.25
100
AcDbArc
 50
90.0
 51
270.0
  0
ARC
  5
5E2
330
1F
100
AcDbEntity
  8
一般
  6
CONTINUOUS
 62
     7
100
AcDbCircle
 10
-148.75085
 20
46.7114
 30
0.0
 40
0.25
100
AcDbArc
 50
90.0
 51
270.0
  0
ARC
  5
5E3
330
1F
100
AcDbEntity
  8
一般
  6
CONTINUOUS
 62
     7
100
AcDbCircle
 10
-131.51695
 20
-33.4983
 30
0.0
 40
1.0
100
AcDbArc
 50
270.0
 51
0.0
  0
ARC
  5
5E4
330
1F
100
AcDbEntity
  8
一般
  6
CONTINUOUS
 62
     7
100
AcDbCircle
 10
-148.75085
 20
28.7114
 30
0.0
 40
0.25
100
AcDbArc
 50
90.0
 51
270.0
  0
ARC
  5
5E5
330
1F
100
AcDbEntity
  8
一般
  6
CONTINUOUS
 62
     7
100
AcDbCircle
 10
-148.75085
 20
30.2114
 30
0.0
 40
0.25
100
AcDbArc
 50
90.0
 51
270.0
  0
ARC
  5
5E6
330
1F
100
AcDbEntity
  8
一般
  6
CONTINUOUS
 62
     7
100
AcDbCircle
 10
-148.75085
 20
31.7114
 30
0.0
 40
0.25
100
AcDbArc
 50
90.0
 51
270.0
  0
ARC
  5
5E7
330
1F
100
AcDbEntity
  8
一般
  6
CONTINUOUS
 62
     7
100
AcDbCircle
 10
-148.75085
 20
43.7114
 30
0.0
 40
0.25
100
AcDbArc
 50
90.0
 51
270.0
  0
ARC
  5
5E8
330
1F
100
AcDbEntity
  8
一般
  6
CONTINUOUS
 62
     7
100
AcDbCircle
 10
-130.45085
 20
45.2114
 30
0.0
 40
0.25
100
AcDbArc
 50
270.0
 51
90.0
  0
ARC
  5
5E9
330
1F
100
AcDbEntity
  8
一般
  6
CONTINUOUS
 62
     7
100
AcDbCircle
 10
-147.00085
 20
18.95460000000002
 30
0.0
 40
2.0
100
AcDbArc
 50
180.0
 51
270.0
  0
ARC
  5
5EA
330
1F
100
AcDbEntity
  8
一般
  6
CONTINUOUS
 62
     7
100
AcDbCircle
 10
-132.20085
 20
18.95460000000002
 30
0.0
 40
1.5
100
AcDbArc
 50
270.0
 51
0.0
  0
ARC
  5
5EB
330
1F
100
AcDbEntity
  8
一般
  6
CONTINUOUS
 62
     7
100
AcDbCircle
 10
-130.45085
 20
46.7114
 30
0.0
 40
0.25
100
AcDbArc
 50
270.0
 51
90.0
  0
ARC
  5
5EC
330
1F
100
AcDbEntity
  8
一般
  6
CONTINUOUS
 62
     7
100
AcDbCircle
 10
-130.45085
 20
33.2114
 30
0.0
 40
0.25
100
AcDbArc
 50
270.0
 51
90.0
  0
ARC
  5
5ED
330
1F
100
AcDbEntity
  8
一般
  6
CONTINUOUS
 62
     7
100
AcDbCircle
 10
-130.45085
 20
27.2114
 30
0.0
 40
0.25
100
AcDbArc
 50
270.0
 51
90.0
  0
ARC
  5
5EE
330
1F
100
AcDbEntity
  8
一般
  6
CONTINUOUS
 62
     7
100
AcDbCircle
 10
-130.45085
 20
28.7114
 30
0.0
 40
0.25
100
AcDbArc
 50
270.0
 51
90.0
  0
ARC
  5
5EF
330
1F
100
AcDbEntity
  8
一般
  6
CONTINUOUS
 62
     7
100
AcDbCircle
 10
-130.45085
 20
30.2114
 30
0.0
 40
0.25
100
AcDbArc
 50
270.0
 51
90.0
  0
ARC
  5
5F0
330
1F
100
AcDbEntity
  8
一般
  6
CONTINUOUS
 62
     7
100
AcDbCircle
 10
-130.45085
 20
31.7114
 30
0.0
 40
0.25
100
AcDbArc
 50
270.0
 51
90.0
  0
ARC
  5
5F1
330
1F
100
AcDbEntity
  8
一般
  6
CONTINUOUS
 62
     7
100
AcDbCircle
 10
-132.20085
 20
18.95460000000002
 30
0.0
 40
2.0
100
AcDbArc
 50
270.0
 51
0.0
  0
ARC
  5
5F2
330
1F
100
AcDbEntity
  8
一般
  6
CONTINUOUS
 62
     7
100
AcDbCircle
 10
-129.06945
 20
-0.53139999999999
 30
0.0
 40
1.0
100
AcDbArc
 50
0.0
 51
90.0
  0
ARC
  5
5F3
330
1F
100
AcDbEntity
  8
一般
  6
CONTINUOUS
 62
     7
100
AcDbCircle
 10
-148.75085
 20
33.2114
 30
0.0
 40
0.25
100
AcDbArc
 50
90.0
 51
270.0
  0
ARC
  5
5F4
330
1F
100
AcDbEntity
  8
一般
  6
CONTINUOUS
 62
     7
100
AcDbCircle
 10
-148.75085
 20
27.2114
 30
0.0
 40
0.25
100
AcDbArc
 50
90.0
 51
270.0
  0
ARC
  5
5F5
330
1F
100
AcDbEntity
  8
一般
  6
CONTINUOUS
 62
     7
100
AcDbCircle
 10
-148.75085
 20
37.7114
 30
0.0
 40
0.25
100
AcDbArc
 50
90.0
 51
270.0
  0
ARC
  5
5F6
330
1F
100
AcDbEntity
  8
一般
  6
CONTINUOUS
 62
     7
100
AcDbCircle
 10
-135.35085
 20
42.2114
 30
0.0
 40
0.25
100
AcDbArc
 50
90.0
 51
180.0
  0
ARC
  5
5F7
330
1F
100
AcDbEntity
  8
一般
  6
CONTINUOUS
 62
     7
100
AcDbCircle
 10
-135.35085
 20
40.7114
 30
0.0
 40
0.25
100
AcDbArc
 50
90.0
 51
180.0
  0
ARC
  5
5F8
330
1F
100
AcDbEntity
  8
一般
  6
CONTINUOUS
 62
     7
100
AcDbCircle
 10
-130.45085
 20
43.7114
 30
0.0
 40
0.25
100
AcDbArc
 50
270.0
 51
90.0
  0
ARC
  5
5F9
330
1F
100
AcDbEntity
  8
一般
  6
CONTINUOUS
 62
     7
100
AcDbCircle
 10
-148.75085
 20
45.2114
 30
0.0
 40
0.25
100
AcDbArc
 50
90.0
 51
270.0
  0
ARC
  5
5FA
330
1F
100
AcDbEntity
  8
一般
  6
CONTINUOUS
 62
     7
100
AcDbCircle
 10
-135.35085
 20
40.7114
 30
0.0
 40
0.25
100
AcDbArc
 50
180.0
 51
270.0
  0
ARC
  5
5FB
330
1F
100
AcDbEntity
  8
一般
  6
CONTINUOUS
 62
     7
100
AcDbCircle
 10
-135.35085
 20
43.7114
 30
0.0
 40
0.25
100
AcDbArc
 50
180.0
 51
270.0
  0
ARC
  5
5FC
330
1F
100
AcDbEntity
  8
一般
  6
CONTINUOUS
 62
     7
100
AcDbCircle
 10
-130.45085
 20
39.2114
 30
0.0
 40
0.25
100
AcDbArc
 50
270.0
 51
90.0
  0
ARC
  5
5FD
330
1F
100
AcDbEntity
  8
一般
  6
CONTINUOUS
 62
     7
100
AcDbCircle
 10
-148.75085
 20
39.2114
 30
0.0
 40
0.25
100
AcDbArc
 50
90.0
 51
270.0
  0
ARC
  5
5FE
330
1F
100
AcDbEntity
  8
一般
  6
CONTINUOUS
 62
     7
100
AcDbCircle
 10
-143.85085
 20
43.7114
 30
0.0
 40
0.25
100
AcDbArc
 50
270.0
 51
90.0
  0
ARC
  5
5FF
330
1F
100
AcDbEntity
  8
一般
  6
CONTINUOUS
 62
     7
100
AcDbCircle
 10
-135.35085
 20
42.2114
 30
0.0
 40
0.25
100
AcDbArc
 50
180.0
 51
270.0
  0
ARC
  5
600
330
1F
100
AcDbEntity
  8
一般
  6
CONTINUOUS
 62
     7
100
AcDbCircle
 10
-148.75085
 20
42.2114
 30
0.0
 40
0.25
100
AcDbArc
 50
90.0
 51
270.0
  0
ARC
  5
601
330
1F
100
AcDbEntity
  8
一般
  6
CONTINUOUS
 62
     7
100
AcDbCircle
 10
-143.85085
 20
42.2114
 30
0.0
 40
0.25
100
AcDbArc
 50
270.0
 51
90.0
  0
ARC
  5
602
330
1F
100
AcDbEntity
  8
一般
  6
CONTINUOUS
 62
     7
100
AcDbCircle
 10
-130.45085
 20
34.7114
 30
0.0
 40
0.25
100
AcDbArc
 50
270.0
 51
90.0
  0
ARC
  5
603
330
1F
100
AcDbEntity
  8
一般
  6
CONTINUOUS
 62
     7
100
AcDbCircle
 10
-130.45085
 20
36.2114
 30
0.0
 40
0.25
100
AcDbArc
 50
270.0
 51
90.0
  0
ARC
  5
604
330
1F
100
AcDbEntity
  8
一般
  6
CONTINUOUS
 62
     7
100
AcDbCircle
 10
-148.75085
 20
34.7114
 30
0.0
 40
0.25
100
AcDbArc
 50
90.0
 51
270.0
  0
ARC
  5
605
330
1F
100
AcDbEntity
  8
一般
  6
CONTINUOUS
 62
     7
100
AcDbCircle
 10
-148.75085
 20
36.2114
 30
0.0
 40
0.25
100
AcDbArc
 50
90.0
 51
270.0
  0
ARC
  5
606
330
1F
100
AcDbEntity
  8
一般
  6
CONTINUOUS
 62
     7
100
AcDbCircle
 10
-130.45085
 20
42.2114
 30
0.0
 40
0.25
100
AcDbArc
 50
270.0
 51
90.0
  0
ARC
  5
607
330
1F
100
AcDbEntity
  8
一般
  6
CONTINUOUS
 62
     7
100
AcDbCircle
 10
-130.45085
 20
40.7114
 30
0.0
 40
0.25
100
AcDbArc
 50
270.0
 51
90.0
  0
ARC
  5
608
330
1F
100
AcDbEntity
  8
一般
  6
CONTINUOUS
 62
     7
100
AcDbCircle
 10
-148.75085
 20
40.7114
 30
0.0
 40
0.25
100
AcDbArc
 50
90.0
 51
270.0
  0
ARC
  5
609
330
1F
100
AcDbEntity
  8
一般
  6
CONTINUOUS
 62
     7
100
AcDbCircle
 10
-143.85085
 20
40.7114
 30
0.0
 40
0.25
100
AcDbArc
 50
270.0
 51
90.0
  0
ARC
  5
60A
330
1F
100
AcDbEntity
  8
一般
  6
CONTINUOUS
 62
     7
100
AcDbCircle
 10
-130.45085
 20
37.7114
 30
0.0
 40
0.25
100
AcDbArc
 50
270.0
 51
90.0
  0
ARC
  5
60B
330
1F
100
AcDbEntity
  8
一般
  6
CONTINUOUS
 62
     7
100
AcDbCircle
 10
-135.35085
 20
43.7114
 30
0.0
 40
0.25
100
AcDbArc
 50
90.0
 51
180.0
  0
ARC
  5
60C
330
1F
100
AcDbEntity
  8
一般
  6
CONTINUOUS
 62
     7
100
AcDbCircle
 10
-171.01925
 20
-35.1069
 30
0.0
 40
2.0
100
AcDbArc
 50
180.0
 51
266.9992578381355
  0
ARC
  5
60D
330
1F
100
AcDbEntity
  8
一般
  6
CONTINUOUS
 62
     7
100
AcDbCircle
 10
215.93405
 20
229.811
 30
0.0
 40
2.000037112155668
100
AcDbArc
 50
2.99788135401039
 51
90.0
  0
ARC
  5
60E
330
1F
100
AcDbEntity
  8
一般
  6
CONTINUOUS
 62
     7
100
AcDbCircle
 10
-171.01925
 20
-38.0911
 30
0.0
 40
2.0
100
AcDbArc
 50
180.0
 51
266.9992578381357
  0
ARC
  5
60F
330
1F
100
AcDbEntity
  8
一般
  6
CONTINUOUS
 62
     7
100
AcDbCircle
 10
-146.71795
 20
-40.0138
 30
0.0
 40
0.5
100
AcDbArc
 50
180.0
 51
266.9962469299654
  0
ARC
  5
610
330
1F
100
AcDbEntity
  8
一般
  6
DOTTED
 62
     2
100
AcDbCircle
 10
14.95275
 20
-33.0695
 30
0.0
 40
5.0
100
AcDbArc
 50
180.0
 51
270.0
  0
ARC
  5
611
330
1F
100
AcDbEntity
  8
一般
  6
CONTINUOUS
 62
     7
100
AcDbCircle
 10
4.67545
 20
-39.2349
 30
0.0
 40
1.5
100
AcDbArc
 50
180.0
 51
270.0
  0
ARC
  5
612
330
1F
100
AcDbEntity
  8
一般
  6
DOTTED
 62
     2
100
AcDbCircle
 10
211.40225
 20
-33.0695
 30
0.0
 40
5.0
100
AcDbArc
 50
270.0
 51
0.0
  0
ARC
  5
613
330
1F
100
AcDbEntity
  8
一般
  6
CONTINUOUS
 62
     7
100
AcDbCircle
 10
221.67065
 20
-39.2349
 30
0.0
 40
1.5
100
AcDbArc
 50
270.0
 51
0.0
  0
ARC
  5
614
330
1F
100
AcDbEntity
  8
一般
  6
CONTINUOUS
 62
     7
100
AcDbCircle
 10
10.40985
 20
229.8174
 30
0.0
 40
2.0
100
AcDbArc
 50
90.0
 51
177.0021186459972
  0
ARC
  5
615
330
1F
100
AcDbEntity
  8
一般
  6
CONTINUOUS
 62
     7
100
AcDbCircle
 10
113.15955
 20
1697.5376
 30
0.0
 40
1525.758875856513
100
AcDbArc
 50
266.0978783888843
 51
273.9022834783934
  0
ARC
  5
616
330
1F
100
AcDbEntity
  8
一般
  6
CONTINUOUS
 62
     7
100
AcDbCircle
 10
-115.69015
 20
-38.2986
 30
0.0
 40
1.500055415643033
100
AcDbArc
 50
272.9997385891191
 51
0.0
  0
ARC
  5
617
330
1F
100
AcDbEntity
  8
一般
  6
CONTINUOUS
 62
     7
100
AcDbCircle
 10
32.74845
 20
238.3108
 30
0.0
 40
0.5
100
AcDbArc
 50
90.0
 51
180.0
  0
ARC
  5
618
330
1F
100
AcDbEntity
  8
一般
  6
CONTINUOUS
 62
     7
100
AcDbCircle
 10
31.04105
 20
245.3108
 30
0.0
 40
2.5
100
AcDbArc
 50
0.0
 51
90.0
  0
ARC
  5
619
330
1F
100
AcDbEntity
  8
一般
  6
CONTINUOUS
 62
     7
100
AcDbCircle
 10
34.04105
 20
241.311
 30
0.0
 40
2.5
100
AcDbArc
 50
180.0
 51
270.0
  0
ARC
  5
61A
330
1F
100
AcDbEntity
  8
一般
  6
CONTINUOUS
 62
     7
100
AcDbCircle
 10
34.04105
 20
241.3108
 30
0.0
 40
0.5
100
AcDbArc
 50
180.0
 51
270.0
  0
ARC
  5
61B
330
1F
100
AcDbEntity
  8
一般
  6
CONTINUOUS
 62
     7
100
AcDbCircle
 10
31.04105
 20
245.3108
 30
0.0
 40
0.5
100
AcDbArc
 50
0.0
 51
90.0
  0
ARC
  5
61C
330
1F
100
AcDbEntity
  8
一般
  6
CONTINUOUS
 62
     7
100
AcDbCircle
 10
166.17165
 20
93.4578
 30
0.0
 40
3.0
100
AcDbArc
 50
0.0
 51
90.0
  0
ARC
  5
61D
330
1F
100
AcDbEntity
  8
一般
  6
CONTINUOUS
 62
     7
100
AcDbCircle
 10
60.17165
 20
93.4578
 30
0.0
 40
3.0
100
AcDbArc
 50
90.0
 51
180.0
  0
CIRCLE
  5
61E
330
1F
100
AcDbEntity
  8
一般
  6
CONTINUOUS
 62
     7
100
AcDbCircle
 10
-139.61455
 20
49.9567
 30
0.0
 40
3.0
  0
CIRCLE
  5
61F
330
1F
100
AcDbEntity
  8
一般
  6
CONTINUOUS
 62
     7
100
AcDbCircle
 10
-139.61455
 20
49.9342
 30
0.0
 40
2.75
  0
CIRCLE
  5
620
330
1F
100
AcDbEntity
  8
一般
  6
CONTINUOUS
 62
     7
100
AcDbCircle
 10
-139.60085
 20
24.9681
 30
0.0
 40
2.75
  0
CIRCLE
  5
621
330
1F
100
AcDbEntity
  8
一般
  6
CONTINUOUS
 62
     7
100
AcDbCircle
 10
-1.48214999999999
 20
205.7921
 30
0.0
 40
1.5
  0
CIRCLE
  5
622
330
1F
100
AcDbEntity
  8
一般
  6
DOTTED
 62
     2
100
AcDbCircle
 10
206.12665
 20
-25.5695
 30
0.0
 40
4.5
  0
CIRCLE
  5
623
330
1F
100
AcDbEntity
  8
一般
  6
CONTINUOUS
 62
     7
100
AcDbCircle
 10
-2.32604999999998
 20
-23.4302
 30
0.0
 40
4.49999999999998
  0
CIRCLE
  5
624
330
1F
100
AcDbEntity
  8
一般
  6
DOTTED
 62
     2
100
AcDbCircle
 10
20.28515
 20
-25.5695
 30
0.0
 40
4.5
  0
CIRCLE
  5
625
330
1F
100
AcDbEntity
  8
一般
  6
CONTINUOUS
 62
     7
100
AcDbCircle
 10
-139.63385
 20
24.9681
 30
0.0
 40
3.0
  0
CIRCLE
  5
626
330
1F
100
AcDbEntity
  8
一般
  6
DOTTED
 62
     2
100
AcDbCircle
 10
20.28515
 20
99.4305
 30
0.0
 40
4.5
  0
CIRCLE
  5
627
330
1F
100
AcDbEntity
  8
一般
  6
DOTTED
 62
     2
100
AcDbCircle
 10
206.16305
 20
99.4305
 30
0.0
 40
4.5
  0
CIRCLE
  5
628
330
1F
100
AcDbEntity
  8
一般
  6
CONTINUOUS
 62
     7
100
AcDbCircle
 10
-2.32604999999998
 20
-23.4302
 30
0.0
 40
3.99999999999999
  0
CIRCLE
  5
629
330
1F
100
AcDbEntity
  8
1
  6
CONTINUOUS
 62
     7
100
AcDbCircle
 10
-2.32604999999998
 20
-23.4302
 30
0.0
 40
3.5
  0
LWPOLYLINE
  5
62A
330
1F
100
AcDbEntity
  8
一般
  6
CONTINUOUS
 62
     7
100
AcDbPolyline
 90
        5
 70
     1
 43
0.0
 10
-147.42865
 20
-66.05
 10
-150.74565
 20
-64.78580000000001
 10
-149.76675
 20
-68.19789999999999
 10
-147.42865
 20
-66.05
 10
-147.42865
 20
-66.05
  0
LWPOLYLINE
  5
62B
330
1F
100
AcDbEntity
  8
一般
  6
CONTINUOUS
 62
     7
100
AcDbPolyline
 90
       21
 70
     1
 43
0.0
 10
-130.06845
 20
-23.4817
 10
-130.02915
 20
-24.8723
 10
-129.91525
 20
-26.1268
 10
-129.73785
 20
-27.1223
 10
-129.51435
 20
-27.7615
 10
-129.26655
 20
-27.9817
 10
-129.01875
 20
-27.7615
 10
-128.79515
 20
-27.1223
 10
-128.61775
 20
-26.1268
 10
-128.50385
 20
-24.8723
 10
-128.46465
 20
-23.4817
 10
-128.50385
 20
-22.0912
 10
-128.61775
 20
-20.8367
 10
-128.79515
 20
-19.8412
 10
-129.01875
 20
-19.202
 10
-129.26655
 20
-18.98169999999998
 10
-129.51435
 20
-19.202
 10
-129.73785
 20
-19.8412
 10
-129.91525
 20
-20.8367
 10
-130.02915
 20
-22.0912
 10
-130.06845
 20
-23.4817
  0
LWPOLYLINE
  5
62C
330
1F
100
AcDbEntity
  8
一般
  6
CONTINUOUS
 62
     7
100
AcDbPolyline
 90
        9
 70
     0
 43
0.0
 10
-129.55995
 20
-27.6697
 10
-129.34365
 20
-26.9559
 10
-129.17735
 20
-25.9021
 10
-129.07715
 20
-24.6113
 10
-129.05295
 20
-23.21
 10
-129.10705
 20
-21.8352
 10
-129.23425
 20
-20.6217
 10
-129.42205
 20
-19.6881
 10
-129.55995
 20
-19.2938
  0
LWPOLYLINE
  5
62D
330
1F
100
AcDbEntity
  8
一般
  6
CONTINUOUS
 62
     7
100
AcDbPolyline
 90
       17
 70
     0
 43
0.0
 10
3.17385000000002
 20
103.523
 10
16.92225
 20
103.2734
 10
30.67125
 20
103.057
 10
44.42075
 20
102.8739
 10
58.17055
 20
102.7241
 10
71.92075
 20
102.6076
 10
85.67115
 20
102.5244
 10
99.42165
 20
102.4744
 10
113.17235
 20
102.4578
 10
126.92295
 20
102.4744
 10
140.67355
 20
102.5244
 10
154.42395
 20
102.6076
 10
168.17415
 20
102.7241
 10
181.92395
 20
102.8739
 10
195.67345
 20
103.057
 10
209.42235
 20
103.2734
 10
223.17075
 20
103.523
  0
LWPOLYLINE
  5
62E
330
1F
100
AcDbEntity
  8
一般
  6
CONTINUOUS
 62
     7
100
AcDbPolyline
 90
       17
 70
     0
 43
0.0
 10
223.17075
 20
49.3925
 10
209.42235
 20
49.6422
 10
195.67345
 20
49.8586
 10
181.92395
 20
50.0417
 10
168.17415
 20
50.1915
 10
154.42395
 20
50.308
 10
140.67355
 20
50.3912
 10
126.92295
 20
50.4411
 10
113.17235
 20
50.4578
 10
99.42165
 20
50.4411
 10
85.67115
 20
50.3912
 10
71.92075
 20
50.308
 10
58.17055
 20
50.1915
 10
44.42075
 20
50.0417
 10
30.67125
 20
49.8586
 10
16.92225
 20
49.6422
 10
3.17385000000002
 20
49.3925
  0
ENDSEC
  0
SECTION
  2
OBJECTS
  0
DICTIONARY
  5
C
330
0
100
AcDbDictionary
  3
ACAD_GROUP
350
D
  3
ACAD_LAYOUT
350
1A
  3
ACAD_MATERIAL
350
43
  3
ACAD_MLEADERSTYLE
350
6B
  3
ACAD_MLINESTYLE
350
17
  3
ACAD_PLOTSETTINGS
350
19
  3
ACAD_SCALELIST
350
47
  3
ACAD_VISUALSTYLE
350
2A
  3
ACDBHEADERROUNDTRIPXREC
350
62F
  3
ACDBVARIABLEDICTIONARY
350
650
  0
DICTIONARY
  5
657
330
8
100
AcDbDictionary
280
     1
  3
ACAD_XREC_ROUNDTRIP
360
658
  0
DICTIONARY
  5
D
102
{ACAD_REACTORS
330
C
102
}
330
C
100
AcDbDictionary
  0
DICTIONARY
  5
1A
102
{ACAD_REACTORS
330
C
102
}
330
C
100
AcDbDictionary
  0
DICTIONARY
  5
43
102
{ACAD_REACTORS
330
C
102
}
330
C
100
AcDbDictionary
  3
BYBLOCK
350
45
  3
BYLAYER
350
44
  3
GLOBAL
350
46
  0
DICTIONARY
  5
6B
102
{ACAD_REACTORS
330
C
102
}
330
C
100
AcDbDictionary
  3
STANDARD
350
6C
  0
DICTIONARY
  5
17
102
{ACAD_REACTORS
330
C
102
}
330
C
100
AcDbDictionary
  3
STANDARD
350
18
  0
DICTIONARY
  5
19
102
{ACAD_REACTORS
330
C
102
}
330
C
100
AcDbDictionary
  0
DICTIONARY
  5
47
102
{ACAD_REACTORS
330
C
102
}
330
C
100
AcDbDictionary
  3
A0
350
48
  3
A1
350
49
  3
A2
350
4A
  3
A3
350
4B
  3
A4
350
4C
  3
A5
350
4D
  3
A6
350
4E
  3
A7
350
4F
  3
A8
350
50
  3
A9
350
51
  3
B0
350
52
  3
B1
350
53
  3
B2
350
54
  3
B3
350
55
  3
B4
350
56
  3
B5
350
57
  3
B6
350
58
  3
B7
350
59
  3
B8
350
5A
  3
B9
350
5B
  3
C0
350
5C
  3
C1
350
5D
  3
C2
350
5E
  3
C3
350
5F
  3
C4
350
60
  3
C5
350
61
  3
C6
350
62
  3
C7
350
63
  3
C8
350
64
  3
C9
350
65
  3
D0
350
66
  3
D1
350
67
  3
D2
350
68
  0
DICTIONARY
  5
2A
102
{ACAD_REACTORS
330
C
102
}
330
C
100
AcDbDictionary
  3
2DWIREFRAME
350
2F
  3
BASIC
350
32
  3
BRIGHTEN
350
36
  3
COLORCHANGE
350
3A
  3
CONCEPTUAL
350
34
  3
DIM
350
35
  3
EDGECOLOROFF
350
3D
  3
FACEPATTERN
350
39
  3
FLAT
350
2B
  3
FLATWITHEDGES
350
2C
  3
GOURAUD
350
2D
  3
GOURAUDWITHEDGES
350
2E
  3
HIDDEN
350
31
  3
JITTEROFF
350
3B
  3
LINEPATTERN
350
38
  3
OVERHANGOFF
350
3C
  3
REALISTIC
350
33
  3
SHADED
350
42
  3
SHADED_WITH_EDGES
350
41
  3
SHADES_OF_GRAY
350
3E
  3
SKETCHY
350
3F
  3
THICKEN
350
37
  3
WIREFRAME
350
30
  3
X-RAY
350
40
  0
DICTIONARY
  5
62F
102
{ACAD_REACTORS
330
C
102
}
330
C
100
AcDbDictionary
  3
CEPSNID
350
639
  3
CEPSNTYPE
350
638
  3
DIMSTYLEDATA
350
64F
  3
FINGERPRINTGUID
350
63A
  3
HYPERLINKBASE
350
632
  3
INSUNITS
350
637
  3
LAYOUTDICT
350
634
  3
LWETCUNION
350
636
  3
PLOTSETDICT
350
635
  3
PSVPSCALE
350
63C
  3
PUCSBASE
350
63F
  3
PUCSORGBACK
350
645
  3
PUCSORGBOTTOM
350
641
  3
PUCSORGFRONT
350
644
  3
PUCSORGLEFT
350
642
  3
PUCSORGRIGHT
350
643
  3
PUCSORGTOP
350
640
  3
PUCSORTHOREF
350
63D
  3
PUCSORTHOVIEW
350
63E
  3
STYLESHEET
350
633
  3
TSTACKALIGN
350
630
  3
TSTACKSIZE
350
631
  3
UCSBASE
350
648
  3
UCSORGBACK
350
64E
  3
UCSORGBOTTOM
350
64A
  3
UCSORGFRONT
350
64D
  3
UCSORGLEFT
350
64B
  3
UCSORGRIGHT
350
64C
  3
UCSORGTOP
350
649
  3
UCSORTHOREF
350
646
  3
UCSORTHOVIEW
350
647
  3
VERSIONGUID
350
63B
  0
DICTIONARY
  5
650
102
{ACAD_REACTORS
330
C
102
}
330
C
100
AcDbDictionary
  3
CANNOSCALE
350
659
  3
CMLEADERSTYLE
350
652
  3
CTABLESTYLE
350
651
  3
DIMASSOC
350
655
  3
HIDETEXT
350
656
  3
MSLTSCALE
350
65A
  0
XRECORD
  5
658
102
{ACAD_REACTORS
330
657
102
}
330
657
100
AcDbXrecord
102
VTR_0.000_0.000_1.000_1.000_GRIDDISPLAY
 70
     3
102
VTR_0.000_0.000_1.000_1.000_GRIDMAJOR
 70
     5
102
VTR_0.000_0.000_1.000_1.000_DEFAULTLIGHTING
280
     1
102
VTR_0.000_0.000_1.000_1.000_DEFAULTLIGHTINGTYPE
 70
     1
102
VTR_0.000_0.000_1.000_1.000_BRIGHTNESS
141
0.0
102
VTR_0.000_0.000_1.000_1.000_CONTRAST
142
0.0
  0
MATERIAL
  5
45
102
{ACAD_REACTORS
330
43
102
}
102
{ACAD_XDICTIONARY
360
65D
102
}
330
43
100
AcDbMaterial
  1
BYBLOCK
  0
MATERIAL
  5
44
102
{ACAD_REACTORS
330
43
102
}
102
{ACAD_XDICTIONARY
360
65B
102
}
330
43
100
AcDbMaterial
  1
BYLAYER
  0
MATERIAL
  5
46
102
{ACAD_REACTORS
330
43
102
}
102
{ACAD_XDICTIONARY
360
65F
102
}
330
43
100
AcDbMaterial
  1
GLOBAL
  0
ACAD_PROXY_OBJECT
  5
6C
102
{ACAD_REACTORS
330
6B
102
}
330
6B
100
AcDbProxyObject
 90
      499
 91
      505
 93
      610
310
40901902A4063FBFFFFFE056BD1B81E855B9FC0AD7A3703D0AD73F4214DD185B99185C9900AD7A3703D0AC73F90141901A02B5E8DC0F42B1CFC02B5E8DC0F42B1CFE5764000000000000300FC0
340
14
340
0
340
11
340
0
 94
        0
1001
ACAD_MLEADERVER
1070
     2
  0
MLINESTYLE
  5
18
102
{ACAD_REACTORS
330
17
102
}
330
17
100
AcDbMlineStyle
  2
Standard
 70
     0
  3

 62
   256
 51
90.0
 52
90.0
 71
     2
 49
0.5
 62
   256
  6
BYLAYER
 49
-0.5
 62
   256
  6
BYLAYER
  0
ACAD_PROXY_OBJECT
  5
48
102
{ACAD_REACTORS
330
47
102
}
330
47
100
AcDbProxyObject
 90
      499
 91
      503
 93
       41
310
903313A31580
  0
ACAD_PROXY_OBJECT
  5
49
102
{ACAD_REACTORS
330
47
102
}
330
47
100
AcDbProxyObject
 90
      499
 91
      503
 93
      105
310
903313A324000000000000004000
  0
ACAD_PROXY_OBJECT
  5
4A
102
{ACAD_REACTORS
330
47
102
}
330
47
100
AcDbProxyObject
 90
      499
 91
      503
 93
      105
310
903313A344000000000000104000
  0
ACAD_PROXY_OBJECT
  5
4B
102
{ACAD_REACTORS
330
47
102
}
330
47
100
AcDbProxyObject
 90
      499
 91
      503
 93
      105
310
903313A354000000000000144000
  0
ACAD_PROXY_OBJECT
  5
4C
102
{ACAD_REACTORS
330
47
102
}
330
47
100
AcDbProxyObject
 90
      499
 91
      503
 93
      105
310
903313A384000000000000204000
  0
ACAD_PROXY_OBJECT
  5
4D
102
{ACAD_REACTORS
330
47
102
}
330
47
100
AcDbProxyObject
 90
      499
 91
      503
 93
      113
310
904313A31304000000000000244000
  0
ACAD_PROXY_OBJECT
  5
4E
102
{ACAD_REACTORS
330
47
102
}
330
47
100
AcDbProxyObject
 90
      499
 91
      503
 93
      113
310
904313A31364000000000000304000
  0
ACAD_PROXY_OBJECT
  5
4F
102
{ACAD_REACTORS
330
47
102
}
330
47
100
AcDbProxyObject
 90
      499
 91
      503
 93
      113
310
904313A32304000000000000344000
  0
ACAD_PROXY_OBJECT
  5
50
102
{ACAD_REACTORS
330
47
102
}
330
47
100
AcDbProxyObject
 90
      499
 91
      503
 93
      113
310
904313A333040000000000003E4000
  0
ACAD_PROXY_OBJECT
  5
51
102
{ACAD_REACTORS
330
47
102
}
330
47
100
AcDbProxyObject
 90
      499
 91
      503
 93
      113
310
904313A34304000000000000444000
  0
ACAD_PROXY_OBJECT
  5
52
102
{ACAD_REACTORS
330
47
102
}
330
47
100
AcDbProxyObject
 90
      499
 91
      503
 93
      113
310
904313A35304000000000000494000
  0
ACAD_PROXY_OBJECT
  5
53
102
{ACAD_REACTORS
330
47
102
}
330
47
100
AcDbProxyObject
 90
      499
 91
      503
 93
      121
310
905313A3130304000000000000594000
  0
ACAD_PROXY_OBJECT
  5
54
102
{ACAD_REACTORS
330
47
102
}
330
47
100
AcDbProxyObject
 90
      499
 91
      503
 93
      105
310
903323A310000000000000010100
  0
ACAD_PROXY_OBJECT
  5
55
102
{ACAD_REACTORS
330
47
102
}
330
47
100
AcDbProxyObject
 90
      499
 91
      503
 93
      105
310
903343A310000000000000410100
  0
ACAD_PROXY_OBJECT
  5
56
102
{ACAD_REACTORS
330
47
102
}
330
47
100
AcDbProxyObject
 90
      499
 91
      503
 93
      105
310
903383A310000000000000810100
  0
ACAD_PROXY_OBJECT
  5
57
102
{ACAD_REACTORS
330
47
102
}
330
47
100
AcDbProxyObject
 90
      499
 91
      503
 93
      113
310
90431303A310000000000000910100
  0
ACAD_PROXY_OBJECT
  5
58
102
{ACAD_REACTORS
330
47
102
}
330
47
100
AcDbProxyObject
 90
      499
 91
      503
 93
      121
310
9053130303A310000000000001650100
  0
ACAD_PROXY_OBJECT
  5
59
102
{ACAD_REACTORS
330
47
102
}
330
47
100
AcDbProxyObject
 90
      499
 91
      503
 93
      257
310
90E312F31323822203D2031272D3022000000000000200FC000000000000284000
  0
ACAD_PROXY_OBJECT
  5
5A
102
{ACAD_REACTORS
330
47
102
}
330
47
100
AcDbProxyObject
 90
      499
 91
      503
 93
      249
310
90D312F363422203D2031272D3022000000000000240FC000000000000284000
  0
ACAD_PROXY_OBJECT
  5
5B
102
{ACAD_REACTORS
330
47
102
}
330
47
100
AcDbProxyObject
 90
      499
 91
      503
 93
      249
310
90D312F333222203D2031272D3022000000000000280FC000000000000284000
  0
ACAD_PROXY_OBJECT
  5
5C
102
{ACAD_REACTORS
330
47
102
}
330
47
100
AcDbProxyObject
 90
      499
 91
      503
 93
      249
310
90D312F313622203D2031272D30220000000000002C0FC000000000000284000
  0
ACAD_PROXY_OBJECT
  5
5D
102
{ACAD_REACTORS
330
47
102
}
330
47
100
AcDbProxyObject
 90
      499
 91
      503
 93
      249
310
90D332F333222203D2031272D30220000000000002E0FC000000000000284000
  0
ACAD_PROXY_OBJECT
  5
5E
102
{ACAD_REACTORS
330
47
102
}
330
47
100
AcDbProxyObject
 90
      499
 91
      503
 93
      241
310
90C312F3822203D2031272D3022000000000000300FC000000000000284000
  0
ACAD_PROXY_OBJECT
  5
5F
102
{ACAD_REACTORS
330
47
102
}
330
47
100
AcDbProxyObject
 90
      499
 91
      503
 93
      249
310
90D332F313622203D2031272D3022000000000000320FC000000000000284000
  0
ACAD_PROXY_OBJECT
  5
60
102
{ACAD_REACTORS
330
47
102
}
330
47
100
AcDbProxyObject
 90
      499
 91
      503
 93
      241
310
90C312F3422203D2031272D3022000000000000340FC000000000000284000
  0
ACAD_PROXY_OBJECT
  5
61
102
{ACAD_REACTORS
330
47
102
}
330
47
100
AcDbProxyObject
 90
      499
 91
      503
 93
      241
310
90C332F3822203D2031272D3022000000000000360FC000000000000284000
  0
ACAD_PROXY_OBJECT
  5
62
102
{ACAD_REACTORS
330
47
102
}
330
47
100
AcDbProxyObject
 90
      499
 91
      503
 93
      241
310
90C312F3222203D2031272D3022000000000000380FC000000000000284000
  0
ACAD_PROXY_OBJECT
  5
63
102
{ACAD_REACTORS
330
47
102
}
330
47
100
AcDbProxyObject
 90
      499
 91
      503
 93
      241
310
90C332F3422203D2031272D30220000000000003A0FC000000000000284000
  0
ACAD_PROXY_OBJECT
  5
64
102
{ACAD_REACTORS
330
47
102
}
330
47
100
AcDbProxyObject
 90
      499
 91
      503
 93
      161
310
90A3122203D2031272D30224000000000000284000
  0
ACAD_PROXY_OBJECT
  5
65
102
{ACAD_REACTORS
330
47
102
}
330
47
100
AcDbProxyObject
 90
      499
 91
      503
 93
      257
310
90E312D312F3222203D2031272D30220000000000003E0FC000000000000284000
  0
ACAD_PROXY_OBJECT
  5
66
102
{ACAD_REACTORS
330
47
102
}
330
47
100
AcDbProxyObject
 90
      499
 91
      503
 93
      225
310
90A3322203D2031272D302200000000000002100000000000000284000
  0
ACAD_PROXY_OBJECT
  5
67
102
{ACAD_REACTORS
330
47
102
}
330
47
100
AcDbProxyObject
 90
      499
 91
      503
 93
      225
310
90A3622203D2031272D302200000000000006100000000000000284000
  0
ACAD_PROXY_OBJECT
  5
68
102
{ACAD_REACTORS
330
47
102
}
330
47
100
AcDbProxyObject
 90
      499
 91
      503
 93
      249
310
90D31272D3022203D2031272D30220000000000000A100000000000000284000
  0
ACAD_PROXY_OBJECT
  5
2F
102
{ACAD_REACTORS
330
2A
102
}
330
2A
100
AcDbProxyObject
 90
      499
 91
      501
 93
      436
310
42CC9915DA5C99599C985B595049028333333333333E33F0000000000000F90107901411070040501600405405064090741402480A0340
1001
ACAD
1000
AcDbSavedByObjectVersion
1070
     0
  0
ACAD_PROXY_OBJECT
  5
32
102
{ACAD_REACTORS
330
2A
102
}
330
2A
100
AcDbProxyObject
 90
      499
 91
      501
 93
      388
310
4150985CDA58D07406404333333333333E33F0000000000000F90107A41107004050150841D405064090741402480A0350
1001
ACAD
1000
AcDbSavedByObjectVersion
1070
     0
  0
ACAD_PROXY_OBJECT
  5
36
102
{ACAD_REACTORS
330
2A
102
}
330
2A
100
AcDbProxyObject
 90
      499
 91
      501
 93
      428
310
42109C9A59DA1D195B90C409028333333333333E33F0000000000000F9010790141107004050150841D405064090741402480A029950
1001
ACAD
1000
AcDbSavedByObjectVersion
1070
     0
  0
ACAD_PROXY_OBJECT
  5
3A
102
{ACAD_REACTORS
330
2A
102
}
330
2A
100
AcDbProxyObject
 90
      499
 91
      501
 93
      452
310
42D0DBDB1BDC90DA185B99D95104090240C333333333333E33F0000000000000F90108901411070040501508421405064090741402480A0350
1001
ACAD
1000
AcDbSavedByObjectVersion
1070
     0
  0
ACAD_PROXY_OBJECT
  5
34
102
{ACAD_REACTORS
330
2A
102
}
330
2A
100
AcDbProxyObject
 90
      499
 91
      501
 93
      500
310
4290DBDB98D95C1D1D585B10940D028333333333333E33F0000000000000F90107902409070040501000000000018199010841D405064090740C02480A0340
1001
ACAD
1000
AcDbSavedByObjectVersion
1070
     0
  0
ACAD_PROXY_OBJECT
  5
35
102
{ACAD_REACTORS
330
2A
102
}
330
2A
100
AcDbProxyObject
 90
      499
 91
      501
 93
      412
310
40D11A5B50B409028333333333333E33F0000000000000F9010790141107004050150841D405064090741402480A02677FFFFFD0
1001
ACAD
1000
AcDbSavedByObjectVersion
1070
     0
  0
ACAD_PROXY_OBJECT
  5
3D
102
{ACAD_REACTORS
330
2A
102
}
330
2A
100
AcDbProxyObject
 90
      499
 91
      501
 93
      452
310
43115919D950DBDB1BDC93D999916409028333333333333E33F0000000000000F9010790141107004050150841D405064090741402480A0350
1001
ACAD
1000
AcDbSavedByObjectVersion
1070
     0
  0
ACAD_PROXY_OBJECT
  5
39
102
{ACAD_REACTORS
330
2A
102
}
330
2A
100
AcDbProxyObject
 90
      499
 91
      501
 93
      444
310
42D19858D95C185D1D195C9B90F409028333333333333E33F0000000000000F9010790141107004050150841D405064090741402480A0350
1001
ACAD
1000
AcDbSavedByObjectVersion
1070
     0
  0
ACAD_PROXY_OBJECT
  5
2B
102
{ACAD_REACTORS
330
2A
102
}
330
2A
100
AcDbProxyObject
 90
      499
 91
      501
 93
      380
310
41119B185D240901404333333333333E33F0000000000000F9010740A907004050150841D405064090741402480A1B50
1001
ACAD
1000
AcDbSavedByObjectVersion
1070
     0
  0
ACAD_PROXY_OBJECT
  5
2C
102
{ACAD_REACTORS
330
2A
102
}
330
2A
100
AcDbProxyObject
 90
      499
 91
      501
 93
      468
310
43519B185D15DA5D1A115919D95CD0140901404333333333333E33F0000000000000F90107409019070040501600405405064090741402480A1B50
1001
ACAD
1000
AcDbSavedByObjectVersion
1070
     0
  0
ACAD_PROXY_OBJECT
  5
2D
102
{ACAD_REACTORS
330
2A
102
}
330
2A
100
AcDbProxyObject
 90
      499
 91
      501
 93
      404
310
41D1DBDD5C985D5910240902404333333333333E33F0000000000000F9010740A9070040501641D405064090741402480A1B50
1001
ACAD
1000
AcDbSavedByObjectVersion
1070
     0
  0
ACAD_PROXY_OBJECT
  5
2E
102
{ACAD_REACTORS
330
2A
102
}
330
2A
100
AcDbProxyObject
 90
      499
 91
      501
 93
      492
310
4411DBDD5C985D5915DA5D1A115919D95CD0340902404333333333333E33F0000000000000F90107409019070040501600405405064090741402480A1B50
1001
ACAD
1000
AcDbSavedByObjectVersion
1070
     0
  0
ACAD_PROXY_OBJECT
  5
31
102
{ACAD_REACTORS
330
2A
102
}
330
2A
100
AcDbProxyObject
 90
      499
 91
      501
 93
      476
310
41921A5919195B90640502408333333333333E33F0000000000000F901079024090700405020000000000001110200405405064090740C02480A0340
1001
ACAD
1000
AcDbSavedByObjectVersion
1070
     0
  0
ACAD_PROXY_OBJECT
  5
3B
102
{ACAD_REACTORS
330
2A
102
}
330
2A
100
AcDbProxyObject
 90
      499
 91
      501
 93
      428
310
42529A5D1D195C93D999914409028333333333333E33F0000000000000F9010790141107004050150A41D405064090741402480A0350
1001
ACAD
1000
AcDbSavedByObjectVersion
1070
     0
  0
ACAD_PROXY_OBJECT
  5
38
102
{ACAD_REACTORS
330
2A
102
}
330
2A
100
AcDbProxyObject
 90
      499
 91
      501
 93
      444
310
42D31A5B995C185D1D195C9B90E409028333333333333E33F0000000000000F9010790141107004050750841D405064090741402483A0350
1001
ACAD
1000
AcDbSavedByObjectVersion
1070
     0
  0
ACAD_PROXY_OBJECT
  5
3C
102
{ACAD_REACTORS
330
2A
102
}
330
2A
100
AcDbProxyObject
 90
      499
 91
      501
 93
      444
310
42D3DD995C9A185B99D3D999915409028333333333333E33F0000000000000F9010790141107004050150941D405064090741402480A0350
1001
ACAD
1000
AcDbSavedByObjectVersion
1070
     0
  0
ACAD_PROXY_OBJECT
  5
33
102
{ACAD_REACTORS
330
2A
102
}
330
2A
100
AcDbProxyObject
 90
      499
 91
      501
 93
      428
310
425499585B1A5CDD1A58D08409038333333333333E33F0000000000000F9010740A907004050150800405405064090740C02480A1B40
1001
ACAD
1000
AcDbSavedByObjectVersion
1070
     0
  0
ACAD_PROXY_OBJECT
  5
42
102
{ACAD_REACTORS
330
2A
102
}
330
2A
100
AcDbProxyObject
 90
      499
 91
      501
 93
      420
310
4194DA1859195911B40902404333333333333E33F0000000000000F9010740A41107004050150800405405064090840C02480A0B40
1001
ACAD
1000
AcDbSavedByObjectVersion
1070
     0
  0
ACAD_PROXY_OBJECT
  5
41
102
{ACAD_REACTORS
330
2A
102
}
330
2A
100
AcDbProxyObject
 90
      499
 91
      501
 93
      516
310
4454DA18591959081DDA5D1A08195919D95CD1A40902404333333333333E33F0000000000000F901074090142907004050250800405405064090740C02480A0B40
1001
ACAD
1000
AcDbSavedByObjectVersion
1070
     0
  0
ACAD_PROXY_OBJECT
  5
3E
102
{ACAD_REACTORS
330
2A
102
}
330
2A
100
AcDbProxyObject
 90
      499
 91
      501
 93
      532
310
4394DA1859195CC81BD98811DC985E5174090240C333333333333E33F0000000000000F901079024090741D01000000000000111010841D405064090740C02480A0340
1001
ACAD
1000
AcDbSavedByObjectVersion
1070
     0
  0
ACAD_PROXY_OBJECT
  5
3F
102
{ACAD_REACTORS
330
2A
102
}
330
2A
100
AcDbProxyObject
 90
      499
 91
      501
 93
      476
310
41D4DAD95D18DA1E51840502408333333333333E33F0000000000000F901079024090741D01000000000000111010B41D405064090741802480A0340
1001
ACAD
1000
AcDbSavedByObjectVersion
1070
     0
  0
ACAD_PROXY_OBJECT
  5
37
102
{ACAD_REACTORS
330
2A
102
}
330
2A
100
AcDbProxyObject
 90
      499
 91
      501
 93
      412
310
41D51A1A58DAD95B90D409028333333333333E33F0000000000000F9010790141107004050150C41D405064090741402480A0350
1001
ACAD
1000
AcDbSavedByObjectVersion
1070
     0
  0
ACAD_PROXY_OBJECT
  5
30
102
{ACAD_REACTORS
330
2A
102
}
330
2A
100
AcDbProxyObject
 90
      499
 91
      501
 93
      420
310
4255DA5C99599C985B595059028333333333333E33F0000000000000F90107901411070040501600405405064090740C02480A0340
1001
ACAD
1000
AcDbSavedByObjectVersion
1070
     0
  0
ACAD_PROXY_OBJECT
  5
40
102
{ACAD_REACTORS
330
2A
102
}
330
2A
100
AcDbProxyObject
 90
      499
 91
      501
 93
      404
310
41560B54985E51940902404000000000000E03F0000000000000F9010740501907004050150841D405064090740C02480A1B40
1001
ACAD
1000
AcDbSavedByObjectVersion
1070
     0
  0
XRECORD
  5
639
102
{ACAD_REACTORS
330
62F
102
}
330
62F
100
AcDbXrecord
340
0
  0
XRECORD
  5
638
102
{ACAD_REACTORS
330
62F
102
}
330
62F
100
AcDbXrecord
 90
        0
  0
XRECORD
  5
64F
102
{ACAD_REACTORS
330
62F
102
}
330
62F
100
AcDbXrecord
1000
DSTYLE
1002
{
1070
   171
 70
     2
1070
   143
 40
25.4
1070
   274
 70
     2
1070
    41
 40
0.18
1070
   141
 40
0.09
1070
   271
 70
     4
1070
    43
 40
0.38
1070
   278
 70
    46
1070
    44
 40
0.18
1070
    42
 40
0.0625
1070
   147
 40
0.09
1070
    77
 70
     0
1070
   272
 70
     4
1070
    73
 70
     1
1070
   172
 70
     0
1070
    74
 70
     1
1070
   283
 70
     1
1070
   340
340
11
1070
   140
 40
0.18
1070
   284
 70
     0
1070
    78
 70
     0
1002
}
  0
XRECORD
  5
63A
102
{ACAD_REACTORS
330
62F
102
}
330
62F
100
AcDbXrecord
  1
{B1B8F0CE-08B9-41DE-927A-1D16E5667BB5}
  0
XRECORD
  5
632
102
{ACAD_REACTORS
330
62F
102
}
330
62F
100
AcDbXrecord
  1

  0
XRECORD
  5
637
102
{ACAD_REACTORS
330
62F
102
}
330
62F
100
AcDbXrecord
 90
        4
  0
XRECORD
  5
634
102
{ACAD_REACTORS
330
62F
102
}
330
62F
100
AcDbXrecord
340
1A
  0
XRECORD
  5
636
102
{ACAD_REACTORS
330
62F
102
}
330
62F
100
AcDbXrecord
 90
    10781
  0
XRECORD
  5
635
102
{ACAD_REACTORS
330
62F
102
}
330
62F
100
AcDbXrecord
340
19
  0
XRECORD
  5
63C
102
{ACAD_REACTORS
330
62F
102
}
330
62F
100
AcDbXrecord
 40
0.0
  0
XRECORD
  5
63F
102
{ACAD_REACTORS
330
62F
102
}
330
62F
100
AcDbXrecord
340
0
  0
XRECORD
  5
645
102
{ACAD_REACTORS
330
62F
102
}
330
62F
100
AcDbXrecord
 10
0.0
 20
0.0
 30
0.0
  0
XRECORD
  5
641
102
{ACAD_REACTORS
330
62F
102
}
330
62F
100
AcDbXrecord
 10
0.0
 20
0.0
 30
0.0
  0
XRECORD
  5
644
102
{ACAD_REACTORS
330
62F
102
}
330
62F
100
AcDbXrecord
 10
0.0
 20
0.0
 30
0.0
  0
XRECORD
  5
642
102
{ACAD_REACTORS
330
62F
102
}
330
62F
100
AcDbXrecord
 10
0.0
 20
0.0
 30
0.0
  0
XRECORD
  5
643
102
{ACAD_REACTORS
330
62F
102
}
330
62F
100
AcDbXrecord
 10
0.0
 20
0.0
 30
0.0
  0
XRECORD
  5
640
102
{ACAD_REACTORS
330
62F
102
}
330
62F
100
AcDbXrecord
 10
0.0
 20
0.0
 30
0.0
  0
XRECORD
  5
63D
102
{ACAD_REACTORS
330
62F
102
}
330
62F
100
AcDbXrecord
340
0
  0
XRECORD
  5
63E
102
{ACAD_REACTORS
330
62F
102
}
330
62F
100
AcDbXrecord
 70
     0
  0
XRECORD
  5
633
102
{ACAD_REACTORS
330
62F
102
}
330
62F
100
AcDbXrecord
  1

  0
XRECORD
  5
630
102
{ACAD_REACTORS
330
62F
102
}
330
62F
100
AcDbXrecord
 90
        1
  0
XRECORD
  5
631
102
{ACAD_REACTORS
330
62F
102
}
330
62F
100
AcDbXrecord
 90
       70
  0
XRECORD
  5
648
102
{ACAD_REACTORS
330
62F
102
}
330
62F
100
AcDbXrecord
340
0
  0
XRECORD
  5
64E
102
{ACAD_REACTORS
330
62F
102
}
330
62F
100
AcDbXrecord
 10
0.0
 20
0.0
 30
0.0
  0
XRECORD
  5
64A
102
{ACAD_REACTORS
330
62F
102
}
330
62F
100
AcDbXrecord
 10
0.0
 20
0.0
 30
0.0
  0
XRECORD
  5
64D
102
{ACAD_REACTORS
330
62F
102
}
330
62F
100
AcDbXrecord
 10
0.0
 20
0.0
 30
0.0
  0
XRECORD
  5
64B
102
{ACAD_REACTORS
330
62F
102
}
330
62F
100
AcDbXrecord
 10
0.0
 20
0.0
 30
0.0
  0
XRECORD
  5
64C
102
{ACAD_REACTORS
330
62F
102
}
330
62F
100
AcDbXrecord
 10
0.0
 20
0.0
 30
0.0
  0
XRECORD
  5
649
102
{ACAD_REACTORS
330
62F
102
}
330
62F
100
AcDbXrecord
 10
0.0
 20
0.0
 30
0.0
  0
XRECORD
  5
646
102
{ACAD_REACTORS
330
62F
102
}
330
62F
100
AcDbXrecord
340
0
  0
XRECORD
  5
647
102
{ACAD_REACTORS
330
62F
102
}
330
62F
100
AcDbXrecord
 70
     0
  0
XRECORD
  5
63B
102
{ACAD_REACTORS
330
62F
102
}
330
62F
100
AcDbXrecord
  1
{FAEB1C32-E019-11D5-929B-00C0DF256EC4}
  0
DICTIONARYVAR
  5
659
102
{ACAD_REACTORS
330
650
102
}
330
650
100
DictionaryVariables
280
     0
  1
1:1
  0
DICTIONARYVAR
  5
652
102
{ACAD_REACTORS
330
650
102
}
330
650
100
DictionaryVariables
280
     0
  1
Standard
  0
DICTIONARYVAR
  5
651
102
{ACAD_REACTORS
330
650
102
}
330
650
100
DictionaryVariables
280
     0
  1
Standard
  0
DICTIONARYVAR
  5
655
102
{ACAD_REACTORS
330
650
102
}
330
650
100
DictionaryVariables
280
     0
  1
2
  0
DICTIONARYVAR
  5
656
102
{ACAD_REACTORS
330
650
102
}
330
650
100
DictionaryVariables
280
     0
  1
1
  0
DICTIONARYVAR
  5
65A
102
{ACAD_REACTORS
330
650
102
}
330
650
100
DictionaryVariables
280
     0
  1
1
  0
DICTIONARY
  5
65D
330
45
100
AcDbDictionary
280
     1
  3
ACAD_XREC_ROUNDTRIP
360
65E
  0
DICTIONARY
  5
65B
330
44
100
AcDbDictionary
280
     1
  3
ACAD_XREC_ROUNDTRIP
360
65C
  0
DICTIONARY
  5
65F
330
46
100
AcDbDictionary
280
     1
  3
ACAD_XREC_ROUNDTRIP
360
660
  0
XRECORD
  5
65E
102
{ACAD_REACTORS
330
65D
102
}
330
65D
100
AcDbXrecord
102
MATERIAL
148
0.0
149
0.0
149
0.0
 93
        0
 94
      127
282
     0
 72
     1
 77
     1
171
     1
175
     1
179
     1
273
     0
  0
XRECORD
  5
65C
102
{ACAD_REACTORS
330
65B
102
}
330
65B
100
AcDbXrecord
102
MATERIAL
148
0.0
149
0.0
149
0.0
 93
        0
 94
      127
282
     0
 72
     1
 77
     1
171
     1
175
     1
179
     1
273
     0
  0
XRECORD
  5
660
102
{ACAD_REACTORS
330
65F
102
}
330
65F
100
AcDbXrecord
102
MATERIAL
148
0.0
149
0.0
149
0.0
 93
        0
 94
      127
282
     0
 72
     1
 77
     1
171
     1
175
     1
179
     1
273
     0
  0
ENDSEC
  0
EOF
