  0
SECTION
  2
HEADER
  9
$ACADVER
  1
AC1014
  9
$ACADMAINTVER
 70
             0
  9
$DWGCODEPAGE
  3
ANSI_1252
  9
$INSBASE
 10
0.0
 20
0.0
 30
0.0
  9
$EXTMIN
 10
1.00000000000000E+20
 20
1.00000000000000E+20
 30
1.00000000000000E+20
  9
$EXTMAX
 10
-1.00000000000000E+20
 20
-1.00000000000000E+20
 30
-1.00000000000000E+20
  9
$LIMMIN
 10
0.0
 20
0.0
  9
$LIMMAX
 10
0.0
 20
0.0
  9
$ORTHOMODE
 70
             0
  9
$REGENMODE
 70
             1
  9
$FILLMODE
 70
             1
  9
$QTEXTMODE
 70
             0
  9
$MIRRTEXT
 70
             1
  9
$DRAGMODE
 70
             2
  9
$LTSCALE
 40
1.0
  9
$OSMODE
 70
             0
  9
$ATTMODE
 70
             1
  9
$TEXTSIZE
 40
0.2
  9
$TRACEWID
 40
0.05
  9
$TEXTSTYLE
  7
STANDARD
  9
$CLAYER
  8
0
  9
$CELTYPE
  6
CONTINUOUS
  9
$CECOLOR
 62
           256
  9
$CELTSCALE
 40
1.0
  9
$DELOBJ
 70
             1
  9
$DISPSILH
 70
             0
  9
$DIMSCALE
 40
1.0
  9
$DIMASZ
 40
0.18
  9
$DIMEXO
 40
0.0625
  9
$DIMDLI
 40
0.38
  9
$DIMRND
 40
0.0
  9
$DIMDLE
 40
0.0
  9
$DIMEXE
 40
0.18
  9
$DIMTP
 40
0.0
  9
$DIMTM
 40
0.0
  9
$DIMTXT
 40
0.18
  9
$DIMCEN
 40
0.09
  9
$DIMTSZ
 40
0.0
  9
$DIMTOL
 70
             0
  9
$DIMLIM
 70
             0
  9
$DIMTIH
 70
             1
  9
$DIMTOH
 70
             1
  9
$DIMSE1
 70
             0
  9
$DIMSE2
 70
             0
  9
$DIMTAD
 70
             0
  9
$DIMZIN
 70
             0
  9
$DIMBLK
  1

  9
$DIMASO
 70
             1
  9
$DIMSHO
 70
             1
  9
$DIMPOST
  1

  9
$DIMAPOST
  1

  9
$DIMALT
 70
             0
  9
$DIMALTD
 70
             2
  9
$DIMALTF
 40
25.4
  9
$DIMLFAC
 40
1.0
  9
$DIMTOFL
 70
             0
  9
$DIMTVP
 40
0.0
  9
$DIMTIX
 70
             0
  9
$DIMSOXD
 70
             0
  9
$DIMSAH
 70
             0
  9
$DIMBLK1
  1

  9
$DIMBLK2
  1

  9
$DIMSTYLE
  2
STANDARD
  9
$DIMCLRD
 70
             0
  9
$DIMCLRE
 70
             0
  9
$DIMCLRT
 70
             0
  9
$DIMTFAC
 40
1.0
  9
$DIMGAP
 40
0.09
  9
$DIMJUST
 70
             0
  9
$DIMSD1
 70
             0
  9
$DIMSD2
 70
             0
  9
$DIMTOLJ
 70
             1
  9
$DIMTZIN
 70
             0
  9
$DIMALTZ
 70
             0
  9
$DIMALTTZ
 70
             0
  9
$DIMFIT
 70
             3
  9
$DIMUPT
 70
             0
  9
$DIMUNIT
 70
             2
  9
$DIMDEC
 70
             4
  9
$DIMTDEC
 70
             4
  9
$DIMALTU
 70
             2
  9
$DIMALTTD
 70
             2
  9
$DIMTXSTY
  7
STANDARD
  9
$DIMAUNIT
 70
             0
  9
$LUNITS
 70
             2
  9
$LUPREC
 70
             4
  9
$SKETCHINC
 40
0.1
  9
$FILLETRAD
 40
0.0
  9
$AUNITS
 70
             0
  9
$AUPREC
 70
             0
  9
$MENU
  1
acad
  9
$ELEVATION
 40
0.0
  9
$PELEVATION
 40
0.0
  9
$THICKNESS
 40
0.0
  9
$LIMCHECK
 70
             0
  9
$BLIPMODE
 70
             1
  9
$CHAMFERA
 40
0.0
  9
$CHAMFERB
 40
0.0
  9
$CHAMFERC
 40
0.0
  9
$CHAMFERD
 40
0.0
  9
$SKPOLY
 70
             0
  9
$TDCREATE
 40
0.000000000
  9
$TDUPDATE
 40
0.000000000
  9
$TDINDWG
 40
0.0000000000
  9
$TDUSRTIMER
 40
0.0000000000
  9
$USRTIMER
 70
             1
  9
$ANGBASE
 50
0.0
  9
$ANGDIR
 70
             0
  9
$PDMODE
 70
             0
  9
$PDSIZE
 40
0.0
  9
$PLINEWID
 40
0.0
  9
$COORDS
 70
             0
  9
$SPLFRAME
 70
             0
  9
$SPLINETYPE
 70
             6
  9
$SPLINESEGS
 70
             8
  9
$ATTDIA
 70
             0
  9
$ATTREQ
 70
             1
  9
$HANDLING
 70
             1
  9
$HANDSEED
  5
307
  9
$SURFTAB1
 70
             6
  9
$SURFTAB2
 70
             6
  9
$SURFTYPE
 70
             6
  9
$SURFU
 70
             6
  9
$SURFV
 70
             6
  9
$UCSNAME
  2

  9
$UCSORG
 10
0.0
 20
0.0
 30
0.0
  9
$UCSXDIR
 10
1.0
 20
0.0
 30
0.0
  9
$UCSYDIR
 10
0.0
 20
1.0
 30
0.0
  9
$PUCSNAME
  2

  9
$PUCSORG
 10
0.0
 20
0.0
 30
0.0
  9
$PUCSXDIR
 10
1.0
 20
0.0
 30
0.0
  9
$PUCSYDIR
 10
0.0
 20
1.0
 30
0.0
  9
$USERI1
 70
             0
  9
$USERI2
 70
             0
  9
$USERI3
 70
             0
  9
$USERI4
 70
             0
  9
$USERI5
 70
             0
  9
$USERR1
 40
11.6
  9
$USERR2
 40
0.0
  9
$USERR3
 40
0.0
  9
$USERR4
 40
0.0
  9
$USERR5
 40
0.0
  9
$WORLDVIEW
 70
             1
  9
$SHADEDGE
 70
             3
  9
$SHADEDIF
 70
            70
  9
$TILEMODE
 70
             1
  9
$MAXACTVP
 70
            16
  9
$PINSBASE
 10
0.0
 20
0.0
 30
0.0
  9
$PLIMCHECK
 70
             0
  9
$PEXTMIN
 10
1.00000000000000E+20
 20
1.00000000000000E+20
 30
1.00000000000000E+20
  9
$PEXTMAX
 10
-1.00000000000000E+20
 20
-1.00000000000000E+20
 30
-1.00000000000000E+20
  9
$PLIMMIN
 10
0.0
 20
0.0
  9
$PLIMMAX
 10
12.0
 20
9.0
  9
$UNITMODE
 70
             0
  9
$VISRETAIN
 70
             0
  9
$PLINEGEN
 70
             1
  9
$PSLTSCALE
 70
             0
  9
$TREEDEPTH
 70
          3020
  9
$PICKSTYLE
 70
             1
  9
$CMLSTYLE
  2
STANDARD
  9
$CMLJUST
 70
             0
  9
$CMLSCALE
 40
1.0
  9
$PROXYGRAPHICS
 70
             0
  9
$MEASUREMENT
 70
             1
  0
ENDSEC
  0
SECTION
  2
CLASSES
  0
CLASS
  1
LWPOLYLINE
  2
AcDbPolyline
  3
"AutoCAD"
 90
        0
280
             0
281
             1
  0
CLASS
  1
IMAGE
  2
AcDbRasterImage
  3
ISM
 90
      127
280
             0
281
             1
  0
CLASS
  1
OLE2FRAME
  2
AcDbOle2Frame
  3
""
 90
        0
280
             0
281
             1
  0
CLASS
  1
HATCH
  2
AcDbHatch
  3
"ACAD_SEDONA"
 90
        0
280
             0
281
             1
  0
CLASS
  1
DICTIONARYVAR
  2
AcDbDictionaryVar
  3
"AutoCAD"
 90
        0
280
             0
281
             0
  0
CLASS
  1
RASTERVARIABLES
  2
AcDbRasterVariables
  3
ISM
 90
        0
280
             0
281
             0
  0
CLASS
  1
IMAGEDEF
  2
AcDbRasterImageDef
  3
ISM
 90
        0
280
             0
281
             0
  0
CLASS
  1
IMAGEDEF_REACTOR
  2
AcDbRasterImageDefReactor
  3
ISM
 90
        1
280
             0
281
             0
  0
CLASS
  1
IDBUFFER
  2
AcDbIdBuffer
  3
"Acad"
 90
        0
280
             0
281
             0
  0
CLASS
  1
SPATIAL_FILTER
  2
AcDbSpatialFilter
  3
"Acad"
 90
        0
280
             0
281
             0
  0
CLASS
  1
XRECORD
  2
AcDbXrecord
  3
"<Built In>"
 90
        0
280
             0
281
             0
  0
CLASS
  1
SORTENTSTABLE
  2
AcDbSortentsTable
  3
"AutoCAD"
 90
        0
280
             0
281
             0
  0
CLASS
  1
LAYER_INDEX
  2
AcDbLayerIndex
  3
"Acad"
 90
        0
280
             0
281
             0
  0
CLASS
  1
SPATIAL_INDEX
  2
AcDbSpatialIndex
  3
"Acad"
 90
        0
280
             0
281
             0
  0
CLASS
  1
OBJECT_PTR
  2
CAseDLPNTableRecord
  3
"ASE-LPNTableRecord"
 90
        1
280
             0
281
             0
  0
CLASS
  1
LAYOUT
  2
AcDbLayout
  3
"AutoCAD 2000"
 90
        1
280
             0
281
             0
  0
CLASS
  1
PLOTSETTINGS
  2
AcDbPlotSettings
  3
"AutoCAD 2000"
 90
        1
280
             0
281
             0
  0
CLASS
  1
ACDBDICTIONARYWDFLT
  2
AcDbDictionaryWithDefault
  3
"AutoCAD 2000"
 90
        1
280
             0
281
             0
  0
CLASS
  1
ACDBPLACEHOLDER
  2
AcDbPlaceHolder
  3
"AutoCAD 2000"
 90
        1
280
             0
281
             0
  0
ENDSEC
  0
SECTION
  2
TABLES
  0
TABLE
  2
VPORT
  5
7
100
AcDbSymbolTable
 70
             1
  0
VPORT
  5
15
100
AcDbSymbolTableRecord
100
AcDbViewportTableRecord
  2
*ACTIVE
 70
             0
 10
0.0
 20
0.0
 11
1.0
 21
1.0
 12
-20900.284187435493
 22
-11904.865159661746
 13
0.0
 23
0.0
 14
1.0
 24
1.0
 15
0.0
 25
0.0
 16
0.0
 26
0.0
 36
1.0
 17
0.0
 27
0.0
 37
0.0
 40
294.18677433178345
 41
1.60267857142857
 42
50.0
 43
0.0
 44
0.0
 50
0.0
 51
0.0
 71
             0
 72
           100
 73
             1
 74
             1
 75
             0
 76
             0
 77
             0
 78
             0
  0
ENDTAB
  0
TABLE
  2
LTYPE
  5
4
100
AcDbSymbolTable
 70
            11
  0
LTYPE
  5
11
100
AcDbSymbolTableRecord
100
AcDbLinetypeTableRecord
  2
BYBLOCK
 70
            64
  3

 72
            65
 73
             0
 40
0.0
  0
LTYPE
  5
12
100
AcDbSymbolTableRecord
100
AcDbLinetypeTableRecord
  2
BYLAYER
 70
            64
  3

 72
            65
 73
             0
 40
0.0
  0
LTYPE
  5
13
100
AcDbSymbolTableRecord
100
AcDbLinetypeTableRecord
  2
CONTINUOUS
 70
            64
  3
Solid line
 72
            65
 73
             0
 40
0.0
  0
LTYPE
  5
1D
100
AcDbSymbolTableRecord
100
AcDbLinetypeTableRecord
  2
DASHED
 70
            64
  3
Dashed
 72
            65
 73
             2
 40
15.0
 49
12.0
 74
             0
 49
-3.0
 74
             0
  0
LTYPE
  5
1E
100
AcDbSymbolTableRecord
100
AcDbLinetypeTableRecord
  2
DOTTED
 70
            64
  3
Dotted
 72
            65
 73
             2
 40
3.5
 49
0.5
 74
             0
 49
-3.0
 74
             0
  0
LTYPE
  5
1F
100
AcDbSymbolTableRecord
100
AcDbLinetypeTableRecord
  2
DOT_CENTER
 70
            64
  3
Dot_Center
 72
            65
 73
             4
 40
2.0
 49
1.25
 74
             0
 49
-0.25
 74
             0
 49
0.25
 74
             0
 49
-0.25
 74
             0
  0
LTYPE
  5
20
100
AcDbSymbolTableRecord
100
AcDbLinetypeTableRecord
  2
LONG_DASHED
 70
            64
  3
Long_Dashed
 72
            65
 73
             2
 40
2.0
 49
1.5
 74
             0
 49
-0.5
 74
             0
  0
LTYPE
  5
21
100
AcDbSymbolTableRecord
100
AcDbLinetypeTableRecord
  2
DASH_CENTER
 70
            64
  3
Dash_Center
 72
            65
 73
             4
 40
36.0
 49
24.0
 74
             0
 49
-3.0
 74
             0
 49
6.0
 74
             0
 49
-3.0
 74
             0
  0
LTYPE
  5
22
100
AcDbSymbolTableRecord
100
AcDbLinetypeTableRecord
  2
PHANTOM
 70
            64
  3
Phantom
 72
            65
 73
             6
 40
2.5
 49
1.25
 74
             0
 49
-0.25
 74
             0
 49
0.25
 74
             0
 49
-0.25
 74
             0
 49
0.25
 74
             0
 49
-0.25
 74
             0
  0
LTYPE
  5
23
100
AcDbSymbolTableRecord
100
AcDbLinetypeTableRecord
  2
CENTER_DASH_DASH
 70
            64
  3
Center_Dash_Dash
 72
            65
 73
             6
 40
22.0
 49
12.0
 74
             0
 49
-3.0
 74
             0
 49
0.5
 74
             0
 49
-3.0
 74
             0
 49
0.5
 74
             0
 49
-3.0
 74
             0
  0
LTYPE
  5
24
100
AcDbSymbolTableRecord
100
AcDbLinetypeTableRecord
  2
DASHED2
 70
            64
  3
DASHED2
 72
            65
 73
             2
 40
3.0
 49
2.0
 74
             0
 49
-1.0
 74
             0
  0
ENDTAB
  0
TABLE
  2
LAYER
  5
2
100
AcDbSymbolTable
 70
             4
  0
LAYER
  5
14
100
AcDbSymbolTableRecord
100
AcDbLayerTableRecord
  2
0
 70
             0
 62
             7
  6
CONTINUOUS
  0
LAYER
  5
25
100
AcDbSymbolTableRecord
100
AcDbLayerTableRecord
  2
1
 70
             0
 62
             7
  6
CONTINUOUS
  0
LAYER
  5
26
100
AcDbSymbolTableRecord
100
AcDbLayerTableRecord
  2
BASE_HIDDEN
 70
             0
 62
             7
  6
CONTINUOUS
  0
LAYER
  5
27
100
AcDbSymbolTableRecord
100
AcDbLayerTableRecord
  2
DIM
 70
             0
 62
             7
  6
CONTINUOUS
  0
ENDTAB
  0
TABLE
  2
STYLE
  5
3
100
AcDbSymbolTable
 70
             1
  0
STYLE
  5
17
100
AcDbSymbolTableRecord
100
AcDbTextStyleTableRecord
  2
STANDARD
 70
             0
 40
0.0
 41
1.0
 50
0.0
 71
             0
 42
0.0
  3
txt
  4

  0
ENDTAB
  0
TABLE
  2
VIEW
  5
5
100
AcDbSymbolTable
 70
             0
  0
ENDTAB
  0
TABLE
  2
UCS
  5
6
100
AcDbSymbolTable
 70
             0
  0
ENDTAB
  0
TABLE
  2
APPID
  5
8
100
AcDbSymbolTable
 70
             1
  0
APPID
  5
16
100
AcDbSymbolTableRecord
100
AcDbRegAppTableRecord
  2
ACAD
 70
             0
  0
ENDTAB
  0
TABLE
  2
DIMSTYLE
  5
9
100
AcDbSymbolTable
 70
             1
  0
DIMSTYLE
105
18
100
AcDbSymbolTableRecord
100
AcDbDimStyleTableRecord
  2
STANDARD
 70
             0
  3

  4

  5

  6

  7

 40
1.0
 41
0.18
 42
0.0625
 43
0.38
 44
0.18
 45
0.0
 46
0.0
 47
0.0
 48
0.0
 71
             0
 72
             0
 73
             1
 74
             1
 75
             0
 76
             0
 77
             0
 78
             0
140
0.18
141
0.09
142
0.0
143
25.4
144
1.0
145
0.0
146
1.0
147
0.09
170
             0
171
             2
172
             0
173
             0
174
             0
175
             0
176
             0
177
             0
178
             0
270
             2
271
             4
272
             4
273
             2
274
             2
275
             0
280
             0
281
             0
282
             0
283
             1
284
             0
285
             0
286
             0
287
             0
288
             0
340
17
  0
ENDTAB
  0
TABLE
  2
BLOCK_RECORD
  5
1
100
AcDbSymbolTable
 70
             0
  0
BLOCK_RECORD
  5
A
100
AcDbSymbolTableRecord
100
AcDbBlockTableRecord
  2
*MODEL_SPACE
  0
BLOCK_RECORD
  5
B
100
AcDbSymbolTableRecord
100
AcDbBlockTableRecord
  2
*PAPER_SPACE
  0
ENDTAB
  0
ENDSEC
  0
SECTION
  2
BLOCKS
  0
BLOCK
  5
D
100
AcDbEntity
  8
0
100
AcDbBlockBegin
  2
*MODEL_SPACE
 70
             0
 10
0.0
 20
0.0
 30
0.0
  3
*MODEL_SPACE
  1

  0
ENDBLK
  5
E
100
AcDbEntity
  8
0
100
AcDbBlockEnd
  0
BLOCK
  5
F
100
AcDbEntity
 67
             1
  8
0
100
AcDbBlockBegin
  2
*PAPER_SPACE
 70
             0
 10
0.0
 20
0.0
 30
0.0
  3
*PAPER_SPACE
  1

  0
ENDBLK
  5
10
100
AcDbEntity
 67
             1
  8
0
100
AcDbBlockEnd
  0
ENDSEC
  0
SECTION
  2
ENTITIES
  0
ARC
  5
305
100
AcDbEntity
  8
1
  6
CONTINUOUS
 62
             7
100
AcDbCircle
 10
-20979.471098120939
 20
-11955.94526719979
 40
1.00000000000082
100
AcDbArc
 50
14.99999999976614
 51
90.0
  0
ARC
  5
304
100
AcDbEntity
  8
1
  6
CONTINUOUS
 62
             7
100
AcDbCircle
 10
-20977.327504581499
 20
-11963.94526719979
 40
1.0
100
AcDbArc
 50
-90.0
 51
14.99999999965824
  0
ARC
  5
303
100
AcDbEntity
  8
1
  6
CONTINUOUS
 62
             7
100
AcDbCircle
 10
-20997.489314130471
 20
-11963.94526719979
 40
0.99999999999777
100
AcDbArc
 50
-165.00000000007924
 51
-90.0
  0
ARC
  5
302
100
AcDbEntity
  8
1
  6
CONTINUOUS
 62
             7
100
AcDbCircle
 10
-20999.632907669911
 20
-11955.94526719979
 40
1.0
100
AcDbArc
 50
90.0
 51
-165.00000000007924
  0
ARC
  5
301
100
AcDbEntity
  8
1
  6
CONTINUOUS
 62
             7
100
AcDbCircle
 10
-21077.327504581492
 20
-11955.94526719979
 40
1.00000000000129
100
AcDbArc
 50
-14.99999999986681
 51
90.0
  0
ARC
  5
300
100
AcDbEntity
  8
1
  6
CONTINUOUS
 62
             7
100
AcDbCircle
 10
-21079.471098120928
 20
-11963.94526719979
 40
1.0
100
AcDbArc
 50
-90.0
 51
-15.00000000002865
  0
ARC
  5
2FF
100
AcDbEntity
  8
1
  6
CONTINUOUS
 62
             7
100
AcDbCircle
 10
-21059.971098120928
 20
-11963.94526719979
 40
1.0
100
AcDbArc
 50
-90.0
 51
-15.00000000002865
  0
ARC
  5
2FE
100
AcDbEntity
  8
1
  6
CONTINUOUS
 62
             7
100
AcDbCircle
 10
-21057.827504581492
 20
-11955.94526719979
 40
1.00000000000129
100
AcDbArc
 50
-14.99999999986681
 51
90.0
  0
ARC
  5
2FD
100
AcDbEntity
  8
1
  6
CONTINUOUS
 62
             7
100
AcDbCircle
 10
-21093.72167604027
 20
-11955.94526719979
 40
1.0
100
AcDbArc
 50
90.0
 51
165.00000000023388
  0
ARC
  5
2FC
100
AcDbEntity
  8
1
  6
CONTINUOUS
 62
             7
100
AcDbCircle
 10
-21095.86526957971
 20
-11963.94526719979
 40
1.00000000000784
100
AcDbArc
 50
165.00000000034177
 51
-90.0
  0
ARC
  5
2FB
100
AcDbEntity
  8
1
  6
CONTINUOUS
 62
             7
100
AcDbCircle
 10
-21076.36526957971
 20
-11963.94526719979
 40
1.00000000000784
100
AcDbArc
 50
165.00000000034177
 51
-90.0
  0
ARC
  5
2FA
100
AcDbEntity
  8
1
  6
CONTINUOUS
 62
             7
100
AcDbCircle
 10
-21074.221676040259
 20
-11955.94526719979
 40
1.0
100
AcDbArc
 50
90.0
 51
165.00000000039572
  0
ARC
  5
2F9
100
AcDbEntity
  8
1
  6
CONTINUOUS
 62
             7
100
AcDbCircle
 10
-21036.703460030731
 20
-11963.94526719979
 40
1.0
100
AcDbArc
 50
-90.0
 51
-15.00000000002865
  0
ARC
  5
2F8
100
AcDbEntity
  8
1
  6
CONTINUOUS
 62
             7
100
AcDbCircle
 10
-21056.86526957971
 20
-11963.94526719979
 40
1.00000000000784
100
AcDbArc
 50
165.00000000034177
 51
-90.0
  0
ARC
  5
2F7
100
AcDbEntity
  8
1
  6
CONTINUOUS
 62
             7
100
AcDbCircle
 10
-21054.721676040259
 20
-11955.94526719979
 40
1.0
100
AcDbArc
 50
90.0
 51
165.00000000039572
  0
ARC
  5
2F6
100
AcDbEntity
  8
1
  6
CONTINUOUS
 62
             7
100
AcDbCircle
 10
-21034.55986649129
 20
-11955.94526719979
 40
0.99999999999075
100
AcDbArc
 50
-15.00000000002865
 51
90.0
  0
ARC
  5
2F5
100
AcDbEntity
  8
1
  6
CONTINUOUS
 62
             7
100
AcDbCircle
 10
-21006.096387080612
 20
-11957.416799330749
 40
1.99999999999771
100
AcDbArc
 50
65.55604521927295
 51
114.44395478034753
  0
ARC
  5
2F4
100
AcDbEntity
  8
1
  6
CONTINUOUS
 62
             7
100
AcDbCircle
 10
-21006.096387080612
 20
-11962.47373506883
 40
1.99999999999334
100
AcDbArc
 50
-114.44395478032598
 51
-65.55604521929452
  0
ARC
  5
2F3
100
AcDbEntity
  8
1
  6
CONTINUOUS
 62
             7
100
AcDbCircle
 10
-21017.096387080612
 20
-11967.47373506883
 40
1.99999999999334
100
AcDbArc
 50
-114.44395478032598
 51
-65.55604521929452
  0
ARC
  5
2F2
100
AcDbEntity
  8
1
  6
CONTINUOUS
 62
             7
100
AcDbCircle
 10
-21017.096387080612
 20
-11962.416799330749
 40
1.99999999999771
100
AcDbArc
 50
65.55604521927295
 51
114.44395478034753
  0
ARC
  5
2F1
100
AcDbEntity
  8
1
  6
CONTINUOUS
 62
             7
100
AcDbCircle
 10
-21017.096387080612
 20
-11957.47373506883
 40
1.99999999999334
100
AcDbArc
 50
-114.44395478032598
 51
-65.55604521929452
  0
ARC
  5
2F0
100
AcDbEntity
  8
1
  6
CONTINUOUS
 62
             7
100
AcDbCircle
 10
-21017.096387080612
 20
-11952.416799330749
 40
1.99999999999771
100
AcDbArc
 50
65.55604521927295
 51
114.44395478034753
  0
ARC
  5
2EF
100
AcDbEntity
  8
1
  6
CONTINUOUS
 62
             7
100
AcDbCircle
 10
-21028.096387080612
 20
-11957.416799330749
 40
1.99999999999771
100
AcDbArc
 50
65.55604521927295
 51
114.44395478034753
  0
ARC
  5
2EE
100
AcDbEntity
  8
1
  6
CONTINUOUS
 62
             7
100
AcDbCircle
 10
-21028.096387080612
 20
-11962.47373506883
 40
1.99999999999334
100
AcDbArc
 50
-114.44395478032598
 51
-65.55604521929452
  0
ARC
  5
2ED
100
AcDbEntity
  8
1
  6
CONTINUOUS
 62
             7
100
AcDbCircle
 10
-21009.117148574009
 20
-11964.94526719979
 40
1.00000000000202
100
AcDbArc
 50
-65.55604521912633
 51
65.5560452190832
  0
ARC
  5
2EC
100
AcDbEntity
  8
1
  6
CONTINUOUS
 62
             7
100
AcDbCircle
 10
-21025.0756255872
 20
-11964.94526719979
 40
1.00000000000488
100
AcDbArc
 50
114.44395478148608
 51
-114.44395478144295
  0
ARC
  5
2EB
100
AcDbEntity
  8
1
  6
CONTINUOUS
 62
             7
100
AcDbCircle
 10
-21009.117148574009
 20
-11954.94526719979
 40
1.00000000000202
100
AcDbArc
 50
-65.55604521912633
 51
65.5560452190832
  0
ARC
  5
2EA
100
AcDbEntity
  8
1
  6
CONTINUOUS
 62
             7
100
AcDbCircle
 10
-21025.0756255872
 20
-11954.94526719979
 40
1.00000000000488
100
AcDbArc
 50
114.44395478148608
 51
-114.44395478144295
  0
ARC
  5
2E9
100
AcDbEntity
  8
1
  6
CONTINUOUS
 62
             7
100
AcDbCircle
 10
-21036.0756255872
 20
-11959.94526719979
 40
1.00000000000488
100
AcDbArc
 50
114.44395478148608
 51
-114.44395478144295
  0
ARC
  5
2E8
100
AcDbEntity
  8
1
  6
CONTINUOUS
 62
             7
100
AcDbCircle
 10
-21020.117148574009
 20
-11959.94526719979
 40
1.00000000000202
100
AcDbArc
 50
-65.55604521912633
 51
65.5560452190832
  0
ARC
  5
2E7
100
AcDbEntity
  8
1
  6
CONTINUOUS
 62
             7
100
AcDbCircle
 10
-21014.0756255872
 20
-11959.94526719979
 40
1.00000000000488
100
AcDbArc
 50
114.44395478148608
 51
-114.44395478144295
  0
ARC
  5
2E6
100
AcDbEntity
  8
1
  6
CONTINUOUS
 62
             7
100
AcDbCircle
 10
-20998.117148574009
 20
-11959.94526719979
 40
1.00000000000202
100
AcDbArc
 50
-65.55604521912633
 51
65.5560452190832
  0
ARC
  5
2E5
100
AcDbEntity
  8
1
  6
CONTINUOUS
 62
             7
100
AcDbCircle
 10
-21100.026701503481
 20
-11967.44526719979
 40
1.0000000000009
100
AcDbArc
 50
155.0000000000459
 51
-90.0
  0
ARC
  5
2E4
100
AcDbEntity
  8
1
  6
CONTINUOUS
 62
             7
100
AcDbCircle
 10
-21096.995701725489
 20
-11960.94526719979
 40
1.0
100
AcDbArc
 50
90.0
 51
154.99999999960542
  0
ARC
  5
2E3
100
AcDbEntity
  8
1
  6
CONTINUOUS
 62
             7
100
AcDbCircle
 10
-20976.197072435731
 20
-11960.94526719979
 40
1.0000000000042
100
AcDbArc
 50
24.99999999986602
 51
90.0
  0
ARC
  5
2E2
100
AcDbEntity
  8
1
  6
CONTINUOUS
 62
             7
100
AcDbCircle
 10
-20973.166072657728
 20
-11967.44526719979
 40
1.0
100
AcDbArc
 50
-90.0
 51
24.99999999968984
  0
CIRCLE
  5
2E1
100
AcDbEntity
  8
DIM
  6
CONTINUOUS
 62
             7
100
AcDbCircle
 10
-20961.456608606819
 20
-11929.534139036879
 40
0.40000000000873
  0
CIRCLE
  5
2E0
100
AcDbEntity
  8
DIM
  6
CONTINUOUS
 62
             7
100
AcDbCircle
 10
-20963.919229569728
 20
-11930.463473210561
 40
0.39999999999782
  0
CIRCLE
  5
2DF
100
AcDbEntity
  8
DIM
  6
CONTINUOUS
 62
             7
100
AcDbCircle
 10
-20958.946387080599
 20
-11894.44526719979
 40
0.39999999999054
  0
CIRCLE
  5
2DE
100
AcDbEntity
  8
DIM
  6
CONTINUOUS
 62
             7
100
AcDbCircle
 10
-20961.446387080599
 20
-11894.44526719979
 40
0.39999999999054
  0
CIRCLE
  5
2DD
100
AcDbEntity
  8
DIM
  6
CONTINUOUS
 62
             7
100
AcDbCircle
 10
-20958.946387080599
 20
-11896.94526719979
 40
0.39999999999054
  0
CIRCLE
  5
2DC
100
AcDbEntity
  8
DIM
  6
CONTINUOUS
 62
             7
100
AcDbCircle
 10
-20961.446387080599
 20
-11896.94526719979
 40
0.39999999999054
  0
CIRCLE
  5
2DB
100
AcDbEntity
  8
DIM
  6
CONTINUOUS
 62
             7
100
AcDbCircle
 10
-20958.946387080599
 20
-11910.94526719979
 40
0.39999999999054
  0
CIRCLE
  5
2DA
100
AcDbEntity
  8
DIM
  6
CONTINUOUS
 62
             7
100
AcDbCircle
 10
-20961.446387080599
 20
-11910.94526719979
 40
0.39999999999054
  0
CIRCLE
  5
2D9
100
AcDbEntity
  8
DIM
  6
CONTINUOUS
 62
             7
100
AcDbCircle
 10
-20958.946387080599
 20
-11913.44526719979
 40
0.39999999999054
  0
CIRCLE
  5
2D8
100
AcDbEntity
  8
DIM
  6
CONTINUOUS
 62
             7
100
AcDbCircle
 10
-20961.446387080599
 20
-11913.44526719979
 40
0.39999999999054
  0
CIRCLE
  5
2D7
100
AcDbEntity
  8
DIM
  6
CONTINUOUS
 62
             7
100
AcDbCircle
 10
-20958.946387080599
 20
-11915.94526719979
 40
0.39999999999054
  0
CIRCLE
  5
2D6
100
AcDbEntity
  8
DIM
  6
CONTINUOUS
 62
             7
100
AcDbCircle
 10
-20961.446387080599
 20
-11915.94526719979
 40
0.39999999999054
  0
CIRCLE
  5
2D5
100
AcDbEntity
  8
DIM
  6
CONTINUOUS
 62
             7
100
AcDbCircle
 10
-20958.946387080599
 20
-11891.94526719979
 40
0.39999999999054
  0
CIRCLE
  5
2D4
100
AcDbEntity
  8
DIM
  6
CONTINUOUS
 62
             7
100
AcDbCircle
 10
-20961.446387080599
 20
-11891.94526719979
 40
0.39999999999054
  0
CIRCLE
  5
2D3
100
AcDbEntity
  8
DIM
  6
CONTINUOUS
 62
             7
100
AcDbCircle
 10
-20961.456608606819
 20
-11932.034139036879
 40
0.40000000000873
  0
CIRCLE
  5
2D2
100
AcDbEntity
  8
DIM
  6
CONTINUOUS
 62
             7
100
AcDbCircle
 10
-20961.478118227431
 20
-11934.488555174619
 40
0.40000000000146
  0
CIRCLE
  5
2D1
100
AcDbEntity
  8
DIM
  6
CONTINUOUS
 62
             7
100
AcDbCircle
 10
-20958.956608606819
 20
-11933.69729642345
 40
0.40000000000873
  0
CIRCLE
  5
2D0
100
AcDbEntity
  8
DIM
  6
CONTINUOUS
 62
             7
100
AcDbCircle
 10
-20963.94675981352
 20
-11935.48609725461
 40
0.40000000000146
  0
CIRCLE
  5
2CF
100
AcDbEntity
  8
DIM
  6
CONTINUOUS
 62
             7
100
AcDbCircle
 10
-20963.940739190341
 20
-11932.9178893483
 40
0.40000000000146
  0
CIRCLE
  5
2CE
100
AcDbEntity
  8
DIM
  6
CONTINUOUS
 62
             7
100
AcDbCircle
 10
-20958.978118227431
 20
-11936.15171256119
 40
0.40000000000146
  0
CIRCLE
  5
2CD
100
AcDbEntity
  8
DIM
  6
CONTINUOUS
 62
             7
100
AcDbCircle
 10
-20961.48413885061
 20
-11942.056763080929
 40
0.40000000000146
  0
CIRCLE
  5
2CC
100
AcDbEntity
  8
DIM
  6
CONTINUOUS
 62
             7
100
AcDbCircle
 10
-20958.98413885061
 20
-11943.7199204675
 40
0.40000000000146
  0
CIRCLE
  5
2CB
100
AcDbEntity
  8
DIM
  6
CONTINUOUS
 62
             7
100
AcDbCircle
 10
-20961.48413885061
 20
-11939.556763080929
 40
0.40000000000146
  0
CIRCLE
  5
2CA
100
AcDbEntity
  8
DIM
  6
CONTINUOUS
 62
             7
100
AcDbCircle
 10
-20958.98413885061
 20
-11941.2199204675
 40
0.40000000000146
  0
CIRCLE
  5
2C9
100
AcDbEntity
  8
DIM
  6
CONTINUOUS
 62
             7
100
AcDbCircle
 10
-20958.98413885061
 20
-11938.7199204675
 40
0.40000000000146
  0
CIRCLE
  5
2C8
100
AcDbEntity
  8
DIM
  6
CONTINUOUS
 62
             7
100
AcDbCircle
 10
-20963.98413885061
 20
-11940.39360569436
 40
0.40000000000146
  0
CIRCLE
  5
2C7
100
AcDbEntity
  8
DIM
  6
CONTINUOUS
 62
             7
100
AcDbCircle
 10
-20963.952780436692
 20
-11938.05430516092
 40
0.40000000000146
  0
CIRCLE
  5
2C6
100
AcDbEntity
  8
DIM
  6
CONTINUOUS
 62
             7
100
AcDbCircle
 10
-20961.48413885061
 20
-11937.056763080929
 40
0.40000000000146
  0
CIRCLE
  5
2C5
100
AcDbEntity
  8
DIM
  6
CONTINUOUS
 62
             7
100
AcDbCircle
 10
-20956.478118227431
 20
-11935.314869947761
 40
0.40000000000146
  0
CIRCLE
  5
2C4
100
AcDbEntity
  8
DIM
  6
CONTINUOUS
 62
             7
100
AcDbCircle
 10
-20956.48413885061
 20
-11942.883077854071
 40
0.40000000000146
  0
CIRCLE
  5
2C3
100
AcDbEntity
  8
DIM
  6
CONTINUOUS
 62
             7
100
AcDbCircle
 10
-20956.48413885061
 20
-11945.383077854071
 40
0.40000000000146
  0
CIRCLE
  5
2C2
100
AcDbEntity
  8
DIM
  6
CONTINUOUS
 62
             7
100
AcDbCircle
 10
-20956.48413885061
 20
-11940.383077854071
 40
0.40000000000146
  0
CIRCLE
  5
2C1
100
AcDbEntity
  8
DIM
  6
CONTINUOUS
 62
             7
100
AcDbCircle
 10
-20956.48413885061
 20
-11937.883077854071
 40
0.40000000000146
  0
CIRCLE
  5
2C0
100
AcDbEntity
  8
DIM
  6
CONTINUOUS
 62
             7
100
AcDbCircle
 10
-20956.478118227431
 20
-11932.814869947761
 40
0.40000000000146
  0
CIRCLE
  5
2BF
100
AcDbEntity
  8
DIM
  6
CONTINUOUS
 62
             7
100
AcDbCircle
 10
-20958.956608606819
 20
-11931.19729642345
 40
0.40000000000873
  0
CIRCLE
  5
2BE
100
AcDbEntity
  8
1
  6
CONTINUOUS
 62
             7
100
AcDbCircle
 10
-20980.096387080612
 20
-11966.44526719979
 40
1.25
  0
ARC
  5
2BD
100
AcDbEntity
  8
DIM
  6
CONTINUOUS
 62
             7
100
AcDbCircle
 10
-20892.596387080601
 20
-11839.912908373421
 40
2.0
100
AcDbArc
 50
90.0
 51
180.0
  0
ARC
  5
2BC
100
AcDbEntity
  8
DIM
  6
CONTINUOUS
 62
             7
100
AcDbCircle
 10
-20896.096387080601
 20
-11899.51290837341
 40
0.5
100
AcDbArc
 50
90.0
 51
180.0
  0
ARC
  5
2BB
100
AcDbEntity
  8
DIM
  6
CONTINUOUS
 62
             7
100
AcDbCircle
 10
-20896.093050035321
 20
-11899.31290837342
 40
0.30000000000512
100
AcDbArc
 50
33.74898859593198
 51
90.0
  0
ARC
  5
2BA
100
AcDbEntity
  8
DIM
  6
CONTINUOUS
 62
             7
100
AcDbCircle
 10
-20894.596387080601
 20
-11898.31290837342
 40
1.50000000000338
100
AcDbArc
 50
-146.25101140433694
 51
-27.81813928434807
  0
ARC
  5
2B9
100
AcDbEntity
  8
DIM
  6
CONTINUOUS
 62
             7
100
AcDbCircle
 10
-20883.096387080601
 20
-11890.135407372611
 40
10.00000000000044
100
AcDbArc
 50
161.80512766122553
 51
180.0
  0
ARC
  5
2B8
100
AcDbEntity
  8
DIM
  6
CONTINUOUS
 62
             7
100
AcDbCircle
 10
-20892.596387080601
 20
-11943.51457503892
 40
2.0
100
AcDbArc
 50
180.0
 51
-90.0
  0
ARC
  5
2B7
100
AcDbEntity
  8
DIM
  6
CONTINUOUS
 62
             7
100
AcDbCircle
 10
-20896.093050035321
 20
-11908.712908373411
 40
0.29999999999927
100
AcDbArc
 50
-90.0
 51
-33.74898859593198
  0
ARC
  5
2B6
100
AcDbEntity
  8
DIM
  6
CONTINUOUS
 62
             7
100
AcDbCircle
 10
-20896.096387080601
 20
-11908.51290837341
 40
0.5
100
AcDbArc
 50
180.0
 51
-90.0
  0
ARC
  5
2B5
100
AcDbEntity
  8
DIM
  6
CONTINUOUS
 62
             7
100
AcDbCircle
 10
-20894.596387080601
 20
-11909.712908373411
 40
1.49999999999844
100
AcDbArc
 50
27.81813928471678
 51
146.25101140433694
  0
ARC
  5
2B4
100
AcDbEntity
  8
DIM
  6
CONTINUOUS
 62
             7
100
AcDbCircle
 10
-20883.096387080601
 20
-11917.89040937422
 40
10.0
100
AcDbArc
 50
180.0
 51
-161.80512766128493
  0
ARC
  5
2B3
100
AcDbEntity
  8
0
  6
CONTINUOUS
 62
             7
100
AcDbCircle
 10
-20955.596387080601
 20
-11832.94526719979
 40
1.0
100
AcDbArc
 50
0.0
 51
90.0
  0
ARC
  5
2B2
100
AcDbEntity
  8
0
  6
CONTINUOUS
 62
             7
100
AcDbCircle
 10
-20972.096387080601
 20
-11840.845267199789
 40
3.0
100
AcDbArc
 50
0.0
 51
90.0
  0
ARC
  5
2B1
100
AcDbEntity
  8
0
  6
CONTINUOUS
 62
             7
100
AcDbCircle
 10
-20972.096387080601
 20
-11840.845267199789
 40
4.0
100
AcDbArc
 50
0.0
 51
90.0
  0
ARC
  5
2B0
100
AcDbEntity
  8
DIM
  6
CONTINUOUS
 62
             7
100
AcDbCircle
 10
-20961.246387080599
 20
-11919.94526719979
 40
3.0
100
AcDbArc
 50
180.0
 51
-90.0
  0
ARC
  5
2AF
100
AcDbEntity
  8
DIM
  6
CONTINUOUS
 62
             7
100
AcDbCircle
 10
-20961.246387080599
 20
-11889.94526719979
 40
3.0
100
AcDbArc
 50
90.0
 51
180.0
  0
ARC
  5
2AE
100
AcDbEntity
  8
DIM
  6
CONTINUOUS
 62
             7
100
AcDbCircle
 10
-20963.746387080599
 20
-11899.44526719979
 40
0.5
100
AcDbArc
 50
90.0
 51
180.0
  0
ARC
  5
2AD
100
AcDbEntity
  8
DIM
  6
CONTINUOUS
 62
             7
100
AcDbCircle
 10
-20958.552628920141
 20
-11902.245267199791
 40
0.2999999999957
100
AcDbArc
 50
-21.55401991956768
 51
90.0
  0
ARC
  5
2AC
100
AcDbEntity
  8
DIM
  6
CONTINUOUS
 62
             7
100
AcDbCircle
 10
-20961.912317207119
 20
-11902.245267199791
 40
0.30000000000109
100
AcDbArc
 50
90.0
 51
-157.95205253789504
  0
ARC
  5
2AB
100
AcDbEntity
  8
DIM
  6
CONTINUOUS
 62
             7
100
AcDbCircle
 10
-20963.746387080599
 20
-11908.44526719979
 40
0.5
100
AcDbArc
 50
180.0
 51
-90.0
  0
ARC
  5
2AA
100
AcDbEntity
  8
DIM
  6
CONTINUOUS
 62
             7
100
AcDbCircle
 10
-20960.211475011842
 20
-11906.44487755851
 40
0.30000000000271
100
AcDbArc
 50
-157.95205253570225
 51
-21.55401992150633
  0
ARC
  5
2A9
100
AcDbEntity
  8
DIM
  6
CONTINUOUS
 62
             7
100
AcDbCircle
 10
-20961.246387080599
 20
-11917.94526719979
 40
3.0
100
AcDbArc
 50
180.0
 51
-90.0
  0
ARC
  5
2A8
100
AcDbEntity
  8
DIM
  6
CONTINUOUS
 62
             7
100
AcDbCircle
 10
-20959.246387080599
 20
-11919.94526719979
 40
3.0
100
AcDbArc
 50
-90.0
 51
0.0
  0
ARC
  5
2A7
100
AcDbEntity
  8
0
  6
CONTINUOUS
 62
             7
100
AcDbCircle
 10
-20959.1463870806
 20
-11889.845267199789
 40
2.90000000000146
100
AcDbArc
 50
0.0
 51
90.0
  0
ARC
  5
2A6
100
AcDbEntity
  8
DIM
  6
CONTINUOUS
 62
             7
100
AcDbCircle
 10
-20956.746387080599
 20
-11899.44526719979
 40
0.5
100
AcDbArc
 50
0.0
 51
90.0
  0
ARC
  5
2A5
100
AcDbEntity
  8
DIM
  6
CONTINUOUS
 62
             7
100
AcDbCircle
 10
-20956.746387080599
 20
-11908.44526719979
 40
0.5
100
AcDbArc
 50
-90.0
 51
0.0
  0
ARC
  5
2A4
100
AcDbEntity
  8
0
  6
CONTINUOUS
 62
             7
100
AcDbCircle
 10
-20959.1463870806
 20
-11918.04526719979
 40
2.89999999999964
100
AcDbArc
 50
-90.0
 51
0.0
  0
ARC
  5
2A3
100
AcDbEntity
  8
0
  6
CONTINUOUS
 62
             7
100
AcDbCircle
 10
-20955.596387080601
 20
-11974.94526719979
 40
1.0
100
AcDbArc
 50
-90.0
 51
0.0
  0
ARC
  5
2A2
100
AcDbEntity
  8
DIM
  6
CONTINUOUS
 62
             7
100
AcDbCircle
 10
-20961.23413885061
 20
-11937.92351889989
 40
5.0
100
AcDbArc
 50
180.0
 51
-123.63435137149659
  0
ARC
  5
2A1
100
AcDbEntity
  8
DIM
  6
CONTINUOUS
 62
             7
100
AcDbCircle
 10
-20961.23413885061
 20
-11937.92351889989
 40
5.5
100
AcDbArc
 50
180.0
 51
-123.63435137156804
  0
ARC
  5
2A0
100
AcDbEntity
  8
0
  6
CONTINUOUS
 62
             7
100
AcDbCircle
 10
-20970.096387080601
 20
-11970.94526719979
 40
1.0
100
AcDbArc
 50
-90.0
 51
0.0
  0
ARC
  5
29F
100
AcDbEntity
  8
0
  6
CONTINUOUS
 62
             7
100
AcDbCircle
 10
-20972.096387080601
 20
-11940.707891061171
 40
2.99999999999982
100
AcDbArc
 50
-86.91114172380685
 51
0.0
  0
ARC
  5
29E
100
AcDbEntity
  8
0
  6
CONTINUOUS
 62
             7
100
AcDbCircle
 10
-20972.096387080601
 20
-11940.707891061171
 40
4.00000000000051
100
AcDbArc
 50
-86.91114172392921
 51
0.0
  0
ARC
  5
29D
100
AcDbEntity
  8
0
  6
CONTINUOUS
 62
             7
100
AcDbCircle
 10
-20970.096387080601
 20
-11948.94526719979
 40
1.0
100
AcDbArc
 50
0.0
 51
90.0
  0
ARC
  5
29C
100
AcDbEntity
  8
DIM
  6
CONTINUOUS
 62
             7
100
AcDbCircle
 10
-20961.23413885061
 20
-11933.63531479049
 40
5.00000000000347
100
AcDbArc
 50
56.36564862839928
 51
180.0
  0
ARC
  5
29B
100
AcDbEntity
  8
DIM
  6
CONTINUOUS
 62
             7
100
AcDbCircle
 10
-20961.23413885061
 20
-11933.63531479049
 40
5.50000000000856
100
AcDbArc
 50
56.36564862840029
 51
180.0
  0
ARC
  5
29A
100
AcDbEntity
  8
0
  6
CONTINUOUS
 62
             7
100
AcDbCircle
 10
-21101.096387080601
 20
-11840.845267199789
 40
3.0
100
AcDbArc
 50
90.0
 51
180.0
  0
ARC
  5
299
100
AcDbEntity
  8
0
  6
CONTINUOUS
 62
             7
100
AcDbCircle
 10
-21101.096387080601
 20
-11840.845267199789
 40
4.0
100
AcDbArc
 50
90.0
 51
180.0
  0
ARC
  5
298
100
AcDbEntity
  8
0
  6
CONTINUOUS
 62
             7
100
AcDbCircle
 10
-21103.096387080601
 20
-11970.94526719979
 40
1.0
100
AcDbArc
 50
180.0
 51
-90.0
  0
ARC
  5
297
100
AcDbEntity
  8
0
  6
CONTINUOUS
 62
             7
100
AcDbCircle
 10
-21101.096387080601
 20
-11940.707891061171
 40
3.0
100
AcDbArc
 50
180.0
 51
-93.08885827612377
  0
ARC
  5
296
100
AcDbEntity
  8
0
  6
CONTINUOUS
 62
             7
100
AcDbCircle
 10
-21101.096387080601
 20
-11940.707891061171
 40
4.0
100
AcDbArc
 50
180.0
 51
-93.08885827617486
  0
ARC
  5
295
100
AcDbEntity
  8
0
  6
CONTINUOUS
 62
             7
100
AcDbCircle
 10
-21103.096387080601
 20
-11948.94526719979
 40
1.0
100
AcDbArc
 50
90.0
 51
180.0
  0
ARC
  5
294
100
AcDbEntity
  8
0
  6
CONTINUOUS
 62
             7
100
AcDbCircle
 10
-21036.596387080601
 20
-10745.44526719979
 40
1200.0016666655033
100
AcDbArc
 50
-93.08885827588836
 51
-86.91114172411147
  0
ARC
  5
293
100
AcDbEntity
  8
0
  6
CONTINUOUS
 62
             7
100
AcDbCircle
 10
-21036.596387080601
 20
-10745.44526719979
 40
1201.0016666655044
100
AcDbArc
 50
-93.08885827588873
 51
-86.91114172411163
  0
ARC
  5
292
100
AcDbEntity
  8
DIM
  6
CONTINUOUS
 62
             7
100
AcDbCircle
 10
-20728.971987790381
 20
-11898.23026719979
 40
2.65503613337023
100
AcDbArc
 50
-90.0
 51
90.0
  0
ARC
  5
291
100
AcDbEntity
  8
DIM
  6
CONTINUOUS
 62
             7
100
AcDbCircle
 10
-20728.971987790381
 20
-11905.85026719979
 40
2.65503613337023
100
AcDbArc
 50
-90.0
 51
90.0
  0
ARC
  5
290
100
AcDbEntity
  8
DIM
  6
CONTINUOUS
 62
             7
100
AcDbCircle
 10
-20728.971987790381
 20
-11913.470267199789
 40
2.65503613337023
100
AcDbArc
 50
-90.0
 51
90.0
  0
ARC
  5
28F
100
AcDbEntity
  8
DIM
  6
CONTINUOUS
 62
             7
100
AcDbCircle
 10
-20720.971987790381
 20
-11856.32026719979
 40
2.65503613337023
100
AcDbArc
 50
-90.0
 51
90.0
  0
ARC
  5
28E
100
AcDbEntity
  8
DIM
  6
CONTINUOUS
 62
             7
100
AcDbCircle
 10
-20720.971987790381
 20
-11863.94026719979
 40
2.65503613337023
100
AcDbArc
 50
-90.0
 51
90.0
  0
ARC
  5
28D
100
AcDbEntity
  8
DIM
  6
CONTINUOUS
 62
             7
100
AcDbCircle
 10
-20720.971987790381
 20
-11871.560267199789
 40
2.65503613337023
100
AcDbArc
 50
-90.0
 51
90.0
  0
ARC
  5
28C
100
AcDbEntity
  8
DIM
  6
CONTINUOUS
 62
             7
100
AcDbCircle
 10
-20720.971987790381
 20
-11879.18026719979
 40
2.65503613337023
100
AcDbArc
 50
-90.0
 51
90.0
  0
ARC
  5
28B
100
AcDbEntity
  8
DIM
  6
CONTINUOUS
 62
             7
100
AcDbCircle
 10
-20720.971987790381
 20
-11886.800267199789
 40
2.65503613337023
100
AcDbArc
 50
-90.0
 51
90.0
  0
ARC
  5
28A
100
AcDbEntity
  8
DIM
  6
CONTINUOUS
 62
             7
100
AcDbCircle
 10
-20728.971987790381
 20
-11860.130267199789
 40
2.65503613337023
100
AcDbArc
 50
-90.0
 51
90.0
  0
ARC
  5
289
100
AcDbEntity
  8
DIM
  6
CONTINUOUS
 62
             7
100
AcDbCircle
 10
-20728.971987790381
 20
-11852.51026719979
 40
2.65503613337023
100
AcDbArc
 50
-90.0
 51
90.0
  0
ARC
  5
288
100
AcDbEntity
  8
DIM
  6
CONTINUOUS
 62
             7
100
AcDbCircle
 10
-20728.971987790381
 20
-11882.99026719979
 40
2.65503613337023
100
AcDbArc
 50
-90.0
 51
90.0
  0
ARC
  5
287
100
AcDbEntity
  8
DIM
  6
CONTINUOUS
 62
             7
100
AcDbCircle
 10
-20728.971987790381
 20
-11875.370267199791
 40
2.65503613336841
100
AcDbArc
 50
-90.0
 51
90.0
  0
ARC
  5
286
100
AcDbEntity
  8
DIM
  6
CONTINUOUS
 62
             7
100
AcDbCircle
 10
-20728.971987790381
 20
-11890.610267199791
 40
2.65503613337023
100
AcDbArc
 50
-90.0
 51
90.0
  0
ARC
  5
285
100
AcDbEntity
  8
DIM
  6
CONTINUOUS
 62
             7
100
AcDbCircle
 10
-20728.971987790381
 20
-11867.75026719979
 40
2.65503613337023
100
AcDbArc
 50
-90.0
 51
90.0
  0
ARC
  5
284
100
AcDbEntity
  8
DIM
  6
CONTINUOUS
 62
             7
100
AcDbCircle
 10
-20720.971987790381
 20
-11902.040267199791
 40
2.65503613336841
100
AcDbArc
 50
-90.0
 51
90.0
  0
ARC
  5
283
100
AcDbEntity
  8
DIM
  6
CONTINUOUS
 62
             7
100
AcDbCircle
 10
-20720.971987790381
 20
-11909.66026719979
 40
2.65503613337023
100
AcDbArc
 50
-90.0
 51
90.0
  0
ARC
  5
282
100
AcDbEntity
  8
DIM
  6
CONTINUOUS
 62
             7
100
AcDbCircle
 10
-20720.971987790381
 20
-11917.280267199791
 40
2.65503613337023
100
AcDbArc
 50
-90.0
 51
90.0
  0
ARC
  5
281
100
AcDbEntity
  8
DIM
  6
CONTINUOUS
 62
             7
100
AcDbCircle
 10
-20720.971987790381
 20
-11932.52026719979
 40
2.65503613337023
100
AcDbArc
 50
-90.0
 51
90.0
  0
ARC
  5
280
100
AcDbEntity
  8
DIM
  6
CONTINUOUS
 62
             7
100
AcDbCircle
 10
-20720.971987790381
 20
-11924.90026719979
 40
2.65503613337023
100
AcDbArc
 50
-90.0
 51
90.0
  0
ARC
  5
27F
100
AcDbEntity
  8
DIM
  6
CONTINUOUS
 62
             7
100
AcDbCircle
 10
-20728.971987790381
 20
-11921.09026719979
 40
2.65503613337023
100
AcDbArc
 50
-90.0
 51
90.0
  0
ARC
  5
27E
100
AcDbEntity
  8
DIM
  6
CONTINUOUS
 62
             7
100
AcDbCircle
 10
-20728.971987790381
 20
-11928.710267199791
 40
2.65503613336841
100
AcDbArc
 50
-90.0
 51
90.0
  0
ARC
  5
27D
100
AcDbEntity
  8
DIM
  6
CONTINUOUS
 62
             7
100
AcDbCircle
 10
-20728.971987790381
 20
-11936.33026719979
 40
2.65503613337023
100
AcDbArc
 50
-90.0
 51
90.0
  0
ARC
  5
27C
100
AcDbEntity
  8
DIM
  6
CONTINUOUS
 62
             7
100
AcDbCircle
 10
-20720.971987790381
 20
-11894.42026719979
 40
2.65503613337023
100
AcDbArc
 50
-90.0
 51
90.0
  0
ARC
  5
27B
100
AcDbEntity
  8
DIM
  6
CONTINUOUS
 62
             7
100
AcDbCircle
 10
-20720.971987790381
 20
-11848.700267199791
 40
2.65503613336841
100
AcDbArc
 50
-90.0
 51
90.0
  0
ARC
  5
27A
100
AcDbEntity
  8
DIM
  6
CONTINUOUS
 62
             7
100
AcDbCircle
 10
-20720.97198779037
 20
-11947.76026719979
 40
2.65503613337023
100
AcDbArc
 50
-90.0
 51
90.0
  0
ARC
  5
279
100
AcDbEntity
  8
DIM
  6
CONTINUOUS
 62
             7
100
AcDbCircle
 10
-20720.971987790381
 20
-11955.380267199789
 40
2.65503613337023
100
AcDbArc
 50
-90.0
 51
90.0
  0
ARC
  5
278
100
AcDbEntity
  8
DIM
  6
CONTINUOUS
 62
             7
100
AcDbCircle
 10
-20728.971987790381
 20
-11951.57026719979
 40
2.65503613337023
100
AcDbArc
 50
-90.0
 51
90.0
  0
ARC
  5
277
100
AcDbEntity
  8
DIM
  6
CONTINUOUS
 62
             7
100
AcDbCircle
 10
-20728.971987790381
 20
-11959.19026719979
 40
2.65503613337023
100
AcDbArc
 50
-90.0
 51
90.0
  0
ARC
  5
276
100
AcDbEntity
  8
DIM
  6
CONTINUOUS
 62
             7
100
AcDbCircle
 10
-20720.971987790381
 20
-11940.140267199789
 40
2.65503613337023
100
AcDbArc
 50
-90.0
 51
90.0
  0
ARC
  5
275
100
AcDbEntity
  8
DIM
  6
CONTINUOUS
 62
             7
100
AcDbCircle
 10
-20728.97198779037
 20
-11943.950267199791
 40
2.65503613336841
100
AcDbArc
 50
-90.0
 51
90.0
  0
ARC
  5
274
100
AcDbEntity
  8
DIM
  6
CONTINUOUS
 62
             7
100
AcDbCircle
 10
-20701.471987790381
 20
-11867.75026719979
 40
2.65503613337023
100
AcDbArc
 50
-90.0
 51
90.0
  0
ARC
  5
273
100
AcDbEntity
  8
DIM
  6
CONTINUOUS
 62
             7
100
AcDbCircle
 10
-20693.471987790381
 20
-11886.800267199789
 40
2.65503613337023
100
AcDbArc
 50
-90.0
 51
90.0
  0
ARC
  5
272
100
AcDbEntity
  8
DIM
  6
CONTINUOUS
 62
             7
100
AcDbCircle
 10
-20701.471987790381
 20
-11890.610267199791
 40
2.65503613337023
100
AcDbArc
 50
-90.0
 51
90.0
  0
ARC
  5
271
100
AcDbEntity
  8
DIM
  6
CONTINUOUS
 62
             7
100
AcDbCircle
 10
-20701.471987790381
 20
-11875.370267199791
 40
2.65503613336841
100
AcDbArc
 50
-90.0
 51
90.0
  0
ARC
  5
270
100
AcDbEntity
  8
DIM
  6
CONTINUOUS
 62
             7
100
AcDbCircle
 10
-20693.471987790381
 20
-11879.18026719979
 40
2.65503613337023
100
AcDbArc
 50
-90.0
 51
90.0
  0
ARC
  5
26F
100
AcDbEntity
  8
DIM
  6
CONTINUOUS
 62
             7
100
AcDbCircle
 10
-20701.471987790381
 20
-11882.99026719979
 40
2.65503613337023
100
AcDbArc
 50
-90.0
 51
90.0
  0
ARC
  5
26E
100
AcDbEntity
  8
DIM
  6
CONTINUOUS
 62
             7
100
AcDbCircle
 10
-20693.471987790381
 20
-11871.560267199789
 40
2.65503613337023
100
AcDbArc
 50
-90.0
 51
90.0
  0
ARC
  5
26D
100
AcDbEntity
  8
DIM
  6
CONTINUOUS
 62
             7
100
AcDbCircle
 10
-20701.471987790381
 20
-11852.51026719979
 40
2.65503613337023
100
AcDbArc
 50
-90.0
 51
90.0
  0
ARC
  5
26C
100
AcDbEntity
  8
DIM
  6
CONTINUOUS
 62
             7
100
AcDbCircle
 10
-20701.471987790381
 20
-11860.130267199789
 40
2.65503613337023
100
AcDbArc
 50
-90.0
 51
90.0
  0
ARC
  5
26B
100
AcDbEntity
  8
DIM
  6
CONTINUOUS
 62
             7
100
AcDbCircle
 10
-20693.471987790381
 20
-11863.94026719979
 40
2.65503613337023
100
AcDbArc
 50
-90.0
 51
90.0
  0
ARC
  5
26A
100
AcDbEntity
  8
DIM
  6
CONTINUOUS
 62
             7
100
AcDbCircle
 10
-20693.471987790381
 20
-11856.32026719979
 40
2.65503613337023
100
AcDbArc
 50
-90.0
 51
90.0
  0
ARC
  5
269
100
AcDbEntity
  8
DIM
  6
CONTINUOUS
 62
             7
100
AcDbCircle
 10
-20693.471987790381
 20
-11924.90026719979
 40
2.65503613337023
100
AcDbArc
 50
-90.0
 51
90.0
  0
ARC
  5
268
100
AcDbEntity
  8
DIM
  6
CONTINUOUS
 62
             7
100
AcDbCircle
 10
-20701.471987790381
 20
-11936.33026719979
 40
2.65503613337023
100
AcDbArc
 50
-90.0
 51
90.0
  0
ARC
  5
267
100
AcDbEntity
  8
DIM
  6
CONTINUOUS
 62
             7
100
AcDbCircle
 10
-20693.471987790381
 20
-11932.52026719979
 40
2.65503613337023
100
AcDbArc
 50
-90.0
 51
90.0
  0
ARC
  5
266
100
AcDbEntity
  8
DIM
  6
CONTINUOUS
 62
             7
100
AcDbCircle
 10
-20701.471987790381
 20
-11928.710267199791
 40
2.65503613336841
100
AcDbArc
 50
-90.0
 51
90.0
  0
ARC
  5
265
100
AcDbEntity
  8
DIM
  6
CONTINUOUS
 62
             7
100
AcDbCircle
 10
-20701.471987790381
 20
-11913.470267199789
 40
2.65503613337023
100
AcDbArc
 50
-90.0
 51
-63.79758316445703
  0
ARC
  5
264
100
AcDbEntity
  8
DIM
  6
CONTINUOUS
 62
             7
100
AcDbCircle
 10
-20693.471987790381
 20
-11917.280267199791
 40
2.65503613337023
100
AcDbArc
 50
-90.0
 51
90.0
  0
ARC
  5
263
100
AcDbEntity
  8
DIM
  6
CONTINUOUS
 62
             7
100
AcDbCircle
 10
-20701.471987790381
 20
-11921.09026719979
 40
2.65503613337023
100
AcDbArc
 50
-90.0
 51
90.0
  0
ARC
  5
262
100
AcDbEntity
  8
DIM
  6
CONTINUOUS
 62
             7
100
AcDbCircle
 10
-20693.471987790381
 20
-11909.66026719979
 40
2.65503613337023
100
AcDbArc
 50
-90.0
 51
90.0
  0
ARC
  5
261
100
AcDbEntity
  8
DIM
  6
CONTINUOUS
 62
             7
100
AcDbCircle
 10
-20701.471987790381
 20
-11898.23026719979
 40
2.65503613338118
100
AcDbArc
 50
63.58296798170218
 51
90.0
  0
ARC
  5
260
100
AcDbEntity
  8
DIM
  6
CONTINUOUS
 62
             7
100
AcDbCircle
 10
-20693.471987790381
 20
-11902.040267199791
 40
2.65503613336841
100
AcDbArc
 50
-90.0
 51
90.0
  0
ARC
  5
25F
100
AcDbEntity
  8
DIM
  6
CONTINUOUS
 62
             7
100
AcDbCircle
 10
-20693.471987790381
 20
-11894.42026719979
 40
2.65503613337023
100
AcDbArc
 50
-90.0
 51
90.0
  0
ARC
  5
25E
100
AcDbEntity
  8
DIM
  6
CONTINUOUS
 62
             7
100
AcDbCircle
 10
-20693.471987790381
 20
-11848.700267199791
 40
2.65503613336841
100
AcDbArc
 50
-90.0
 51
90.0
  0
ARC
  5
25D
100
AcDbEntity
  8
DIM
  6
CONTINUOUS
 62
             7
100
AcDbCircle
 10
-20701.471987790381
 20
-11959.19026719979
 40
2.65503613337023
100
AcDbArc
 50
-90.0
 51
90.0
  0
ARC
  5
25C
100
AcDbEntity
  8
DIM
  6
CONTINUOUS
 62
             7
100
AcDbCircle
 10
-20701.471987790381
 20
-11951.57026719979
 40
2.65503613337023
100
AcDbArc
 50
-90.0
 51
90.0
  0
ARC
  5
25B
100
AcDbEntity
  8
DIM
  6
CONTINUOUS
 62
             7
100
AcDbCircle
 10
-20693.471987790381
 20
-11955.380267199789
 40
2.65503613337023
100
AcDbArc
 50
-90.0
 51
90.0
  0
ARC
  5
25A
100
AcDbEntity
  8
DIM
  6
CONTINUOUS
 62
             7
100
AcDbCircle
 10
-20693.471987790381
 20
-11947.76026719979
 40
2.65503613337023
100
AcDbArc
 50
-90.0
 51
90.0
  0
ARC
  5
259
100
AcDbEntity
  8
DIM
  6
CONTINUOUS
 62
             7
100
AcDbCircle
 10
-20701.47198779037
 20
-11943.950267199791
 40
2.65503613336841
100
AcDbArc
 50
-90.0
 51
90.0
  0
ARC
  5
258
100
AcDbEntity
  8
DIM
  6
CONTINUOUS
 62
             7
100
AcDbCircle
 10
-20693.471987790381
 20
-11940.140267199789
 40
2.65503613337023
100
AcDbArc
 50
-90.0
 51
90.0
  0
ARC
  5
257
100
AcDbEntity
  8
0
  6
CONTINUOUS
 62
             7
100
AcDbCircle
 10
-20706.471987790381
 20
-11837.69526719979
 40
0.5
100
AcDbArc
 50
0.0
 51
90.0
  0
ARC
  5
256
100
AcDbEntity
  8
0
  6
CONTINUOUS
 62
             7
100
AcDbCircle
 10
-20705.471987790381
 20
-11838.19526719979
 40
1.0
100
AcDbArc
 50
0.0
 51
90.0
  0
ARC
  5
255
100
AcDbEntity
  8
0
  6
CONTINUOUS
 62
             7
100
AcDbCircle
 10
-20705.471987790381
 20
-11969.69526719979
 40
1.0
100
AcDbArc
 50
-90.0
 51
0.0
  0
ARC
  5
254
100
AcDbEntity
  8
0
  6
CONTINUOUS
 62
             7
100
AcDbCircle
 10
-20706.471987790381
 20
-11970.19526719979
 40
0.5
100
AcDbArc
 50
-90.0
 51
0.0
  0
ARC
  5
253
100
AcDbEntity
  8
0
  6
CONTINUOUS
 62
             7
100
AcDbCircle
 10
-20891.571987790379
 20
-11974.94526719979
 40
1.0
100
AcDbArc
 50
180.0
 51
-90.0
  0
ARC
  5
252
100
AcDbEntity
  8
0
  6
CONTINUOUS
 62
             7
100
AcDbCircle
 10
-20891.571987790379
 20
-11832.94526719979
 40
1.0
100
AcDbArc
 50
90.0
 51
180.0
  0
ARC
  5
251
100
AcDbEntity
  8
0
  6
CONTINUOUS
 62
             7
100
AcDbCircle
 10
-20731.971987790381
 20
-11836.69526719979
 40
1.0
100
AcDbArc
 50
0.0
 51
90.0
  0
ARC
  5
250
100
AcDbEntity
  8
0
  6
CONTINUOUS
 62
             7
100
AcDbCircle
 10
-20731.971987790381
 20
-11971.19526719979
 40
1.0
100
AcDbArc
 50
-90.0
 51
0.0
  0
ARC
  5
24F
100
AcDbEntity
  8
1
  6
CONTINUOUS
 62
             7
100
AcDbCircle
 10
-20980.096387080612
 20
-11966.44526719979
 40
2.25000000000614
100
AcDbArc
 50
41.81031489563866
 51
138.18968510411432
  0
ARC
  5
24E
100
AcDbEntity
  8
1
  6
CONTINUOUS
 62
             7
100
AcDbCircle
 10
-20998.117148574009
 20
-11959.94526719979
 40
2.00000000000503
100
AcDbArc
 50
-61.9013539181985
 51
65.55604521921258
  0
ARC
  5
24D
100
AcDbEntity
  8
1
  6
CONTINUOUS
 62
             7
100
AcDbCircle
 10
-21036.0756255872
 20
-11959.94526719979
 40
2.00000000001066
100
AcDbArc
 50
114.44395478078742
 51
-118.0986460815257
  0
ARC
  5
24C
100
AcDbEntity
  8
0
  6
CONTINUOUS
 62
             7
100
AcDbCircle
 10
-21102.946387080599
 20
-11949.095267199789
 40
1.0
100
AcDbArc
 50
90.0
 51
180.0
  0
ARC
  5
24B
100
AcDbEntity
  8
0
  6
CONTINUOUS
 62
             7
100
AcDbCircle
 10
-21102.946387080599
 20
-11970.79526719979
 40
1.0
100
AcDbArc
 50
180.0
 51
-90.0
  0
ARC
  5
24A
100
AcDbEntity
  8
0
  6
CONTINUOUS
 62
             7
100
AcDbCircle
 10
-20970.246387080599
 20
-11949.095267199789
 40
1.0
100
AcDbArc
 50
0.0
 51
90.0
  0
ARC
  5
249
100
AcDbEntity
  8
0
  6
CONTINUOUS
 62
             7
100
AcDbCircle
 10
-20970.246387080599
 20
-11970.79526719979
 40
1.0
100
AcDbArc
 50
-90.0
 51
0.0
  0
LINE
  5
248
100
AcDbEntity
  8
1
  6
CONTINUOUS
 62
             7
100
AcDbLine
 10
-20835.971987790381
 20
-11835.44526719979
 11
-20740.971987790381
 21
-11835.44526719979
  0
LINE
  5
247
100
AcDbEntity
  8
1
  6
CONTINUOUS
 62
             7
100
AcDbLine
 10
-20835.971987790381
 20
-11972.44526719979
 11
-20740.971987790381
 21
-11972.44526719979
  0
LINE
  5
246
100
AcDbEntity
  8
DIM
  6
CONTINUOUS
 62
             7
100
AcDbLine
 10
-20893.096387080601
 20
-11890.135407372611
 11
-20893.096387080601
 21
-11899.01290837341
  0
LINE
  5
245
100
AcDbEntity
  8
0
  6
CONTINUOUS
 62
             7
100
AcDbLine
 10
-20894.596387080601
 20
-11891.84133549816
 11
-20894.596387080601
 21
-11898.01290837341
  0
LINE
  5
244
100
AcDbEntity
  8
BASE_HIDDEN
  6
DASHED2
 62
             7
100
AcDbLine
 10
-20893.096387080601
 20
-11894.11290837341
 11
-20892.596387080601
 21
-11894.11290837341
  0
LINE
  5
243
100
AcDbEntity
  8
BASE_HIDDEN
  6
DASHED2
 62
             7
100
AcDbLine
 10
-20893.096387080601
 20
-11894.912908373421
 11
-20892.596387080601
 21
-11894.912908373421
  0
LINE
  5
242
100
AcDbEntity
  8
BASE_HIDDEN
  6
DASHED2
 62
             7
100
AcDbLine
 10
-20893.096387080601
 20
-11896.61290837341
 11
-20892.596387080601
 21
-11896.61290837341
  0
LINE
  5
241
100
AcDbEntity
  8
BASE_HIDDEN
  6
DASHED2
 62
             7
100
AcDbLine
 10
-20893.096387080601
 20
-11897.412908373421
 11
-20892.596387080601
 21
-11897.412908373421
  0
LINE
  5
240
100
AcDbEntity
  8
DIM
  6
CONTINUOUS
 62
             7
100
AcDbLine
 10
-20893.269737164461
 20
-11899.01290837341
 11
-20892.596387080601
 21
-11899.01290837341
  0
LINE
  5
23F
100
AcDbEntity
  8
DIM
  6
CONTINUOUS
 62
             7
100
AcDbLine
 10
-20896.596387080601
 20
-11900.51290837341
 11
-20896.596387080601
 21
-11899.51290837341
  0
LINE
  5
23E
100
AcDbEntity
  8
DIM
  6
CONTINUOUS
 62
             7
100
AcDbLine
 10
-20896.596387080601
 20
-11901.51290837341
 11
-20896.096387080601
 21
-11901.01290837341
  0
LINE
  5
23D
100
AcDbEntity
  8
DIM
  6
CONTINUOUS
 62
             7
100
AcDbLine
 10
-20896.096387080601
 20
-11901.01290837341
 11
-20896.596387080601
 21
-11900.51290837341
  0
LINE
  5
23C
100
AcDbEntity
  8
DIM
  6
CONTINUOUS
 62
             7
100
AcDbLine
 10
-20896.096387080601
 20
-11899.01290837341
 11
-20896.093050035321
 21
-11899.01290837341
  0
LINE
  5
23B
100
AcDbEntity
  8
DIM
  6
CONTINUOUS
 62
             7
100
AcDbLine
 10
-20896.596387080601
 20
-11902.51290837341
 11
-20896.096387080601
 21
-11902.01290837341
  0
LINE
  5
23A
100
AcDbEntity
  8
DIM
  6
CONTINUOUS
 62
             7
100
AcDbLine
 10
-20896.096387080601
 20
-11903.01290837341
 11
-20896.596387080601
 21
-11902.51290837341
  0
LINE
  5
239
100
AcDbEntity
  8
DIM
  6
CONTINUOUS
 62
             7
100
AcDbLine
 10
-20896.596387080601
 20
-11903.51290837341
 11
-20896.096387080601
 21
-11903.01290837341
  0
LINE
  5
238
100
AcDbEntity
  8
DIM
  6
CONTINUOUS
 62
             7
100
AcDbLine
 10
-20896.096387080601
 20
-11904.01290837341
 11
-20896.596387080601
 21
-11903.51290837341
  0
LINE
  5
237
100
AcDbEntity
  8
DIM
  6
CONTINUOUS
 62
             7
100
AcDbLine
 10
-20896.596387080601
 20
-11902.51290837341
 11
-20896.096387080601
 21
-11902.01290837341
  0
LINE
  5
236
100
AcDbEntity
  8
DIM
  6
CONTINUOUS
 62
             7
100
AcDbLine
 10
-20896.096387080601
 20
-11903.01290837341
 11
-20896.596387080601
 21
-11902.51290837341
  0
LINE
  5
235
100
AcDbEntity
  8
DIM
  6
CONTINUOUS
 62
             7
100
AcDbLine
 10
-20896.596387080601
 20
-11903.51290837341
 11
-20896.096387080601
 21
-11903.01290837341
  0
LINE
  5
234
100
AcDbEntity
  8
DIM
  6
CONTINUOUS
 62
             7
100
AcDbLine
 10
-20896.096387080601
 20
-11902.01290837341
 11
-20896.596387080601
 21
-11901.51290837341
  0
LINE
  5
233
100
AcDbEntity
  8
DIM
  6
CONTINUOUS
 62
             7
100
AcDbLine
 10
-20896.096387080601
 20
-11902.01290837341
 11
-20896.596387080601
 21
-11901.51290837341
  0
LINE
  5
232
100
AcDbEntity
  8
BASE_HIDDEN
  6
DASHED2
 62
             7
100
AcDbLine
 10
-20893.096387080601
 20
-11891.61290837341
 11
-20892.596387080601
 21
-11891.61290837341
  0
LINE
  5
231
100
AcDbEntity
  8
BASE_HIDDEN
  6
DASHED2
 62
             7
100
AcDbLine
 10
-20893.096387080601
 20
-11892.412908373421
 11
-20892.596387080601
 21
-11892.412908373421
  0
LINE
  5
230
100
AcDbEntity
  8
0
  6
CONTINUOUS
 62
             7
100
AcDbLine
 10
-20894.596387080601
 20
-11908.212908373411
 11
-20894.596387080601
 21
-11943.51457503892
  0
LINE
  5
22F
100
AcDbEntity
  8
DIM
  6
CONTINUOUS
 62
             7
100
AcDbLine
 10
-20896.096387080601
 20
-11905.01290837341
 11
-20896.596387080601
 21
-11904.51290837341
  0
LINE
  5
22E
100
AcDbEntity
  8
DIM
  6
CONTINUOUS
 62
             7
100
AcDbLine
 10
-20896.596387080601
 20
-11905.51290837341
 11
-20896.096387080601
 21
-11905.01290837341
  0
LINE
  5
22D
100
AcDbEntity
  8
DIM
  6
CONTINUOUS
 62
             7
100
AcDbLine
 10
-20896.596387080601
 20
-11907.51290837341
 11
-20896.096387080601
 21
-11907.01290837341
  0
LINE
  5
22C
100
AcDbEntity
  8
DIM
  6
CONTINUOUS
 62
             7
100
AcDbLine
 10
-20896.596387080601
 20
-11908.51290837341
 11
-20896.596387080601
 21
-11907.51290837341
  0
LINE
  5
22B
100
AcDbEntity
  8
DIM
  6
CONTINUOUS
 62
             7
100
AcDbLine
 10
-20893.269737164461
 20
-11909.01290837341
 11
-20892.596387080601
 21
-11909.01290837341
  0
LINE
  5
22A
100
AcDbEntity
  8
DIM
  6
CONTINUOUS
 62
             7
100
AcDbLine
 10
-20896.096387080601
 20
-11909.01290837341
 11
-20896.021167765481
 21
-11909.01290837341
  0
LINE
  5
229
100
AcDbEntity
  8
DIM
  6
CONTINUOUS
 62
             7
100
AcDbLine
 10
-20896.096387080601
 20
-11909.01290837341
 11
-20896.093050035321
 21
-11909.01290837341
  0
LINE
  5
228
100
AcDbEntity
  8
DIM
  6
CONTINUOUS
 62
             7
100
AcDbLine
 10
-20896.596387080601
 20
-11906.51290837341
 11
-20896.096387080601
 21
-11906.01290837341
  0
LINE
  5
227
100
AcDbEntity
  8
DIM
  6
CONTINUOUS
 62
             7
100
AcDbLine
 10
-20896.096387080601
 20
-11907.01290837341
 11
-20896.596387080601
 21
-11906.51290837341
  0
LINE
  5
226
100
AcDbEntity
  8
BASE_HIDDEN
  6
DASHED2
 62
             7
100
AcDbLine
 10
-20893.096387080601
 20
-11910.61290837341
 11
-20892.596387080601
 21
-11910.61290837341
  0
LINE
  5
225
100
AcDbEntity
  8
BASE_HIDDEN
  6
DASHED2
 62
             7
100
AcDbLine
 10
-20893.096387080601
 20
-11911.412908373421
 11
-20892.596387080601
 21
-11911.412908373421
  0
LINE
  5
224
100
AcDbEntity
  8
BASE_HIDDEN
  6
DASHED2
 62
             7
100
AcDbLine
 10
-20893.096387080601
 20
-11913.11290837341
 11
-20892.596387080601
 21
-11913.11290837341
  0
LINE
  5
223
100
AcDbEntity
  8
BASE_HIDDEN
  6
DASHED2
 62
             7
100
AcDbLine
 10
-20893.096387080601
 20
-11913.912908373421
 11
-20892.596387080601
 21
-11913.912908373421
  0
LINE
  5
222
100
AcDbEntity
  8
DIM
  6
CONTINUOUS
 62
             7
100
AcDbLine
 10
-20893.096387080601
 20
-11916.412908373421
 11
-20892.596387080601
 21
-11916.412908373421
  0
LINE
  5
221
100
AcDbEntity
  8
DIM
  6
CONTINUOUS
 62
             7
100
AcDbLine
 10
-20893.096387080601
 20
-11915.61290837341
 11
-20892.596387080601
 21
-11915.61290837341
  0
LINE
  5
220
100
AcDbEntity
  8
DIM
  6
CONTINUOUS
 62
             7
100
AcDbLine
 10
-20892.596387080601
 20
-11915.61290837341
 11
-20892.596387080601
 21
-11916.412908373421
  0
LINE
  5
21F
100
AcDbEntity
  8
DIM
  6
CONTINUOUS
 62
             7
100
AcDbLine
 10
-20893.096387080601
 20
-11917.89040937422
 11
-20893.096387080601
 21
-11909.01290837341
  0
LINE
  5
21E
100
AcDbEntity
  8
0
  6
CONTINUOUS
 62
             7
100
AcDbLine
 10
-20894.596387080601
 20
-11916.184481248671
 11
-20894.596387080601
 21
-11910.01290837341
  0
LINE
  5
21D
100
AcDbEntity
  8
DIM
  6
CONTINUOUS
 62
             7
100
AcDbLine
 10
-20896.096387080601
 20
-11906.01290837341
 11
-20896.596387080601
 21
-11905.51290837341
  0
LINE
  5
21C
100
AcDbEntity
  8
0
  6
CONTINUOUS
 62
             7
100
AcDbLine
 10
-20892.596387080601
 20
-11917.27100272031
 11
-20892.596387080601
 21
-11921.01290837341
  0
LINE
  5
21B
100
AcDbEntity
  8
0
  6
CONTINUOUS
 62
             7
100
AcDbLine
 10
-20892.596387080601
 20
-11887.01290837341
 11
-20892.596387080601
 21
-11915.134534344979
  0
LINE
  5
21A
100
AcDbEntity
  8
DIM
  6
CONTINUOUS
 62
             7
100
AcDbLine
 10
-20892.596387080601
 20
-11889.01290837341
 11
-20892.596387080601
 21
-11919.01290837341
  0
LINE
  5
219
100
AcDbEntity
  8
DIM
  6
CONTINUOUS
 62
             7
100
AcDbLine
 10
-20896.596387080601
 20
-11904.51290837341
 11
-20896.096387080601
 21
-11904.01290837341
  0
LINE
  5
218
100
AcDbEntity
  8
0
  6
CONTINUOUS
 62
             7
100
AcDbLine
 10
-20894.596387080601
 20
-11839.912908373421
 11
-20894.596387080601
 21
-11899.81290837342
  0
LINE
  5
217
100
AcDbEntity
  8
0
  6
CONTINUOUS
 62
             7
100
AcDbLine
 10
-20956.246387080599
 20
-11919.94526719979
 11
-20956.246387080599
 21
-11889.845267199789
  0
LINE
  5
216
100
AcDbEntity
  8
DIM
  6
CONTINUOUS
 62
             7
100
AcDbLine
 10
-20959.1463870806
 20
-11886.94526719979
 11
-20961.246387080599
 21
-11886.94526719979
  0
LINE
  5
215
100
AcDbEntity
  8
DIM
  6
CONTINUOUS
 62
             7
100
AcDbLine
 10
-20962.154987177921
 20
-11902.44526719979
 11
-20962.930137080599
 21
-11902.44526719979
  0
LINE
  5
214
100
AcDbEntity
  8
DIM
  6
CONTINUOUS
 62
             7
100
AcDbLine
 10
-20962.154987177921
 20
-11902.44526719979
 11
-20964.246387080599
 21
-11902.44526719979
  0
LINE
  5
213
100
AcDbEntity
  8
DIM
  6
CONTINUOUS
 62
             7
100
AcDbLine
 10
-20961.749987177929
 20
-11903.44526719979
 11
-20964.246387080599
 21
-11903.44526719979
  0
LINE
  5
212
100
AcDbEntity
  8
DIM
  6
CONTINUOUS
 62
             7
100
AcDbLine
 10
-20958.552628920141
 20
-11901.94526719979
 11
-20961.912317207119
 21
-11901.94526719979
  0
LINE
  5
211
100
AcDbEntity
  8
DIM
  6
CONTINUOUS
 62
             7
100
AcDbLine
 10
-20961.34498717793
 20
-11904.44526719979
 11
-20964.246387080599
 21
-11904.44526719979
  0
LINE
  5
210
100
AcDbEntity
  8
DIM
  6
CONTINUOUS
 62
             7
100
AcDbLine
 10
-20956.746387080599
 20
-11898.94526719979
 11
-20963.746387080599
 21
-11898.94526719979
  0
LINE
  5
20F
100
AcDbEntity
  8
DIM
  6
CONTINUOUS
 62
             7
100
AcDbLine
 10
-20957.530137080608
 20
-11902.44526719979
 11
-20958.309073111021
 21
-11902.44526719979
  0
LINE
  5
20E
100
AcDbEntity
  8
DIM
  6
CONTINUOUS
 62
             7
100
AcDbLine
 10
-20960.939987177921
 20
-11905.44526719979
 11
-20964.246387080599
 21
-11905.44526719979
  0
LINE
  5
20D
100
AcDbEntity
  8
DIM
  6
CONTINUOUS
 62
             7
100
AcDbLine
 10
-20956.746387080599
 20
-11908.94526719979
 11
-20963.746387080599
 21
-11908.94526719979
  0
LINE
  5
20C
100
AcDbEntity
  8
DIM
  6
CONTINUOUS
 62
             7
100
AcDbLine
 10
-20960.534987177929
 20
-11906.44526719979
 11
-20964.246387080599
 21
-11906.44526719979
  0
LINE
  5
20B
100
AcDbEntity
  8
DIM
  6
CONTINUOUS
 62
             7
100
AcDbLine
 10
-20962.19037822025
 20
-11902.3578819101
 11
-20960.489536024968
 21
-11906.55749226883
  0
LINE
  5
20A
100
AcDbEntity
  8
DIM
  6
CONTINUOUS
 62
             7
100
AcDbLine
 10
-20959.932453529502
 20
-11906.55509104404
 11
-20958.273607437801
 21
-11902.35548068531
  0
LINE
  5
209
100
AcDbEntity
  8
DIM
  6
CONTINUOUS
 62
             7
100
AcDbLine
 10
-20959.246387080599
 20
-11922.94526719979
 11
-20961.246387080599
 21
-11922.94526719979
  0
LINE
  5
208
100
AcDbEntity
  8
DIM
  6
CONTINUOUS
 62
             7
100
AcDbLine
 10
-20959.1463870806
 20
-11920.94526719979
 11
-20961.246387080599
 21
-11920.94526719979
  0
LINE
  5
207
100
AcDbEntity
  8
0
  6
CONTINUOUS
 62
             7
100
AcDbLine
 10
-20964.246387080599
 20
-11919.94526719979
 11
-20964.246387080599
 21
-11889.94526719979
  0
LINE
  5
206
100
AcDbEntity
  8
DIM
  6
CONTINUOUS
 62
             7
100
AcDbLine
 10
-20956.246387080599
 20
-11900.44526719979
 11
-20964.246387080599
 21
-11900.44526719979
  0
LINE
  5
205
100
AcDbEntity
  8
DIM
  6
CONTINUOUS
 62
             7
100
AcDbLine
 10
-20956.246387080599
 20
-11902.44526719979
 11
-20958.309073111021
 21
-11902.44526719979
  0
LINE
  5
204
100
AcDbEntity
  8
DIM
  6
CONTINUOUS
 62
             7
100
AcDbLine
 10
-20956.246387080599
 20
-11904.44526719979
 11
-20959.099073111021
 21
-11904.44526719979
  0
LINE
  5
203
100
AcDbEntity
  8
DIM
  6
CONTINUOUS
 62
             7
100
AcDbLine
 10
-20956.246387080599
 20
-11903.44526719979
 11
-20958.704073111021
 21
-11903.44526719979
  0
LINE
  5
202
100
AcDbEntity
  8
DIM
  6
CONTINUOUS
 62
             7
100
AcDbLine
 10
-20956.246387080599
 20
-11901.44526719979
 11
-20964.246387080599
 21
-11901.44526719979
  0
LINE
  5
201
100
AcDbEntity
  8
DIM
  6
CONTINUOUS
 62
             7
100
AcDbLine
 10
-20956.246387080599
 20
-11905.44526719979
 11
-20959.494073111018
 21
-11905.44526719979
  0
LINE
  5
200
100
AcDbEntity
  8
DIM
  6
CONTINUOUS
 62
             7
100
AcDbLine
 10
-20956.246387080599
 20
-11907.44526719979
 11
-20964.246387080599
 21
-11907.44526719979
  0
LINE
  5
1FF
100
AcDbEntity
  8
DIM
  6
CONTINUOUS
 62
             7
100
AcDbLine
 10
-20956.246387080599
 20
-11906.44526719979
 11
-20959.889073111019
 21
-11906.44526719979
  0
LINE
  5
1FE
100
AcDbEntity
  8
0
  6
CONTINUOUS
 62
             7
100
AcDbLine
 10
-20969.096387080601
 20
-11948.94526719979
 11
-20969.096387080601
 21
-11970.94526719979
  0
LINE
  5
1FD
100
AcDbEntity
  8
DIM
  6
CONTINUOUS
 62
             7
100
AcDbLine
 10
-20966.73413885061
 20
-11937.92351889989
 11
-20966.73413885061
 21
-11933.63531479049
  0
LINE
  5
1FC
100
AcDbEntity
  8
DIM
  6
CONTINUOUS
 62
             7
100
AcDbLine
 10
-20966.23413885061
 20
-11937.92351889989
 11
-20966.23413885061
 21
-11933.63531479049
  0
LINE
  5
1FB
100
AcDbEntity
  8
DIM
  6
CONTINUOUS
 62
             7
100
AcDbLine
 10
-20954.596387080601
 20
-11948.94526719979
 11
-20964.28053837784
 21
-11942.50276009472
  0
LINE
  5
1FA
100
AcDbEntity
  8
DIM
  6
CONTINUOUS
 62
             7
100
AcDbLine
 10
-20954.596387080601
 20
-11948.34473102294
 11
-20964.00359296627
 21
-11942.08646544065
  0
LINE
  5
1F9
100
AcDbEntity
  8
DIM
  6
CONTINUOUS
 62
             7
100
AcDbLine
 10
-20954.596387080601
 20
-11931.44526719979
 11
-20958.245940195578
 21
-11929.01735471145
  0
LINE
  5
1F8
100
AcDbEntity
  8
DIM
  6
CONTINUOUS
 62
             7
100
AcDbLine
 10
-20954.596387080601
 20
-11932.04580337663
 11
-20958.46468473494
 21
-11929.47236824973
  0
LINE
  5
1F7
100
AcDbEntity
  8
0
  6
CONTINUOUS
 62
             7
100
AcDbLine
 10
-20954.596387080601
 20
-11832.94526719979
 11
-20954.596387080601
 21
-11974.94526719979
  0
LINE
  5
1F6
100
AcDbEntity
  8
0
  6
CONTINUOUS
 62
             7
100
AcDbLine
 10
-20969.096387080601
 20
-11840.845267199789
 11
-20969.096387080601
 21
-11940.707891061171
  0
LINE
  5
1F5
100
AcDbEntity
  8
0
  6
CONTINUOUS
 62
             7
100
AcDbLine
 10
-20968.096387080601
 20
-11840.845267199789
 11
-20968.096387080601
 21
-11940.707891061171
  0
LINE
  5
1F4
100
AcDbEntity
  8
DIM
  6
CONTINUOUS
 62
             7
100
AcDbLine
 10
-20977.096387080601
 20
-11849.245267199791
 11
-20977.096387080601
 21
-11939.44526719979
  0
LINE
  5
1F3
100
AcDbEntity
  8
DIM
  6
CONTINUOUS
 62
             7
100
AcDbLine
 10
-21096.096387080601
 20
-11849.245267199791
 11
-21096.096387080601
 21
-11939.44526719979
  0
LINE
  5
1F2
100
AcDbEntity
  8
DIM
  6
CONTINUOUS
 62
             7
100
AcDbLine
 10
-21096.096387080601
 20
-11849.245267199791
 11
-20977.096387080601
 21
-11849.245267199791
  0
LINE
  5
1F1
100
AcDbEntity
  8
DIM
  6
CONTINUOUS
 62
             7
100
AcDbLine
 10
-21096.096387080601
 20
-11939.44526719979
 11
-20977.096387080601
 21
-11939.44526719979
  0
LINE
  5
1F0
100
AcDbEntity
  8
0
  6
CONTINUOUS
 62
             7
100
AcDbLine
 10
-21110.096387080601
 20
-11835.44526719979
 11
-21114.596387080601
 21
-11835.44526719979
  0
LINE
  5
1EF
100
AcDbEntity
  8
0
  6
CONTINUOUS
 62
             7
100
AcDbLine
 10
-21110.096387080601
 20
-11836.94526719979
 11
-21114.596387080601
 21
-11836.94526719979
  0
LINE
  5
1EE
100
AcDbEntity
  8
0
  6
CONTINUOUS
 62
             7
100
AcDbLine
 10
-21109.3963870806
 20
-11838.44526719979
 11
-21114.596387080601
 21
-11838.44526719979
  0
LINE
  5
1ED
100
AcDbEntity
  8
DIM
  6
CONTINUOUS
 62
             7
100
AcDbLine
 10
-21110.096387080601
 20
-11835.44526719979
 11
-21109.3963870806
 21
-11835.44526719979
  0
LINE
  5
1EC
100
AcDbEntity
  8
0
  6
CONTINUOUS
 62
             7
100
AcDbLine
 10
-21109.3963870806
 20
-11831.94526719979
 11
-21109.3963870806
 21
-11838.44526719979
  0
LINE
  5
1EB
100
AcDbEntity
  8
0
  6
CONTINUOUS
 62
             7
100
AcDbLine
 10
-21109.3963870806
 20
-11972.44526719979
 11
-21114.596387080601
 21
-11972.44526719979
  0
LINE
  5
1EA
100
AcDbEntity
  8
0
  6
CONTINUOUS
 62
             7
100
AcDbLine
 10
-21104.096387080601
 20
-11948.94526719979
 11
-21104.096387080601
 21
-11970.94526719979
  0
LINE
  5
1E9
100
AcDbEntity
  8
0
  6
CONTINUOUS
 62
             7
100
AcDbLine
 10
-21109.3963870806
 20
-11972.44526719979
 11
-21109.3963870806
 21
-11975.94526719979
  0
LINE
  5
1E8
100
AcDbEntity
  8
0
  6
CONTINUOUS
 62
             7
100
AcDbLine
 10
-21104.096387080601
 20
-11840.845267199789
 11
-21104.096387080601
 21
-11940.707891061171
  0
LINE
  5
1E7
100
AcDbEntity
  8
0
  6
CONTINUOUS
 62
             7
100
AcDbLine
 10
-21105.096387080601
 20
-11840.845267199789
 11
-21105.096387080601
 21
-11940.707891061171
  0
LINE
  5
1E6
100
AcDbEntity
  8
0
  6
CONTINUOUS
 62
             7
100
AcDbLine
 10
-21114.596387080601
 20
-11835.44526719979
 11
-21114.596387080601
 21
-11972.44526719979
  0
LINE
  5
1E5
100
AcDbEntity
  8
0
  6
CONTINUOUS
 62
             7
100
AcDbLine
 10
-20969.596387080601
 20
-11831.94526719979
 11
-21103.596387080601
 21
-11831.94526719979
  0
LINE
  5
1E4
100
AcDbEntity
  8
0
  6
CONTINUOUS
 62
             7
100
AcDbLine
 10
-20972.096387080601
 20
-11837.845267199789
 11
-21101.096387080601
 21
-11837.845267199789
  0
LINE
  5
1E3
100
AcDbEntity
  8
0
  6
CONTINUOUS
 62
             7
100
AcDbLine
 10
-20972.096387080601
 20
-11836.845267199789
 11
-21101.096387080601
 21
-11836.845267199789
  0
LINE
  5
1E2
100
AcDbEntity
  8
0
  6
CONTINUOUS
 62
             7
100
AcDbLine
 10
-20955.596387080601
 20
-11831.94526719979
 11
-21109.3963870806
 21
-11831.94526719979
  0
LINE
  5
1E1
100
AcDbEntity
  8
0
  6
CONTINUOUS
 62
             7
100
AcDbLine
 10
-20970.096387080601
 20
-11947.94526719979
 11
-21103.096387080601
 21
-11947.94526719979
  0
LINE
  5
1E0
100
AcDbEntity
  8
0
  6
CONTINUOUS
 62
             7
100
AcDbLine
 10
-20970.096387080601
 20
-11971.94526719979
 11
-21103.096387080601
 21
-11971.94526719979
  0
LINE
  5
1DF
100
AcDbEntity
  8
0
  6
CONTINUOUS
 62
             7
100
AcDbLine
 10
-20955.596387080601
 20
-11975.94526719979
 11
-21109.3963870806
 21
-11975.94526719979
  0
LINE
  5
1DE
100
AcDbEntity
  8
DIM
  6
CONTINUOUS
 62
             7
100
AcDbLine
 10
-20735.971987790381
 20
-11952.19526719979
 11
-20735.971987790381
 21
-11927.69526719979
  0
LINE
  5
1DD
100
AcDbEntity
  8
DIM
  6
CONTINUOUS
 62
             7
100
AcDbLine
 10
-20785.971987790381
 20
-11952.19526719979
 11
-20785.971987790381
 21
-11927.69526719979
  0
LINE
  5
1DC
100
AcDbEntity
  8
DIM
  6
CONTINUOUS
 62
             7
100
AcDbLine
 10
-20785.971987790381
 20
-11952.19526719979
 11
-20735.971987790381
 21
-11952.19526719979
  0
LINE
  5
1DB
100
AcDbEntity
  8
DIM
  6
CONTINUOUS
 62
             7
100
AcDbLine
 10
-20785.971987790381
 20
-11927.69526719979
 11
-20735.971987790381
 21
-11927.69526719979
  0
LINE
  5
1DA
100
AcDbEntity
  8
DIM
  6
CONTINUOUS
 62
             7
100
AcDbLine
 10
-20729.971987790381
 20
-11895.17026719979
 11
-20729.971987790381
 21
-11901.290267199791
  0
LINE
  5
1D9
100
AcDbEntity
  8
DIM
  6
CONTINUOUS
 62
             7
100
AcDbLine
 10
-20728.971987790381
 20
-11895.17026719979
 11
-20728.971987790381
 21
-11901.290267199791
  0
LINE
  5
1D8
100
AcDbEntity
  8
DIM
  6
CONTINUOUS
 62
             7
100
AcDbLine
 10
-20728.971987790381
 20
-11902.790267199791
 11
-20728.971987790381
 21
-11908.91026719979
  0
LINE
  5
1D7
100
AcDbEntity
  8
DIM
  6
CONTINUOUS
 62
             7
100
AcDbLine
 10
-20729.971987790381
 20
-11902.790267199791
 11
-20729.971987790381
 21
-11908.91026719979
  0
LINE
  5
1D6
100
AcDbEntity
  8
DIM
  6
CONTINUOUS
 62
             7
100
AcDbLine
 10
-20730.971987790381
 20
-11901.290267199791
 11
-20724.471987790381
 21
-11901.290267199791
  0
LINE
  5
1D5
100
AcDbEntity
  8
DIM
  6
CONTINUOUS
 62
             7
100
AcDbLine
 10
-20730.971987790381
 20
-11902.790267199791
 11
-20724.471987790381
 21
-11902.790267199791
  0
LINE
  5
1D4
100
AcDbEntity
  8
DIM
  6
CONTINUOUS
 62
             7
100
AcDbLine
 10
-20730.971987790381
 20
-11910.41026719979
 11
-20724.471987790381
 21
-11910.41026719979
  0
LINE
  5
1D3
100
AcDbEntity
  8
DIM
  6
CONTINUOUS
 62
             7
100
AcDbLine
 10
-20730.971987790381
 20
-11908.91026719979
 11
-20724.471987790381
 21
-11908.91026719979
  0
LINE
  5
1D2
100
AcDbEntity
  8
DIM
  6
CONTINUOUS
 62
             7
100
AcDbLine
 10
-20729.971987790381
 20
-11910.41026719979
 11
-20729.971987790381
 21
-11916.530267199791
  0
LINE
  5
1D1
100
AcDbEntity
  8
DIM
  6
CONTINUOUS
 62
             7
100
AcDbLine
 10
-20728.971987790381
 20
-11910.41026719979
 11
-20728.971987790381
 21
-11916.530267199791
  0
LINE
  5
1D0
100
AcDbEntity
  8
0
  6
CONTINUOUS
 62
             7
100
AcDbLine
 10
-20729.971987790381
 20
-11964.290267199791
 11
-20729.971987790381
 21
-11970.69526719979
  0
LINE
  5
1CF
100
AcDbEntity
  8
DIM
  6
CONTINUOUS
 62
             7
100
AcDbLine
 10
-20730.971987790381
 20
-11843.60026719979
 11
-20728.971987790381
 21
-11843.60026719979
  0
LINE
  5
1CE
100
AcDbEntity
  8
DIM
  6
CONTINUOUS
 62
             7
100
AcDbLine
 10
-20713.471987790381
 20
-11841.60026719979
 11
-20713.471987790381
 21
-11843.60026719979
  0
LINE
  5
1CD
100
AcDbEntity
  8
DIM
  6
CONTINUOUS
 62
             7
100
AcDbLine
 10
-20716.471987790381
 20
-11843.60026719979
 11
-20713.471987790381
 21
-11843.60026719979
  0
LINE
  5
1CC
100
AcDbEntity
  8
DIM
  6
CONTINUOUS
 62
             7
100
AcDbLine
 10
-20728.971987790381
 20
-11843.60026719979
 11
-20725.996620939401
 21
-11841.60026719979
  0
LINE
  5
1CB
100
AcDbEntity
  8
DIM
  6
CONTINUOUS
 62
             7
100
AcDbLine
 10
-20730.971987790381
 20
-11845.640267199789
 11
-20716.471987790381
 21
-11845.640267199789
  0
LINE
  5
1CA
100
AcDbEntity
  8
DIM
  6
CONTINUOUS
 62
             7
100
AcDbLine
 10
-20725.996620939401
 20
-11841.60026719979
 11
-20713.471987790381
 21
-11841.60026719979
  0
LINE
  5
1C9
100
AcDbEntity
  8
DIM
  6
CONTINUOUS
 62
             7
100
AcDbLine
 10
-20720.971987790381
 20
-11860.880267199789
 11
-20720.971987790381
 21
-11867.00026719979
  0
LINE
  5
1C8
100
AcDbEntity
  8
DIM
  6
CONTINUOUS
 62
             7
100
AcDbLine
 10
-20720.971987790381
 20
-11853.26026719979
 11
-20720.971987790381
 21
-11859.380267199789
  0
LINE
  5
1C7
100
AcDbEntity
  8
DIM
  6
CONTINUOUS
 62
             7
100
AcDbLine
 10
-20720.971987790381
 20
-11876.120267199791
 11
-20720.971987790381
 21
-11882.24026719979
  0
LINE
  5
1C6
100
AcDbEntity
  8
DIM
  6
CONTINUOUS
 62
             7
100
AcDbLine
 10
-20720.971987790381
 20
-11883.74026719979
 11
-20720.971987790381
 21
-11889.860267199791
  0
LINE
  5
1C5
100
AcDbEntity
  8
DIM
  6
CONTINUOUS
 62
             7
100
AcDbLine
 10
-20720.971987790381
 20
-11868.50026719979
 11
-20720.971987790381
 21
-11874.620267199791
  0
LINE
  5
1C4
100
AcDbEntity
  8
DIM
  6
CONTINUOUS
 62
             7
100
AcDbLine
 10
-20730.971987790381
 20
-11849.450267199791
 11
-20724.471987790381
 21
-11849.450267199791
  0
LINE
  5
1C3
100
AcDbEntity
  8
DIM
  6
CONTINUOUS
 62
             7
100
AcDbLine
 10
-20730.971987790381
 20
-11847.950267199791
 11
-20724.471987790381
 21
-11847.950267199791
  0
LINE
  5
1C2
100
AcDbEntity
  8
DIM
  6
CONTINUOUS
 62
             7
100
AcDbLine
 10
-20730.971987790381
 20
-11855.57026719979
 11
-20724.471987790381
 21
-11855.57026719979
  0
LINE
  5
1C1
100
AcDbEntity
  8
DIM
  6
CONTINUOUS
 62
             7
100
AcDbLine
 10
-20730.971987790381
 20
-11857.07026719979
 11
-20724.471987790381
 21
-11857.07026719979
  0
LINE
  5
1C0
100
AcDbEntity
  8
DIM
  6
CONTINUOUS
 62
             7
100
AcDbLine
 10
-20730.971987790381
 20
-11863.19026719979
 11
-20724.471987790381
 21
-11863.19026719979
  0
LINE
  5
1BF
100
AcDbEntity
  8
DIM
  6
CONTINUOUS
 62
             7
100
AcDbLine
 10
-20730.971987790381
 20
-11864.69026719979
 11
-20724.471987790381
 21
-11864.69026719979
  0
LINE
  5
1BE
100
AcDbEntity
  8
DIM
  6
CONTINUOUS
 62
             7
100
AcDbLine
 10
-20721.971987790381
 20
-11860.880267199789
 11
-20721.971987790381
 21
-11867.00026719979
  0
LINE
  5
1BD
100
AcDbEntity
  8
DIM
  6
CONTINUOUS
 62
             7
100
AcDbLine
 10
-20721.971987790381
 20
-11853.26026719979
 11
-20721.971987790381
 21
-11859.380267199789
  0
LINE
  5
1BC
100
AcDbEntity
  8
DIM
  6
CONTINUOUS
 62
             7
100
AcDbLine
 10
-20728.971987790381
 20
-11857.07026719979
 11
-20728.971987790381
 21
-11863.19026719979
  0
LINE
  5
1BB
100
AcDbEntity
  8
DIM
  6
CONTINUOUS
 62
             7
100
AcDbLine
 10
-20729.971987790381
 20
-11857.07026719979
 11
-20729.971987790381
 21
-11863.19026719979
  0
LINE
  5
1BA
100
AcDbEntity
  8
DIM
  6
CONTINUOUS
 62
             7
100
AcDbLine
 10
-20729.971987790381
 20
-11849.450267199791
 11
-20729.971987790381
 21
-11855.57026719979
  0
LINE
  5
1B9
100
AcDbEntity
  8
DIM
  6
CONTINUOUS
 62
             7
100
AcDbLine
 10
-20728.971987790381
 20
-11849.450267199791
 11
-20728.971987790381
 21
-11855.57026719979
  0
LINE
  5
1B8
100
AcDbEntity
  8
DIM
  6
CONTINUOUS
 62
             7
100
AcDbLine
 10
-20730.971987790381
 20
-11870.810267199789
 11
-20724.471987790381
 21
-11870.810267199789
  0
LINE
  5
1B7
100
AcDbEntity
  8
DIM
  6
CONTINUOUS
 62
             7
100
AcDbLine
 10
-20730.971987790381
 20
-11872.310267199789
 11
-20724.471987790381
 21
-11872.310267199789
  0
LINE
  5
1B6
100
AcDbEntity
  8
DIM
  6
CONTINUOUS
 62
             7
100
AcDbLine
 10
-20730.971987790381
 20
-11879.93026719979
 11
-20724.471987790381
 21
-11879.93026719979
  0
LINE
  5
1B5
100
AcDbEntity
  8
DIM
  6
CONTINUOUS
 62
             7
100
AcDbLine
 10
-20730.971987790381
 20
-11878.43026719979
 11
-20724.471987790381
 21
-11878.43026719979
  0
LINE
  5
1B4
100
AcDbEntity
  8
DIM
  6
CONTINUOUS
 62
             7
100
AcDbLine
 10
-20730.971987790381
 20
-11886.050267199789
 11
-20724.471987790381
 21
-11886.050267199789
  0
LINE
  5
1B3
100
AcDbEntity
  8
DIM
  6
CONTINUOUS
 62
             7
100
AcDbLine
 10
-20728.971987790381
 20
-11879.93026719979
 11
-20728.971987790381
 21
-11886.050267199789
  0
LINE
  5
1B2
100
AcDbEntity
  8
DIM
  6
CONTINUOUS
 62
             7
100
AcDbLine
 10
-20729.971987790381
 20
-11879.93026719979
 11
-20729.971987790381
 21
-11886.050267199789
  0
LINE
  5
1B1
100
AcDbEntity
  8
DIM
  6
CONTINUOUS
 62
             7
100
AcDbLine
 10
-20728.971987790381
 20
-11872.310267199789
 11
-20728.971987790381
 21
-11878.43026719979
  0
LINE
  5
1B0
100
AcDbEntity
  8
DIM
  6
CONTINUOUS
 62
             7
100
AcDbLine
 10
-20729.971987790381
 20
-11872.310267199789
 11
-20729.971987790381
 21
-11878.43026719979
  0
LINE
  5
1AF
100
AcDbEntity
  8
DIM
  6
CONTINUOUS
 62
             7
100
AcDbLine
 10
-20721.971987790381
 20
-11876.120267199791
 11
-20721.971987790381
 21
-11882.24026719979
  0
LINE
  5
1AE
100
AcDbEntity
  8
DIM
  6
CONTINUOUS
 62
             7
100
AcDbLine
 10
-20730.971987790381
 20
-11887.550267199789
 11
-20724.471987790381
 21
-11887.550267199789
  0
LINE
  5
1AD
100
AcDbEntity
  8
DIM
  6
CONTINUOUS
 62
             7
100
AcDbLine
 10
-20730.971987790381
 20
-11893.67026719979
 11
-20724.471987790381
 21
-11893.67026719979
  0
LINE
  5
1AC
100
AcDbEntity
  8
DIM
  6
CONTINUOUS
 62
             7
100
AcDbLine
 10
-20729.971987790381
 20
-11887.550267199789
 11
-20729.971987790381
 21
-11893.67026719979
  0
LINE
  5
1AB
100
AcDbEntity
  8
DIM
  6
CONTINUOUS
 62
             7
100
AcDbLine
 10
-20728.971987790381
 20
-11887.550267199789
 11
-20728.971987790381
 21
-11893.67026719979
  0
LINE
  5
1AA
100
AcDbEntity
  8
DIM
  6
CONTINUOUS
 62
             7
100
AcDbLine
 10
-20721.971987790381
 20
-11883.74026719979
 11
-20721.971987790381
 21
-11889.860267199791
  0
LINE
  5
1A9
100
AcDbEntity
  8
DIM
  6
CONTINUOUS
 62
             7
100
AcDbLine
 10
-20729.971987790381
 20
-11864.69026719979
 11
-20729.971987790381
 21
-11870.810267199789
  0
LINE
  5
1A8
100
AcDbEntity
  8
DIM
  6
CONTINUOUS
 62
             7
100
AcDbLine
 10
-20728.971987790381
 20
-11864.69026719979
 11
-20728.971987790381
 21
-11870.810267199789
  0
LINE
  5
1A7
100
AcDbEntity
  8
DIM
  6
CONTINUOUS
 62
             7
100
AcDbLine
 10
-20721.971987790381
 20
-11868.50026719979
 11
-20721.971987790381
 21
-11874.620267199791
  0
LINE
  5
1A6
100
AcDbEntity
  8
DIM
  6
CONTINUOUS
 62
             7
100
AcDbLine
 10
-20721.971987790381
 20
-11853.26026719979
 11
-20716.471987790381
 21
-11853.26026719979
  0
LINE
  5
1A5
100
AcDbEntity
  8
DIM
  6
CONTINUOUS
 62
             7
100
AcDbLine
 10
-20721.971987790381
 20
-11851.76026719979
 11
-20716.471987790381
 21
-11851.76026719979
  0
LINE
  5
1A4
100
AcDbEntity
  8
DIM
  6
CONTINUOUS
 62
             7
100
AcDbLine
 10
-20721.971987790381
 20
-11867.00026719979
 11
-20716.471987790381
 21
-11867.00026719979
  0
LINE
  5
1A3
100
AcDbEntity
  8
DIM
  6
CONTINUOUS
 62
             7
100
AcDbLine
 10
-20721.971987790381
 20
-11868.50026719979
 11
-20716.471987790381
 21
-11868.50026719979
  0
LINE
  5
1A2
100
AcDbEntity
  8
DIM
  6
CONTINUOUS
 62
             7
100
AcDbLine
 10
-20721.971987790381
 20
-11860.880267199789
 11
-20716.471987790381
 21
-11860.880267199789
  0
LINE
  5
1A1
100
AcDbEntity
  8
DIM
  6
CONTINUOUS
 62
             7
100
AcDbLine
 10
-20721.971987790381
 20
-11859.380267199789
 11
-20716.471987790381
 21
-11859.380267199789
  0
LINE
  5
1A0
100
AcDbEntity
  8
DIM
  6
CONTINUOUS
 62
             7
100
AcDbLine
 10
-20721.971987790381
 20
-11876.120267199791
 11
-20716.471987790381
 21
-11876.120267199791
  0
LINE
  5
19F
100
AcDbEntity
  8
DIM
  6
CONTINUOUS
 62
             7
100
AcDbLine
 10
-20721.971987790381
 20
-11874.620267199791
 11
-20716.471987790381
 21
-11874.620267199791
  0
LINE
  5
19E
100
AcDbEntity
  8
DIM
  6
CONTINUOUS
 62
             7
100
AcDbLine
 10
-20721.971987790381
 20
-11883.74026719979
 11
-20716.471987790381
 21
-11883.74026719979
  0
LINE
  5
19D
100
AcDbEntity
  8
DIM
  6
CONTINUOUS
 62
             7
100
AcDbLine
 10
-20721.971987790381
 20
-11882.24026719979
 11
-20716.471987790381
 21
-11882.24026719979
  0
LINE
  5
19C
100
AcDbEntity
  8
DIM
  6
CONTINUOUS
 62
             7
100
AcDbLine
 10
-20721.971987790381
 20
-11891.360267199791
 11
-20716.47198779037
 21
-11891.360267199791
  0
LINE
  5
19B
100
AcDbEntity
  8
DIM
  6
CONTINUOUS
 62
             7
100
AcDbLine
 10
-20721.971987790381
 20
-11889.860267199791
 11
-20716.471987790381
 21
-11889.860267199791
  0
LINE
  5
19A
100
AcDbEntity
  8
DIM
  6
CONTINUOUS
 62
             7
100
AcDbLine
 10
-20720.971987790381
 20
-11898.98026719979
 11
-20720.971987790381
 21
-11905.10026719979
  0
LINE
  5
199
100
AcDbEntity
  8
DIM
  6
CONTINUOUS
 62
             7
100
AcDbLine
 10
-20720.971987790381
 20
-11906.60026719979
 11
-20720.971987790381
 21
-11912.720267199789
  0
LINE
  5
198
100
AcDbEntity
  8
DIM
  6
CONTINUOUS
 62
             7
100
AcDbLine
 10
-20720.971987790381
 20
-11914.220267199789
 11
-20720.971987790381
 21
-11920.34026719979
  0
LINE
  5
197
100
AcDbEntity
  8
DIM
  6
CONTINUOUS
 62
             7
100
AcDbLine
 10
-20720.971987790381
 20
-11929.460267199791
 11
-20720.971987790381
 21
-11935.58026719979
  0
LINE
  5
196
100
AcDbEntity
  8
DIM
  6
CONTINUOUS
 62
             7
100
AcDbLine
 10
-20720.971987790381
 20
-11921.84026719979
 11
-20720.971987790381
 21
-11927.960267199791
  0
LINE
  5
195
100
AcDbEntity
  8
DIM
  6
CONTINUOUS
 62
             7
100
AcDbLine
 10
-20730.971987790381
 20
-11895.17026719979
 11
-20724.471987790381
 21
-11895.17026719979
  0
LINE
  5
194
100
AcDbEntity
  8
DIM
  6
CONTINUOUS
 62
             7
100
AcDbLine
 10
-20721.971987790381
 20
-11898.98026719979
 11
-20721.971987790381
 21
-11905.10026719979
  0
LINE
  5
193
100
AcDbEntity
  8
DIM
  6
CONTINUOUS
 62
             7
100
AcDbLine
 10
-20721.971987790381
 20
-11906.60026719979
 11
-20721.971987790381
 21
-11912.720267199789
  0
LINE
  5
192
100
AcDbEntity
  8
DIM
  6
CONTINUOUS
 62
             7
100
AcDbLine
 10
-20730.971987790381
 20
-11918.030267199791
 11
-20724.471987790381
 21
-11918.030267199791
  0
LINE
  5
191
100
AcDbEntity
  8
DIM
  6
CONTINUOUS
 62
             7
100
AcDbLine
 10
-20730.971987790381
 20
-11916.530267199791
 11
-20724.471987790381
 21
-11916.530267199791
  0
LINE
  5
190
100
AcDbEntity
  8
DIM
  6
CONTINUOUS
 62
             7
100
AcDbLine
 10
-20730.971987790381
 20
-11924.15026719979
 11
-20724.471987790381
 21
-11924.15026719979
  0
LINE
  5
18F
100
AcDbEntity
  8
DIM
  6
CONTINUOUS
 62
             7
100
AcDbLine
 10
-20728.971987790381
 20
-11918.030267199791
 11
-20728.971987790381
 21
-11924.15026719979
  0
LINE
  5
18E
100
AcDbEntity
  8
DIM
  6
CONTINUOUS
 62
             7
100
AcDbLine
 10
-20729.971987790381
 20
-11918.030267199791
 11
-20729.971987790381
 21
-11924.15026719979
  0
LINE
  5
18D
100
AcDbEntity
  8
DIM
  6
CONTINUOUS
 62
             7
100
AcDbLine
 10
-20721.971987790381
 20
-11914.220267199789
 11
-20721.971987790381
 21
-11920.34026719979
  0
LINE
  5
18C
100
AcDbEntity
  8
DIM
  6
CONTINUOUS
 62
             7
100
AcDbLine
 10
-20730.971987790381
 20
-11925.65026719979
 11
-20724.471987790381
 21
-11925.65026719979
  0
LINE
  5
18B
100
AcDbEntity
  8
DIM
  6
CONTINUOUS
 62
             7
100
AcDbLine
 10
-20730.971987790381
 20
-11933.27026719979
 11
-20724.471987790381
 21
-11933.27026719979
  0
LINE
  5
18A
100
AcDbEntity
  8
DIM
  6
CONTINUOUS
 62
             7
100
AcDbLine
 10
-20730.971987790381
 20
-11931.77026719979
 11
-20724.471987790381
 21
-11931.77026719979
  0
LINE
  5
189
100
AcDbEntity
  8
DIM
  6
CONTINUOUS
 62
             7
100
AcDbLine
 10
-20728.971987790381
 20
-11925.65026719979
 11
-20728.971987790381
 21
-11931.77026719979
  0
LINE
  5
188
100
AcDbEntity
  8
DIM
  6
CONTINUOUS
 62
             7
100
AcDbLine
 10
-20729.971987790381
 20
-11925.65026719979
 11
-20729.971987790381
 21
-11931.77026719979
  0
LINE
  5
187
100
AcDbEntity
  8
DIM
  6
CONTINUOUS
 62
             7
100
AcDbLine
 10
-20730.971987790381
 20
-11940.890267199789
 11
-20724.47198779037
 21
-11940.890267199789
  0
LINE
  5
186
100
AcDbEntity
  8
DIM
  6
CONTINUOUS
 62
             7
100
AcDbLine
 10
-20730.971987790381
 20
-11939.390267199789
 11
-20724.471987790381
 21
-11939.390267199789
  0
LINE
  5
185
100
AcDbEntity
  8
DIM
  6
CONTINUOUS
 62
             7
100
AcDbLine
 10
-20728.971987790381
 20
-11933.27026719979
 11
-20728.971987790381
 21
-11939.390267199789
  0
LINE
  5
184
100
AcDbEntity
  8
DIM
  6
CONTINUOUS
 62
             7
100
AcDbLine
 10
-20729.971987790381
 20
-11933.27026719979
 11
-20729.971987790381
 21
-11939.390267199789
  0
LINE
  5
183
100
AcDbEntity
  8
DIM
  6
CONTINUOUS
 62
             7
100
AcDbLine
 10
-20721.971987790381
 20
-11929.460267199791
 11
-20721.971987790381
 21
-11935.58026719979
  0
LINE
  5
182
100
AcDbEntity
  8
DIM
  6
CONTINUOUS
 62
             7
100
AcDbLine
 10
-20721.971987790381
 20
-11921.84026719979
 11
-20721.971987790381
 21
-11927.960267199791
  0
LINE
  5
181
100
AcDbEntity
  8
DIM
  6
CONTINUOUS
 62
             7
100
AcDbLine
 10
-20721.971987790381
 20
-11905.10026719979
 11
-20716.471987790381
 21
-11905.10026719979
  0
LINE
  5
180
100
AcDbEntity
  8
DIM
  6
CONTINUOUS
 62
             7
100
AcDbLine
 10
-20721.971987790381
 20
-11898.98026719979
 11
-20716.471987790381
 21
-11898.98026719979
  0
LINE
  5
17F
100
AcDbEntity
  8
DIM
  6
CONTINUOUS
 62
             7
100
AcDbLine
 10
-20721.971987790381
 20
-11897.48026719979
 11
-20716.47198779037
 21
-11897.48026719979
  0
LINE
  5
17E
100
AcDbEntity
  8
DIM
  6
CONTINUOUS
 62
             7
100
AcDbLine
 10
-20721.971987790381
 20
-11914.220267199789
 11
-20716.471987790381
 21
-11914.220267199789
  0
LINE
  5
17D
100
AcDbEntity
  8
DIM
  6
CONTINUOUS
 62
             7
100
AcDbLine
 10
-20721.971987790381
 20
-11912.720267199789
 11
-20716.47198779037
 21
-11912.720267199789
  0
LINE
  5
17C
100
AcDbEntity
  8
DIM
  6
CONTINUOUS
 62
             7
100
AcDbLine
 10
-20721.971987790381
 20
-11906.60026719979
 11
-20716.47198779037
 21
-11906.60026719979
  0
LINE
  5
17B
100
AcDbEntity
  8
DIM
  6
CONTINUOUS
 62
             7
100
AcDbLine
 10
-20721.971987790381
 20
-11921.84026719979
 11
-20716.47198779037
 21
-11921.84026719979
  0
LINE
  5
17A
100
AcDbEntity
  8
DIM
  6
CONTINUOUS
 62
             7
100
AcDbLine
 10
-20721.971987790381
 20
-11920.34026719979
 11
-20716.471987790381
 21
-11920.34026719979
  0
LINE
  5
179
100
AcDbEntity
  8
DIM
  6
CONTINUOUS
 62
             7
100
AcDbLine
 10
-20721.971987790381
 20
-11929.460267199791
 11
-20716.47198779037
 21
-11929.460267199791
  0
LINE
  5
178
100
AcDbEntity
  8
DIM
  6
CONTINUOUS
 62
             7
100
AcDbLine
 10
-20721.971987790381
 20
-11927.960267199791
 11
-20716.47198779037
 21
-11927.960267199791
  0
LINE
  5
177
100
AcDbEntity
  8
DIM
  6
CONTINUOUS
 62
             7
100
AcDbLine
 10
-20721.971987790381
 20
-11937.08026719979
 11
-20716.47198779037
 21
-11937.08026719979
  0
LINE
  5
176
100
AcDbEntity
  8
DIM
  6
CONTINUOUS
 62
             7
100
AcDbLine
 10
-20721.971987790381
 20
-11935.58026719979
 11
-20716.47198779037
 21
-11935.58026719979
  0
LINE
  5
175
100
AcDbEntity
  8
DIM
  6
CONTINUOUS
 62
             7
100
AcDbLine
 10
-20721.971987790381
 20
-11891.360267199791
 11
-20721.971987790381
 21
-11897.48026719979
  0
LINE
  5
174
100
AcDbEntity
  8
DIM
  6
CONTINUOUS
 62
             7
100
AcDbLine
 10
-20720.971987790381
 20
-11891.360267199791
 11
-20720.971987790381
 21
-11897.48026719979
  0
LINE
  5
173
100
AcDbEntity
  8
DIM
  6
CONTINUOUS
 62
             7
100
AcDbLine
 10
-20721.971987790381
 20
-11845.640267199789
 11
-20721.971987790381
 21
-11851.76026719979
  0
LINE
  5
172
100
AcDbEntity
  8
DIM
  6
CONTINUOUS
 62
             7
100
AcDbLine
 10
-20720.971987790381
 20
-11845.640267199789
 11
-20720.971987790381
 21
-11851.76026719979
  0
LINE
  5
171
100
AcDbEntity
  8
DIM
  6
CONTINUOUS
 62
             7
100
AcDbLine
 10
-20720.97198779037
 20
-11944.700267199791
 11
-20720.97198779037
 21
-11950.82026719979
  0
LINE
  5
170
100
AcDbEntity
  8
DIM
  6
CONTINUOUS
 62
             7
100
AcDbLine
 10
-20720.971987790381
 20
-11952.32026719979
 11
-20720.971987790381
 21
-11958.44026719979
  0
LINE
  5
16F
100
AcDbEntity
  8
DIM
  6
CONTINUOUS
 62
             7
100
AcDbLine
 10
-20713.471987790381
 20
-11964.290267199791
 11
-20713.471987790381
 21
-11966.290267199791
  0
LINE
  5
16E
100
AcDbEntity
  8
DIM
  6
CONTINUOUS
 62
             7
100
AcDbLine
 10
-20716.471987790381
 20
-11964.290267199791
 11
-20713.471987790381
 21
-11964.290267199791
  0
LINE
  5
16D
100
AcDbEntity
  8
DIM
  6
CONTINUOUS
 62
             7
100
AcDbLine
 10
-20730.971987790381
 20
-11947.01026719979
 11
-20724.47198779037
 21
-11947.01026719979
  0
LINE
  5
16C
100
AcDbEntity
  8
DIM
  6
CONTINUOUS
 62
             7
100
AcDbLine
 10
-20730.971987790381
 20
-11948.51026719979
 11
-20724.471987790381
 21
-11948.51026719979
  0
LINE
  5
16B
100
AcDbEntity
  8
DIM
  6
CONTINUOUS
 62
             7
100
AcDbLine
 10
-20721.97198779037
 20
-11944.700267199791
 11
-20721.97198779037
 21
-11950.82026719979
  0
LINE
  5
16A
100
AcDbEntity
  8
DIM
  6
CONTINUOUS
 62
             7
100
AcDbLine
 10
-20730.971987790381
 20
-11956.130267199789
 11
-20724.471987790381
 21
-11956.130267199789
  0
LINE
  5
169
100
AcDbEntity
  8
DIM
  6
CONTINUOUS
 62
             7
100
AcDbLine
 10
-20730.971987790381
 20
-11954.630267199789
 11
-20724.471987790381
 21
-11954.630267199789
  0
LINE
  5
168
100
AcDbEntity
  8
DIM
  6
CONTINUOUS
 62
             7
100
AcDbLine
 10
-20721.971987790381
 20
-11952.32026719979
 11
-20721.971987790381
 21
-11958.44026719979
  0
LINE
  5
167
100
AcDbEntity
  8
DIM
  6
CONTINUOUS
 62
             7
100
AcDbLine
 10
-20729.971987790381
 20
-11948.51026719979
 11
-20729.971987790381
 21
-11954.630267199789
  0
LINE
  5
166
100
AcDbEntity
  8
DIM
  6
CONTINUOUS
 62
             7
100
AcDbLine
 10
-20728.971987790381
 20
-11948.51026719979
 11
-20728.971987790381
 21
-11954.630267199789
  0
LINE
  5
165
100
AcDbEntity
  8
DIM
  6
CONTINUOUS
 62
             7
100
AcDbLine
 10
-20728.971987790381
 20
-11964.290267199791
 11
-20725.996620939401
 21
-11966.290267199791
  0
LINE
  5
164
100
AcDbEntity
  8
DIM
  6
CONTINUOUS
 62
             7
100
AcDbLine
 10
-20729.971987790381
 20
-11956.130267199789
 11
-20729.971987790381
 21
-11962.25026719979
  0
LINE
  5
163
100
AcDbEntity
  8
DIM
  6
CONTINUOUS
 62
             7
100
AcDbLine
 10
-20728.971987790381
 20
-11956.130267199789
 11
-20728.971987790381
 21
-11962.25026719979
  0
LINE
  5
162
100
AcDbEntity
  8
DIM
  6
CONTINUOUS
 62
             7
100
AcDbLine
 10
-20721.971987790381
 20
-11959.94026719979
 11
-20721.971987790381
 21
-11962.25026719979
  0
LINE
  5
161
100
AcDbEntity
  8
DIM
  6
CONTINUOUS
 62
             7
100
AcDbLine
 10
-20730.971987790381
 20
-11964.290267199791
 11
-20728.971987790381
 21
-11964.290267199791
  0
LINE
  5
160
100
AcDbEntity
  8
DIM
  6
CONTINUOUS
 62
             7
100
AcDbLine
 10
-20730.971987790381
 20
-11964.290267199791
 11
-20730.971987790381
 21
-11964.290267199791
  0
LINE
  5
15F
100
AcDbEntity
  8
DIM
  6
CONTINUOUS
 62
             7
100
AcDbLine
 10
-20721.971987790381
 20
-11952.32026719979
 11
-20716.471987790381
 21
-11952.32026719979
  0
LINE
  5
15E
100
AcDbEntity
  8
DIM
  6
CONTINUOUS
 62
             7
100
AcDbLine
 10
-20721.97198779037
 20
-11950.82026719979
 11
-20716.47198779037
 21
-11950.82026719979
  0
LINE
  5
15D
100
AcDbEntity
  8
DIM
  6
CONTINUOUS
 62
             7
100
AcDbLine
 10
-20721.97198779037
 20
-11944.700267199791
 11
-20716.47198779037
 21
-11944.700267199791
  0
LINE
  5
15C
100
AcDbEntity
  8
DIM
  6
CONTINUOUS
 62
             7
100
AcDbLine
 10
-20721.971987790381
 20
-11943.200267199791
 11
-20716.47198779037
 21
-11943.200267199791
  0
LINE
  5
15B
100
AcDbEntity
  8
DIM
  6
CONTINUOUS
 62
             7
100
AcDbLine
 10
-20721.971987790381
 20
-11958.44026719979
 11
-20716.471987790381
 21
-11958.44026719979
  0
LINE
  5
15A
100
AcDbEntity
  8
DIM
  6
CONTINUOUS
 62
             7
100
AcDbLine
 10
-20721.971987790381
 20
-11959.94026719979
 11
-20716.471987790381
 21
-11959.94026719979
  0
LINE
  5
159
100
AcDbEntity
  8
DIM
  6
CONTINUOUS
 62
             7
100
AcDbLine
 10
-20730.971987790381
 20
-11962.25026719979
 11
-20716.471987790381
 21
-11962.25026719979
  0
LINE
  5
158
100
AcDbEntity
  8
DIM
  6
CONTINUOUS
 62
             7
100
AcDbLine
 10
-20725.996620939401
 20
-11966.290267199791
 11
-20713.471987790381
 21
-11966.290267199791
  0
LINE
  5
157
100
AcDbEntity
  8
DIM
  6
CONTINUOUS
 62
             7
100
AcDbLine
 10
-20729.97198779037
 20
-11940.890267199789
 11
-20729.97198779037
 21
-11947.01026719979
  0
LINE
  5
156
100
AcDbEntity
  8
DIM
  6
CONTINUOUS
 62
             7
100
AcDbLine
 10
-20728.97198779037
 20
-11940.890267199789
 11
-20728.97198779037
 21
-11947.01026719979
  0
LINE
  5
155
100
AcDbEntity
  8
DIM
  6
CONTINUOUS
 62
             7
100
AcDbLine
 10
-20721.971987790381
 20
-11937.08026719979
 11
-20721.971987790381
 21
-11943.200267199791
  0
LINE
  5
154
100
AcDbEntity
  8
DIM
  6
CONTINUOUS
 62
             7
100
AcDbLine
 10
-20720.971987790381
 20
-11937.08026719979
 11
-20720.971987790381
 21
-11943.200267199791
  0
LINE
  5
153
100
AcDbEntity
  8
DIM
  6
CONTINUOUS
 62
             7
100
AcDbLine
 10
-20724.471987790381
 20
-11845.640267199789
 11
-20724.471987790381
 21
-11962.25026719979
  0
LINE
  5
152
100
AcDbEntity
  8
DIM
  6
CONTINUOUS
 62
             7
100
AcDbLine
 10
-20716.471987790381
 20
-11843.60026719979
 11
-20716.471987790381
 21
-11964.290267199791
  0
LINE
  5
151
100
AcDbEntity
  8
DIM
  6
CONTINUOUS
 62
             7
100
AcDbLine
 10
-20715.471987790381
 20
-11843.60026719979
 11
-20715.471987790381
 21
-11964.290267199791
  0
LINE
  5
150
100
AcDbEntity
  8
DIM
  6
CONTINUOUS
 62
             7
100
AcDbLine
 10
-20737.671987790382
 20
-11977.94526719979
 11
-20737.671987790382
 21
-11978.94526719979
  0
LINE
  5
14F
100
AcDbEntity
  8
0
  6
CONTINUOUS
 62
             7
100
AcDbLine
 10
-20737.671987790382
 20
-11978.94526719979
 11
-20735.671987790382
 21
-11978.94526719979
  0
LINE
  5
14E
100
AcDbEntity
  8
0
  6
CONTINUOUS
 62
             7
100
AcDbLine
 10
-20737.671987790382
 20
-11977.94526719979
 11
-20735.671987790382
 21
-11977.94526719979
  0
LINE
  5
14D
100
AcDbEntity
  8
DIM
  6
CONTINUOUS
 62
             7
100
AcDbLine
 10
-20735.671987790382
 20
-11976.69526719979
 11
-20735.671987790382
 21
-11977.94526719979
  0
LINE
  5
14C
100
AcDbEntity
  8
DIM
  6
CONTINUOUS
 62
             7
100
AcDbLine
 10
-20735.671987790382
 20
-11978.94526719979
 11
-20735.671987790382
 21
-11980.19526719979
  0
LINE
  5
14B
100
AcDbEntity
  8
0
  6
CONTINUOUS
 62
             7
100
AcDbLine
 10
-20740.971987790381
 20
-11984.44526719979
 11
-20740.971987790381
 21
-11972.44526719979
  0
LINE
  5
14A
100
AcDbEntity
  8
0
  6
CONTINUOUS
 62
             7
100
AcDbLine
 10
-20740.971987790381
 20
-11980.19526719979
 11
-20735.671987790382
 21
-11980.19526719979
  0
LINE
  5
149
100
AcDbEntity
  8
0
  6
CONTINUOUS
 62
             7
100
AcDbLine
 10
-20740.971987790381
 20
-11976.69526719979
 11
-20735.671987790382
 21
-11976.69526719979
  0
LINE
  5
148
100
AcDbEntity
  8
0
  6
CONTINUOUS
 62
             7
100
AcDbLine
 10
-20835.971987790381
 20
-11984.44526719979
 11
-20835.971987790381
 21
-11972.44526719979
  0
LINE
  5
147
100
AcDbEntity
  8
0
  6
CONTINUOUS
 62
             7
100
AcDbLine
 10
-20835.971987790381
 20
-11984.44526719979
 11
-20740.971987790381
 21
-11984.44526719979
  0
LINE
  5
146
100
AcDbEntity
  8
DIM
  6
CONTINUOUS
 62
             7
100
AcDbLine
 10
-20866.331640259319
 20
-11980.19526719979
 11
-20866.331640259319
 21
-11976.69526719979
  0
LINE
  5
145
100
AcDbEntity
  8
DIM
  6
CONTINUOUS
 62
             7
100
AcDbLine
 10
-20868.671987790382
 20
-11978.44526719979
 11
-20866.331640259319
 21
-11980.19526719979
  0
LINE
  5
144
100
AcDbEntity
  8
DIM
  6
CONTINUOUS
 62
             7
100
AcDbLine
 10
-20868.671987790382
 20
-11978.44526719979
 11
-20866.331640259319
 21
-11976.69526719979
  0
LINE
  5
143
100
AcDbEntity
  8
0
  6
CONTINUOUS
 62
             7
100
AcDbLine
 10
-20866.331640259319
 20
-11980.19526719979
 11
-20835.971987790381
 21
-11980.19526719979
  0
LINE
  5
142
100
AcDbEntity
  8
0
  6
CONTINUOUS
 62
             7
100
AcDbLine
 10
-20866.331640259319
 20
-11976.69526719979
 11
-20835.971987790381
 21
-11976.69526719979
  0
LINE
  5
141
100
AcDbEntity
  8
0
  6
CONTINUOUS
 62
             7
100
AcDbLine
 10
-20740.971987790381
 20
-11831.19526719979
 11
-20735.671987790382
 21
-11831.19526719979
  0
LINE
  5
140
100
AcDbEntity
  8
0
  6
CONTINUOUS
 62
             7
100
AcDbLine
 10
-20740.971987790381
 20
-11827.69526719979
 11
-20735.671987790382
 21
-11827.69526719979
  0
LINE
  5
13F
100
AcDbEntity
  8
DIM
  6
CONTINUOUS
 62
             7
100
AcDbLine
 10
-20866.331640259319
 20
-11827.69526719979
 11
-20866.331640259319
 21
-11831.19526719979
  0
LINE
  5
13E
100
AcDbEntity
  8
DIM
  6
CONTINUOUS
 62
             7
100
AcDbLine
 10
-20868.671987790382
 20
-11829.44526719979
 11
-20866.331640259319
 21
-11831.19526719979
  0
LINE
  5
13D
100
AcDbEntity
  8
DIM
  6
CONTINUOUS
 62
             7
100
AcDbLine
 10
-20868.671987790382
 20
-11829.44526719979
 11
-20866.331640259319
 21
-11827.69526719979
  0
LINE
  5
13C
100
AcDbEntity
  8
DIM
  6
CONTINUOUS
 62
             7
100
AcDbLine
 10
-20735.671987790382
 20
-11828.94526719979
 11
-20735.671987790382
 21
-11827.69526719979
  0
LINE
  5
13B
100
AcDbEntity
  8
DIM
  6
CONTINUOUS
 62
             7
100
AcDbLine
 10
-20737.671987790382
 20
-11829.94526719979
 11
-20737.671987790382
 21
-11828.94526719979
  0
LINE
  5
13A
100
AcDbEntity
  8
0
  6
CONTINUOUS
 62
             7
100
AcDbLine
 10
-20737.671987790382
 20
-11829.94526719979
 11
-20735.671987790382
 21
-11829.94526719979
  0
LINE
  5
139
100
AcDbEntity
  8
0
  6
CONTINUOUS
 62
             7
100
AcDbLine
 10
-20737.671987790382
 20
-11828.94526719979
 11
-20735.671987790382
 21
-11828.94526719979
  0
LINE
  5
138
100
AcDbEntity
  8
0
  6
CONTINUOUS
 62
             7
100
AcDbLine
 10
-20866.331640259319
 20
-11831.19526719979
 11
-20835.971987790381
 21
-11831.19526719979
  0
LINE
  5
137
100
AcDbEntity
  8
0
  6
CONTINUOUS
 62
             7
100
AcDbLine
 10
-20866.331640259319
 20
-11827.69526719979
 11
-20835.971987790381
 21
-11827.69526719979
  0
LINE
  5
136
100
AcDbEntity
  8
DIM
  6
CONTINUOUS
 62
             7
100
AcDbLine
 10
-20735.671987790382
 20
-11831.19526719979
 11
-20735.671987790382
 21
-11829.94526719979
  0
LINE
  5
135
100
AcDbEntity
  8
0
  6
CONTINUOUS
 62
             7
100
AcDbLine
 10
-20835.971987790381
 20
-11823.44526719979
 11
-20740.971987790381
 21
-11823.44526719979
  0
LINE
  5
134
100
AcDbEntity
  8
0
  6
CONTINUOUS
 62
             7
100
AcDbLine
 10
-20740.971987790381
 20
-11823.44526719979
 11
-20740.971987790381
 21
-11835.44526719979
  0
LINE
  5
133
100
AcDbEntity
  8
0
  6
CONTINUOUS
 62
             7
100
AcDbLine
 10
-20835.971987790381
 20
-11823.44526719979
 11
-20835.971987790381
 21
-11835.44526719979
  0
LINE
  5
132
100
AcDbEntity
  8
0
  6
CONTINUOUS
 62
             7
100
AcDbLine
 10
-20698.471987790381
 20
-11895.8524711441
 11
-20698.471987790381
 21
-11915.8524711441
  0
LINE
  5
131
100
AcDbEntity
  8
DIM
  6
CONTINUOUS
 62
             7
100
AcDbLine
 10
-20698.471987790381
 20
-11915.8524711441
 11
-20704.471987790381
 21
-11915.8524711441
  0
LINE
  5
130
100
AcDbEntity
  8
DIM
  6
CONTINUOUS
 62
             7
100
AcDbLine
 10
-20698.471987790381
 20
-11895.8524711441
 11
-20704.471987790381
 21
-11895.8524711441
  0
LINE
  5
12F
100
AcDbEntity
  8
0
  6
CONTINUOUS
 62
             7
100
AcDbLine
 10
-20881.371987790379
 20
-11831.94526719979
 11
-20881.371987790379
 21
-11975.94526719979
  0
LINE
  5
12E
100
AcDbEntity
  8
DIM
  6
CONTINUOUS
 62
             7
100
AcDbLine
 10
-20703.471987790381
 20
-11964.290267199791
 11
-20704.471987790381
 21
-11964.290267199791
  0
LINE
  5
12D
100
AcDbEntity
  8
DIM
  6
CONTINUOUS
 62
             7
100
AcDbLine
 10
-20688.971987790381
 20
-11843.60026719979
 11
-20685.971987790381
 21
-11843.60026719979
  0
LINE
  5
12C
100
AcDbEntity
  8
DIM
  6
CONTINUOUS
 62
             7
100
AcDbLine
 10
-20685.971987790381
 20
-11841.60026719979
 11
-20685.971987790381
 21
-11843.60026719979
  0
LINE
  5
12B
100
AcDbEntity
  8
DIM
  6
CONTINUOUS
 62
             7
100
AcDbLine
 10
-20688.971987790381
 20
-11964.290267199791
 11
-20685.971987790381
 21
-11964.290267199791
  0
LINE
  5
12A
100
AcDbEntity
  8
DIM
  6
CONTINUOUS
 62
             7
100
AcDbLine
 10
-20685.971987790381
 20
-11964.290267199791
 11
-20685.971987790381
 21
-11966.290267199791
  0
LINE
  5
129
100
AcDbEntity
  8
DIM
  6
CONTINUOUS
 62
             7
100
AcDbLine
 10
-20687.971987790381
 20
-11843.60026719979
 11
-20687.971987790381
 21
-11964.290267199791
  0
LINE
  5
128
100
AcDbEntity
  8
DIM
  6
CONTINUOUS
 62
             7
100
AcDbLine
 10
-20688.971987790381
 20
-11843.60026719979
 11
-20688.971987790381
 21
-11964.290267199791
  0
LINE
  5
127
100
AcDbEntity
  8
DIM
  6
CONTINUOUS
 62
             7
100
AcDbLine
 10
-20701.471987790381
 20
-11843.60026719979
 11
-20698.496620939401
 21
-11841.60026719979
  0
LINE
  5
126
100
AcDbEntity
  8
DIM
  6
CONTINUOUS
 62
             7
100
AcDbLine
 10
-20704.471987790381
 20
-11843.60026719979
 11
-20701.471987790381
 21
-11843.60026719979
  0
LINE
  5
125
100
AcDbEntity
  8
DIM
  6
CONTINUOUS
 62
             7
100
AcDbLine
 10
-20694.471987790381
 20
-11868.50026719979
 11
-20694.471987790381
 21
-11874.620267199791
  0
LINE
  5
124
100
AcDbEntity
  8
DIM
  6
CONTINUOUS
 62
             7
100
AcDbLine
 10
-20693.471987790381
 20
-11868.50026719979
 11
-20693.471987790381
 21
-11874.620267199791
  0
LINE
  5
123
100
AcDbEntity
  8
DIM
  6
CONTINUOUS
 62
             7
100
AcDbLine
 10
-20701.471987790381
 20
-11864.69026719979
 11
-20701.471987790381
 21
-11870.810267199789
  0
LINE
  5
122
100
AcDbEntity
  8
DIM
  6
CONTINUOUS
 62
             7
100
AcDbLine
 10
-20702.471987790381
 20
-11864.69026719979
 11
-20702.471987790381
 21
-11870.810267199789
  0
LINE
  5
121
100
AcDbEntity
  8
DIM
  6
CONTINUOUS
 62
             7
100
AcDbLine
 10
-20693.471987790381
 20
-11883.74026719979
 11
-20693.471987790381
 21
-11889.860267199791
  0
LINE
  5
120
100
AcDbEntity
  8
DIM
  6
CONTINUOUS
 62
             7
100
AcDbLine
 10
-20694.471987790381
 20
-11883.74026719979
 11
-20694.471987790381
 21
-11889.860267199791
  0
LINE
  5
11F
100
AcDbEntity
  8
DIM
  6
CONTINUOUS
 62
             7
100
AcDbLine
 10
-20701.471987790381
 20
-11887.550267199789
 11
-20701.471987790381
 21
-11893.67026719979
  0
LINE
  5
11E
100
AcDbEntity
  8
DIM
  6
CONTINUOUS
 62
             7
100
AcDbLine
 10
-20702.471987790381
 20
-11887.550267199789
 11
-20702.471987790381
 21
-11893.67026719979
  0
LINE
  5
11D
100
AcDbEntity
  8
DIM
  6
CONTINUOUS
 62
             7
100
AcDbLine
 10
-20704.471987790381
 20
-11893.67026719979
 11
-20696.971987790381
 21
-11893.67026719979
  0
LINE
  5
11C
100
AcDbEntity
  8
DIM
  6
CONTINUOUS
 62
             7
100
AcDbLine
 10
-20704.471987790381
 20
-11887.550267199789
 11
-20696.971987790381
 21
-11887.550267199789
  0
LINE
  5
11B
100
AcDbEntity
  8
DIM
  6
CONTINUOUS
 62
             7
100
AcDbLine
 10
-20693.471987790381
 20
-11876.120267199791
 11
-20693.471987790381
 21
-11882.24026719979
  0
LINE
  5
11A
100
AcDbEntity
  8
DIM
  6
CONTINUOUS
 62
             7
100
AcDbLine
 10
-20694.471987790381
 20
-11876.120267199791
 11
-20694.471987790381
 21
-11882.24026719979
  0
LINE
  5
119
100
AcDbEntity
  8
DIM
  6
CONTINUOUS
 62
             7
100
AcDbLine
 10
-20702.471987790381
 20
-11872.310267199789
 11
-20702.471987790381
 21
-11878.43026719979
  0
LINE
  5
118
100
AcDbEntity
  8
DIM
  6
CONTINUOUS
 62
             7
100
AcDbLine
 10
-20701.471987790381
 20
-11872.310267199789
 11
-20701.471987790381
 21
-11878.43026719979
  0
LINE
  5
117
100
AcDbEntity
  8
DIM
  6
CONTINUOUS
 62
             7
100
AcDbLine
 10
-20702.471987790381
 20
-11879.93026719979
 11
-20702.471987790381
 21
-11886.050267199789
  0
LINE
  5
116
100
AcDbEntity
  8
DIM
  6
CONTINUOUS
 62
             7
100
AcDbLine
 10
-20701.471987790381
 20
-11879.93026719979
 11
-20701.471987790381
 21
-11886.050267199789
  0
LINE
  5
115
100
AcDbEntity
  8
DIM
  6
CONTINUOUS
 62
             7
100
AcDbLine
 10
-20704.471987790381
 20
-11886.050267199789
 11
-20696.971987790381
 21
-11886.050267199789
  0
LINE
  5
114
100
AcDbEntity
  8
DIM
  6
CONTINUOUS
 62
             7
100
AcDbLine
 10
-20704.471987790381
 20
-11878.43026719979
 11
-20696.971987790381
 21
-11878.43026719979
  0
LINE
  5
113
100
AcDbEntity
  8
DIM
  6
CONTINUOUS
 62
             7
100
AcDbLine
 10
-20704.471987790381
 20
-11879.93026719979
 11
-20696.971987790381
 21
-11879.93026719979
  0
LINE
  5
112
100
AcDbEntity
  8
DIM
  6
CONTINUOUS
 62
             7
100
AcDbLine
 10
-20704.471987790381
 20
-11872.310267199789
 11
-20696.971987790381
 21
-11872.310267199789
  0
LINE
  5
111
100
AcDbEntity
  8
DIM
  6
CONTINUOUS
 62
             7
100
AcDbLine
 10
-20704.471987790381
 20
-11870.810267199789
 11
-20696.971987790381
 21
-11870.810267199789
  0
LINE
  5
110
100
AcDbEntity
  8
DIM
  6
CONTINUOUS
 62
             7
100
AcDbLine
 10
-20701.471987790381
 20
-11849.450267199791
 11
-20701.471987790381
 21
-11855.57026719979
  0
LINE
  5
10F
100
AcDbEntity
  8
DIM
  6
CONTINUOUS
 62
             7
100
AcDbLine
 10
-20702.471987790381
 20
-11849.450267199791
 11
-20702.471987790381
 21
-11855.57026719979
  0
LINE
  5
10E
100
AcDbEntity
  8
DIM
  6
CONTINUOUS
 62
             7
100
AcDbLine
 10
-20702.471987790381
 20
-11857.07026719979
 11
-20702.471987790381
 21
-11863.19026719979
  0
LINE
  5
10D
100
AcDbEntity
  8
DIM
  6
CONTINUOUS
 62
             7
100
AcDbLine
 10
-20701.471987790381
 20
-11857.07026719979
 11
-20701.471987790381
 21
-11863.19026719979
  0
LINE
  5
10C
100
AcDbEntity
  8
DIM
  6
CONTINUOUS
 62
             7
100
AcDbLine
 10
-20693.471987790381
 20
-11853.26026719979
 11
-20693.471987790381
 21
-11859.380267199789
  0
LINE
  5
10B
100
AcDbEntity
  8
DIM
  6
CONTINUOUS
 62
             7
100
AcDbLine
 10
-20694.471987790381
 20
-11853.26026719979
 11
-20694.471987790381
 21
-11859.380267199789
  0
LINE
  5
10A
100
AcDbEntity
  8
DIM
  6
CONTINUOUS
 62
             7
100
AcDbLine
 10
-20694.471987790381
 20
-11860.880267199789
 11
-20694.471987790381
 21
-11867.00026719979
  0
LINE
  5
109
100
AcDbEntity
  8
DIM
  6
CONTINUOUS
 62
             7
100
AcDbLine
 10
-20704.471987790381
 20
-11864.69026719979
 11
-20696.971987790381
 21
-11864.69026719979
  0
LINE
  5
108
100
AcDbEntity
  8
DIM
  6
CONTINUOUS
 62
             7
100
AcDbLine
 10
-20704.471987790381
 20
-11863.19026719979
 11
-20696.971987790381
 21
-11863.19026719979
  0
LINE
  5
107
100
AcDbEntity
  8
DIM
  6
CONTINUOUS
 62
             7
100
AcDbLine
 10
-20693.471987790381
 20
-11860.880267199789
 11
-20693.471987790381
 21
-11867.00026719979
  0
LINE
  5
106
100
AcDbEntity
  8
DIM
  6
CONTINUOUS
 62
             7
100
AcDbLine
 10
-20704.471987790381
 20
-11857.07026719979
 11
-20696.971987790381
 21
-11857.07026719979
  0
LINE
  5
105
100
AcDbEntity
  8
DIM
  6
CONTINUOUS
 62
             7
100
AcDbLine
 10
-20704.471987790381
 20
-11855.57026719979
 11
-20696.971987790381
 21
-11855.57026719979
  0
LINE
  5
104
100
AcDbEntity
  8
DIM
  6
CONTINUOUS
 62
             7
100
AcDbLine
 10
-20704.471987790381
 20
-11847.950267199791
 11
-20696.971987790381
 21
-11847.950267199791
  0
LINE
  5
103
100
AcDbEntity
  8
DIM
  6
CONTINUOUS
 62
             7
100
AcDbLine
 10
-20704.471987790381
 20
-11849.450267199791
 11
-20696.971987790381
 21
-11849.450267199791
  0
LINE
  5
102
100
AcDbEntity
  8
DIM
  6
CONTINUOUS
 62
             7
100
AcDbLine
 10
-20694.471987790381
 20
-11921.84026719979
 11
-20694.471987790381
 21
-11927.960267199791
  0
LINE
  5
101
100
AcDbEntity
  8
DIM
  6
CONTINUOUS
 62
             7
100
AcDbLine
 10
-20693.471987790381
 20
-11921.84026719979
 11
-20693.471987790381
 21
-11927.960267199791
  0
LINE
  5
100
100
AcDbEntity
  8
DIM
  6
CONTINUOUS
 62
             7
100
AcDbLine
 10
-20693.471987790381
 20
-11929.460267199791
 11
-20693.471987790381
 21
-11935.58026719979
  0
LINE
  5
FF
100
AcDbEntity
  8
DIM
  6
CONTINUOUS
 62
             7
100
AcDbLine
 10
-20694.471987790381
 20
-11929.460267199791
 11
-20694.471987790381
 21
-11935.58026719979
  0
LINE
  5
FE
100
AcDbEntity
  8
DIM
  6
CONTINUOUS
 62
             7
100
AcDbLine
 10
-20702.471987790381
 20
-11933.27026719979
 11
-20702.471987790381
 21
-11939.390267199789
  0
LINE
  5
FD
100
AcDbEntity
  8
DIM
  6
CONTINUOUS
 62
             7
100
AcDbLine
 10
-20701.471987790381
 20
-11933.27026719979
 11
-20701.471987790381
 21
-11939.390267199789
  0
LINE
  5
FC
100
AcDbEntity
  8
DIM
  6
CONTINUOUS
 62
             7
100
AcDbLine
 10
-20704.471987790381
 20
-11939.390267199789
 11
-20696.971987790381
 21
-11939.390267199789
  0
LINE
  5
FB
100
AcDbEntity
  8
DIM
  6
CONTINUOUS
 62
             7
100
AcDbLine
 10
-20704.471987790381
 20
-11940.890267199789
 11
-20696.97198779037
 21
-11940.890267199789
  0
LINE
  5
FA
100
AcDbEntity
  8
DIM
  6
CONTINUOUS
 62
             7
100
AcDbLine
 10
-20702.471987790381
 20
-11925.65026719979
 11
-20702.471987790381
 21
-11931.77026719979
  0
LINE
  5
F9
100
AcDbEntity
  8
DIM
  6
CONTINUOUS
 62
             7
100
AcDbLine
 10
-20701.471987790381
 20
-11925.65026719979
 11
-20701.471987790381
 21
-11931.77026719979
  0
LINE
  5
F8
100
AcDbEntity
  8
DIM
  6
CONTINUOUS
 62
             7
100
AcDbLine
 10
-20704.471987790381
 20
-11931.77026719979
 11
-20696.971987790381
 21
-11931.77026719979
  0
LINE
  5
F7
100
AcDbEntity
  8
DIM
  6
CONTINUOUS
 62
             7
100
AcDbLine
 10
-20704.471987790381
 20
-11933.27026719979
 11
-20696.971987790381
 21
-11933.27026719979
  0
LINE
  5
F6
100
AcDbEntity
  8
DIM
  6
CONTINUOUS
 62
             7
100
AcDbLine
 10
-20704.471987790381
 20
-11925.65026719979
 11
-20696.971987790381
 21
-11925.65026719979
  0
LINE
  5
F5
100
AcDbEntity
  8
DIM
  6
CONTINUOUS
 62
             7
100
AcDbLine
 10
-20693.471987790381
 20
-11914.220267199789
 11
-20693.471987790381
 21
-11920.34026719979
  0
LINE
  5
F4
100
AcDbEntity
  8
DIM
  6
CONTINUOUS
 62
             7
100
AcDbLine
 10
-20694.471987790381
 20
-11914.220267199789
 11
-20694.471987790381
 21
-11920.34026719979
  0
LINE
  5
F3
100
AcDbEntity
  8
DIM
  6
CONTINUOUS
 62
             7
100
AcDbLine
 10
-20701.471987790381
 20
-11915.8524711441
 11
-20701.471987790381
 21
-11916.530267199791
  0
LINE
  5
F2
100
AcDbEntity
  8
DIM
  6
CONTINUOUS
 62
             7
100
AcDbLine
 10
-20702.471987790381
 20
-11915.8524711441
 11
-20702.471987790381
 21
-11916.530267199791
  0
LINE
  5
F1
100
AcDbEntity
  8
DIM
  6
CONTINUOUS
 62
             7
100
AcDbLine
 10
-20702.471987790381
 20
-11918.030267199791
 11
-20702.471987790381
 21
-11924.15026719979
  0
LINE
  5
F0
100
AcDbEntity
  8
DIM
  6
CONTINUOUS
 62
             7
100
AcDbLine
 10
-20701.471987790381
 20
-11918.030267199791
 11
-20701.471987790381
 21
-11924.15026719979
  0
LINE
  5
EF
100
AcDbEntity
  8
DIM
  6
CONTINUOUS
 62
             7
100
AcDbLine
 10
-20704.471987790381
 20
-11924.15026719979
 11
-20696.971987790381
 21
-11924.15026719979
  0
LINE
  5
EE
100
AcDbEntity
  8
DIM
  6
CONTINUOUS
 62
             7
100
AcDbLine
 10
-20704.471987790381
 20
-11916.530267199791
 11
-20696.971987790381
 21
-11916.530267199791
  0
LINE
  5
ED
100
AcDbEntity
  8
DIM
  6
CONTINUOUS
 62
             7
100
AcDbLine
 10
-20704.471987790381
 20
-11918.030267199791
 11
-20696.971987790381
 21
-11918.030267199791
  0
LINE
  5
EC
100
AcDbEntity
  8
DIM
  6
CONTINUOUS
 62
             7
100
AcDbLine
 10
-20694.471987790381
 20
-11906.60026719979
 11
-20694.471987790381
 21
-11912.720267199789
  0
LINE
  5
EB
100
AcDbEntity
  8
DIM
  6
CONTINUOUS
 62
             7
100
AcDbLine
 10
-20698.471987790381
 20
-11908.91026719979
 11
-20696.971987790381
 21
-11908.91026719979
  0
LINE
  5
EA
100
AcDbEntity
  8
DIM
  6
CONTINUOUS
 62
             7
100
AcDbLine
 10
-20698.471987790381
 20
-11910.41026719979
 11
-20696.971987790381
 21
-11910.41026719979
  0
LINE
  5
E9
100
AcDbEntity
  8
DIM
  6
CONTINUOUS
 62
             7
100
AcDbLine
 10
-20693.471987790381
 20
-11906.60026719979
 11
-20693.471987790381
 21
-11912.720267199789
  0
LINE
  5
E8
100
AcDbEntity
  8
DIM
  6
CONTINUOUS
 62
             7
100
AcDbLine
 10
-20702.471987790381
 20
-11895.17026719979
 11
-20702.471987790381
 21
-11895.8524711441
  0
LINE
  5
E7
100
AcDbEntity
  8
DIM
  6
CONTINUOUS
 62
             7
100
AcDbLine
 10
-20701.471987790381
 20
-11895.17026719979
 11
-20701.471987790381
 21
-11895.8524711441
  0
LINE
  5
E6
100
AcDbEntity
  8
DIM
  6
CONTINUOUS
 62
             7
100
AcDbLine
 10
-20694.471987790381
 20
-11898.98026719979
 11
-20694.471987790381
 21
-11905.10026719979
  0
LINE
  5
E5
100
AcDbEntity
  8
DIM
  6
CONTINUOUS
 62
             7
100
AcDbLine
 10
-20698.471987790381
 20
-11902.790267199791
 11
-20696.971987790381
 21
-11902.790267199791
  0
LINE
  5
E4
100
AcDbEntity
  8
DIM
  6
CONTINUOUS
 62
             7
100
AcDbLine
 10
-20698.471987790381
 20
-11901.290267199791
 11
-20696.971987790381
 21
-11901.290267199791
  0
LINE
  5
E3
100
AcDbEntity
  8
DIM
  6
CONTINUOUS
 62
             7
100
AcDbLine
 10
-20693.471987790381
 20
-11898.98026719979
 11
-20693.471987790381
 21
-11905.10026719979
  0
LINE
  5
E2
100
AcDbEntity
  8
DIM
  6
CONTINUOUS
 62
             7
100
AcDbLine
 10
-20704.471987790381
 20
-11895.17026719979
 11
-20696.971987790381
 21
-11895.17026719979
  0
LINE
  5
E1
100
AcDbEntity
  8
DIM
  6
CONTINUOUS
 62
             7
100
AcDbLine
 10
-20693.471987790381
 20
-11891.360267199791
 11
-20693.471987790381
 21
-11897.48026719979
  0
LINE
  5
E0
100
AcDbEntity
  8
DIM
  6
CONTINUOUS
 62
             7
100
AcDbLine
 10
-20694.471987790381
 20
-11891.360267199791
 11
-20694.471987790381
 21
-11897.48026719979
  0
LINE
  5
DF
100
AcDbEntity
  8
DIM
  6
CONTINUOUS
 62
             7
100
AcDbLine
 10
-20693.471987790381
 20
-11845.640267199789
 11
-20693.471987790381
 21
-11851.76026719979
  0
LINE
  5
DE
100
AcDbEntity
  8
DIM
  6
CONTINUOUS
 62
             7
100
AcDbLine
 10
-20694.471987790381
 20
-11845.640267199789
 11
-20694.471987790381
 21
-11851.76026719979
  0
LINE
  5
DD
100
AcDbEntity
  8
DIM
  6
CONTINUOUS
 62
             7
100
AcDbLine
 10
-20703.471987790381
 20
-11964.290267199791
 11
-20701.471987790381
 21
-11964.290267199791
  0
LINE
  5
DC
100
AcDbEntity
  8
DIM
  6
CONTINUOUS
 62
             7
100
AcDbLine
 10
-20694.471987790381
 20
-11959.94026719979
 11
-20694.471987790381
 21
-11962.25026719979
  0
LINE
  5
DB
100
AcDbEntity
  8
DIM
  6
CONTINUOUS
 62
             7
100
AcDbLine
 10
-20701.471987790381
 20
-11956.130267199789
 11
-20701.471987790381
 21
-11962.25026719979
  0
LINE
  5
DA
100
AcDbEntity
  8
DIM
  6
CONTINUOUS
 62
             7
100
AcDbLine
 10
-20702.471987790381
 20
-11956.130267199789
 11
-20702.471987790381
 21
-11962.25026719979
  0
LINE
  5
D9
100
AcDbEntity
  8
DIM
  6
CONTINUOUS
 62
             7
100
AcDbLine
 10
-20701.471987790381
 20
-11964.290267199791
 11
-20698.496620939401
 21
-11966.290267199791
  0
LINE
  5
D8
100
AcDbEntity
  8
DIM
  6
CONTINUOUS
 62
             7
100
AcDbLine
 10
-20701.471987790381
 20
-11948.51026719979
 11
-20701.471987790381
 21
-11954.630267199789
  0
LINE
  5
D7
100
AcDbEntity
  8
DIM
  6
CONTINUOUS
 62
             7
100
AcDbLine
 10
-20702.471987790381
 20
-11948.51026719979
 11
-20702.471987790381
 21
-11954.630267199789
  0
LINE
  5
D6
100
AcDbEntity
  8
DIM
  6
CONTINUOUS
 62
             7
100
AcDbLine
 10
-20694.471987790381
 20
-11952.32026719979
 11
-20694.471987790381
 21
-11958.44026719979
  0
LINE
  5
D5
100
AcDbEntity
  8
DIM
  6
CONTINUOUS
 62
             7
100
AcDbLine
 10
-20693.471987790381
 20
-11952.32026719979
 11
-20693.471987790381
 21
-11958.44026719979
  0
LINE
  5
D4
100
AcDbEntity
  8
DIM
  6
CONTINUOUS
 62
             7
100
AcDbLine
 10
-20704.471987790381
 20
-11954.630267199789
 11
-20696.971987790381
 21
-11954.630267199789
  0
LINE
  5
D3
100
AcDbEntity
  8
DIM
  6
CONTINUOUS
 62
             7
100
AcDbLine
 10
-20704.471987790381
 20
-11956.130267199789
 11
-20696.971987790381
 21
-11956.130267199789
  0
LINE
  5
D2
100
AcDbEntity
  8
DIM
  6
CONTINUOUS
 62
             7
100
AcDbLine
 10
-20694.47198779037
 20
-11944.700267199791
 11
-20694.47198779037
 21
-11950.82026719979
  0
LINE
  5
D1
100
AcDbEntity
  8
DIM
  6
CONTINUOUS
 62
             7
100
AcDbLine
 10
-20704.471987790381
 20
-11948.51026719979
 11
-20696.971987790381
 21
-11948.51026719979
  0
LINE
  5
D0
100
AcDbEntity
  8
DIM
  6
CONTINUOUS
 62
             7
100
AcDbLine
 10
-20704.471987790381
 20
-11947.01026719979
 11
-20696.97198779037
 21
-11947.01026719979
  0
LINE
  5
CF
100
AcDbEntity
  8
DIM
  6
CONTINUOUS
 62
             7
100
AcDbLine
 10
-20693.471987790381
 20
-11944.700267199791
 11
-20693.471987790381
 21
-11950.82026719979
  0
LINE
  5
CE
100
AcDbEntity
  8
DIM
  6
CONTINUOUS
 62
             7
100
AcDbLine
 10
-20696.971987790381
 20
-11845.640267199789
 11
-20696.971987790381
 21
-11962.25026719979
  0
LINE
  5
CD
100
AcDbEntity
  8
DIM
  6
CONTINUOUS
 62
             7
100
AcDbLine
 10
-20693.471987790381
 20
-11937.08026719979
 11
-20693.471987790381
 21
-11943.200267199791
  0
LINE
  5
CC
100
AcDbEntity
  8
DIM
  6
CONTINUOUS
 62
             7
100
AcDbLine
 10
-20694.471987790381
 20
-11937.08026719979
 11
-20694.471987790381
 21
-11943.200267199791
  0
LINE
  5
CB
100
AcDbEntity
  8
DIM
  6
CONTINUOUS
 62
             7
100
AcDbLine
 10
-20701.47198779037
 20
-11940.890267199789
 11
-20701.47198779037
 21
-11947.01026719979
  0
LINE
  5
CA
100
AcDbEntity
  8
DIM
  6
CONTINUOUS
 62
             7
100
AcDbLine
 10
-20702.47198779037
 20
-11940.890267199789
 11
-20702.47198779037
 21
-11947.01026719979
  0
LINE
  5
C9
100
AcDbEntity
  8
DIM
  6
CONTINUOUS
 62
             7
100
AcDbLine
 10
-20698.496620939401
 20
-11966.290267199791
 11
-20685.971987790381
 21
-11966.290267199791
  0
LINE
  5
C8
100
AcDbEntity
  8
DIM
  6
CONTINUOUS
 62
             7
100
AcDbLine
 10
-20704.471987790381
 20
-11962.25026719979
 11
-20688.971987790381
 21
-11962.25026719979
  0
LINE
  5
C7
100
AcDbEntity
  8
DIM
  6
CONTINUOUS
 62
             7
100
AcDbLine
 10
-20694.471987790381
 20
-11959.94026719979
 11
-20688.971987790381
 21
-11959.94026719979
  0
LINE
  5
C6
100
AcDbEntity
  8
DIM
  6
CONTINUOUS
 62
             7
100
AcDbLine
 10
-20694.471987790381
 20
-11958.44026719979
 11
-20688.971987790381
 21
-11958.44026719979
  0
LINE
  5
C5
100
AcDbEntity
  8
DIM
  6
CONTINUOUS
 62
             7
100
AcDbLine
 10
-20694.471987790381
 20
-11943.200267199791
 11
-20688.97198779037
 21
-11943.200267199791
  0
LINE
  5
C4
100
AcDbEntity
  8
DIM
  6
CONTINUOUS
 62
             7
100
AcDbLine
 10
-20694.47198779037
 20
-11944.700267199791
 11
-20688.97198779037
 21
-11944.700267199791
  0
LINE
  5
C3
100
AcDbEntity
  8
DIM
  6
CONTINUOUS
 62
             7
100
AcDbLine
 10
-20694.47198779037
 20
-11950.82026719979
 11
-20688.97198779037
 21
-11950.82026719979
  0
LINE
  5
C2
100
AcDbEntity
  8
DIM
  6
CONTINUOUS
 62
             7
100
AcDbLine
 10
-20694.471987790381
 20
-11952.32026719979
 11
-20688.971987790381
 21
-11952.32026719979
  0
LINE
  5
C1
100
AcDbEntity
  8
DIM
  6
CONTINUOUS
 62
             7
100
AcDbLine
 10
-20694.471987790381
 20
-11935.58026719979
 11
-20688.97198779037
 21
-11935.58026719979
  0
LINE
  5
C0
100
AcDbEntity
  8
DIM
  6
CONTINUOUS
 62
             7
100
AcDbLine
 10
-20694.471987790381
 20
-11937.08026719979
 11
-20688.97198779037
 21
-11937.08026719979
  0
LINE
  5
BF
100
AcDbEntity
  8
DIM
  6
CONTINUOUS
 62
             7
100
AcDbLine
 10
-20694.471987790381
 20
-11927.960267199791
 11
-20688.97198779037
 21
-11927.960267199791
  0
LINE
  5
BE
100
AcDbEntity
  8
DIM
  6
CONTINUOUS
 62
             7
100
AcDbLine
 10
-20694.471987790381
 20
-11929.460267199791
 11
-20688.97198779037
 21
-11929.460267199791
  0
LINE
  5
BD
100
AcDbEntity
  8
DIM
  6
CONTINUOUS
 62
             7
100
AcDbLine
 10
-20694.471987790381
 20
-11920.34026719979
 11
-20688.971987790381
 21
-11920.34026719979
  0
LINE
  5
BC
100
AcDbEntity
  8
DIM
  6
CONTINUOUS
 62
             7
100
AcDbLine
 10
-20694.471987790381
 20
-11921.84026719979
 11
-20688.97198779037
 21
-11921.84026719979
  0
LINE
  5
BB
100
AcDbEntity
  8
DIM
  6
CONTINUOUS
 62
             7
100
AcDbLine
 10
-20694.471987790381
 20
-11906.60026719979
 11
-20688.97198779037
 21
-11906.60026719979
  0
LINE
  5
BA
100
AcDbEntity
  8
DIM
  6
CONTINUOUS
 62
             7
100
AcDbLine
 10
-20694.471987790381
 20
-11912.720267199789
 11
-20688.97198779037
 21
-11912.720267199789
  0
LINE
  5
B9
100
AcDbEntity
  8
DIM
  6
CONTINUOUS
 62
             7
100
AcDbLine
 10
-20694.471987790381
 20
-11914.220267199789
 11
-20688.971987790381
 21
-11914.220267199789
  0
LINE
  5
B8
100
AcDbEntity
  8
DIM
  6
CONTINUOUS
 62
             7
100
AcDbLine
 10
-20694.471987790381
 20
-11897.48026719979
 11
-20688.97198779037
 21
-11897.48026719979
  0
LINE
  5
B7
100
AcDbEntity
  8
DIM
  6
CONTINUOUS
 62
             7
100
AcDbLine
 10
-20694.471987790381
 20
-11898.98026719979
 11
-20688.971987790381
 21
-11898.98026719979
  0
LINE
  5
B6
100
AcDbEntity
  8
DIM
  6
CONTINUOUS
 62
             7
100
AcDbLine
 10
-20694.471987790381
 20
-11905.10026719979
 11
-20688.971987790381
 21
-11905.10026719979
  0
LINE
  5
B5
100
AcDbEntity
  8
DIM
  6
CONTINUOUS
 62
             7
100
AcDbLine
 10
-20694.471987790381
 20
-11889.860267199791
 11
-20688.971987790381
 21
-11889.860267199791
  0
LINE
  5
B4
100
AcDbEntity
  8
DIM
  6
CONTINUOUS
 62
             7
100
AcDbLine
 10
-20694.471987790381
 20
-11891.360267199791
 11
-20688.97198779037
 21
-11891.360267199791
  0
LINE
  5
B3
100
AcDbEntity
  8
DIM
  6
CONTINUOUS
 62
             7
100
AcDbLine
 10
-20694.471987790381
 20
-11882.24026719979
 11
-20688.971987790381
 21
-11882.24026719979
  0
LINE
  5
B2
100
AcDbEntity
  8
DIM
  6
CONTINUOUS
 62
             7
100
AcDbLine
 10
-20694.471987790381
 20
-11883.74026719979
 11
-20688.971987790381
 21
-11883.74026719979
  0
LINE
  5
B1
100
AcDbEntity
  8
DIM
  6
CONTINUOUS
 62
             7
100
AcDbLine
 10
-20694.471987790381
 20
-11874.620267199791
 11
-20688.971987790381
 21
-11874.620267199791
  0
LINE
  5
B0
100
AcDbEntity
  8
DIM
  6
CONTINUOUS
 62
             7
100
AcDbLine
 10
-20694.471987790381
 20
-11876.120267199791
 11
-20688.971987790381
 21
-11876.120267199791
  0
LINE
  5
AF
100
AcDbEntity
  8
DIM
  6
CONTINUOUS
 62
             7
100
AcDbLine
 10
-20694.471987790381
 20
-11859.380267199789
 11
-20688.971987790381
 21
-11859.380267199789
  0
LINE
  5
AE
100
AcDbEntity
  8
DIM
  6
CONTINUOUS
 62
             7
100
AcDbLine
 10
-20694.471987790381
 20
-11860.880267199789
 11
-20688.971987790381
 21
-11860.880267199789
  0
LINE
  5
AD
100
AcDbEntity
  8
DIM
  6
CONTINUOUS
 62
             7
100
AcDbLine
 10
-20694.471987790381
 20
-11868.50026719979
 11
-20688.971987790381
 21
-11868.50026719979
  0
LINE
  5
AC
100
AcDbEntity
  8
DIM
  6
CONTINUOUS
 62
             7
100
AcDbLine
 10
-20694.471987790381
 20
-11867.00026719979
 11
-20688.971987790381
 21
-11867.00026719979
  0
LINE
  5
AB
100
AcDbEntity
  8
DIM
  6
CONTINUOUS
 62
             7
100
AcDbLine
 10
-20694.471987790381
 20
-11851.76026719979
 11
-20688.971987790381
 21
-11851.76026719979
  0
LINE
  5
AA
100
AcDbEntity
  8
DIM
  6
CONTINUOUS
 62
             7
100
AcDbLine
 10
-20694.471987790381
 20
-11853.26026719979
 11
-20688.971987790381
 21
-11853.26026719979
  0
LINE
  5
A9
100
AcDbEntity
  8
DIM
  6
CONTINUOUS
 62
             7
100
AcDbLine
 10
-20698.496620939401
 20
-11841.60026719979
 11
-20685.971987790381
 21
-11841.60026719979
  0
LINE
  5
A8
100
AcDbEntity
  8
DIM
  6
CONTINUOUS
 62
             7
100
AcDbLine
 10
-20704.471987790381
 20
-11845.640267199789
 11
-20688.971987790381
 21
-11845.640267199789
  0
LINE
  5
A7
100
AcDbEntity
  8
0
  6
CONTINUOUS
 62
             7
100
AcDbLine
 10
-20705.471987790381
 20
-11838.19526719979
 11
-20705.971987790381
 21
-11838.19526719979
  0
LINE
  5
A6
100
AcDbEntity
  8
0
  6
CONTINUOUS
 62
             7
100
AcDbLine
 10
-20704.471987790381
 20
-11838.69526719979
 11
-20705.971987790381
 21
-11838.69526719979
  0
LINE
  5
A5
100
AcDbEntity
  8
0
  6
CONTINUOUS
 62
             7
100
AcDbLine
 10
-20705.971987790381
 20
-11837.69526719979
 11
-20705.971987790381
 21
-11838.69526719979
  0
LINE
  5
A4
100
AcDbEntity
  8
0
  6
CONTINUOUS
 62
             7
100
AcDbLine
 10
-20705.471987790381
 20
-11838.19526719979
 11
-20705.471987790381
 21
-11838.69526719979
  0
LINE
  5
A3
100
AcDbEntity
  8
0
  6
CONTINUOUS
 62
             7
100
AcDbLine
 10
-20705.471987790381
 20
-11837.19526719979
 11
-20730.971987790381
 21
-11837.19526719979
  0
LINE
  5
A2
100
AcDbEntity
  8
0
  6
CONTINUOUS
 62
             7
100
AcDbLine
 10
-20705.471987790381
 20
-11969.69526719979
 11
-20705.471987790381
 21
-11969.19526719979
  0
LINE
  5
A1
100
AcDbEntity
  8
0
  6
CONTINUOUS
 62
             7
100
AcDbLine
 10
-20704.471987790381
 20
-11969.19526719979
 11
-20705.971987790381
 21
-11969.19526719979
  0
LINE
  5
A0
100
AcDbEntity
  8
0
  6
CONTINUOUS
 62
             7
100
AcDbLine
 10
-20705.471987790381
 20
-11969.69526719979
 11
-20705.971987790381
 21
-11969.69526719979
  0
LINE
  5
9F
100
AcDbEntity
  8
0
  6
CONTINUOUS
 62
             7
100
AcDbLine
 10
-20705.971987790381
 20
-11970.19526719979
 11
-20705.971987790381
 21
-11969.19526719979
  0
LINE
  5
9E
100
AcDbEntity
  8
0
  6
CONTINUOUS
 62
             7
100
AcDbLine
 10
-20705.471987790381
 20
-11970.69526719979
 11
-20730.971987790381
 21
-11970.69526719979
  0
LINE
  5
9D
100
AcDbEntity
  8
0
  6
CONTINUOUS
 62
             7
100
AcDbLine
 10
-20704.471987790381
 20
-11838.19526719979
 11
-20704.471987790381
 21
-11969.69526719979
  0
LINE
  5
9C
100
AcDbEntity
  8
0
  6
CONTINUOUS
 62
             7
100
AcDbLine
 10
-20729.971987790381
 20
-11837.19526719979
 11
-20729.971987790381
 21
-11843.60026719979
  0
LINE
  5
9B
100
AcDbEntity
  8
0
  6
CONTINUOUS
 62
             7
100
AcDbLine
 10
-20730.971987790381
 20
-11837.19526719979
 11
-20730.971987790381
 21
-11970.69526719979
  0
LINE
  5
9A
100
AcDbEntity
  8
0
  6
CONTINUOUS
 62
             7
100
AcDbLine
 10
-20880.371987790379
 20
-11831.94526719979
 11
-20891.571987790379
 21
-11831.94526719979
  0
LINE
  5
99
100
AcDbEntity
  8
0
  6
CONTINUOUS
 62
             7
100
AcDbLine
 10
-20880.371987790379
 20
-11975.94526719979
 11
-20891.571987790379
 21
-11975.94526719979
  0
LINE
  5
98
100
AcDbEntity
  8
0
  6
CONTINUOUS
 62
             7
100
AcDbLine
 10
-20730.971987790381
 20
-11836.69526719979
 11
-20730.971987790381
 21
-11971.19526719979
  0
LINE
  5
97
100
AcDbEntity
  8
0
  6
CONTINUOUS
 62
             7
100
AcDbLine
 10
-20880.371987790379
 20
-11974.44526719979
 11
-20880.371987790379
 21
-11975.94526719979
  0
LINE
  5
96
100
AcDbEntity
  8
0
  6
CONTINUOUS
 62
             7
100
AcDbLine
 10
-20870.971987790381
 20
-11831.94526719979
 11
-20870.971987790381
 21
-11975.94526719979
  0
LINE
  5
95
100
AcDbEntity
  8
0
  6
CONTINUOUS
 62
             7
100
AcDbLine
 10
-20880.371987790379
 20
-11831.94526719979
 11
-20880.371987790379
 21
-11975.94526719979
  0
LINE
  5
94
100
AcDbEntity
  8
0
  6
CONTINUOUS
 62
             7
100
AcDbLine
 10
-20870.971987790381
 20
-11835.69526719979
 11
-20731.971987790381
 21
-11835.69526719979
  0
LINE
  5
93
100
AcDbEntity
  8
0
  6
CONTINUOUS
 62
             7
100
AcDbLine
 10
-20731.971987790381
 20
-11972.19526719979
 11
-20870.971987790381
 21
-11972.19526719979
  0
LINE
  5
92
100
AcDbEntity
  8
0
  6
CONTINUOUS
 62
             7
100
AcDbLine
 10
-20870.971987790381
 20
-11831.94526719979
 11
-20892.571987790379
 21
-11831.94526719979
  0
LINE
  5
91
100
AcDbEntity
  8
0
  6
CONTINUOUS
 62
             7
100
AcDbLine
 10
-20870.971987790381
 20
-11975.94526719979
 11
-20892.571987790379
 21
-11975.94526719979
  0
LINE
  5
90
100
AcDbEntity
  8
0
  6
CONTINUOUS
 62
             7
100
AcDbLine
 10
-20892.571987790379
 20
-11831.94526719979
 11
-20892.571987790379
 21
-11975.94526719979
  0
LINE
  5
8F
100
AcDbEntity
  8
1
  6
CONTINUOUS
 62
             7
100
AcDbLine
 10
-21109.3963870806
 20
-11831.94526719979
 11
-21114.596387080601
 21
-11831.94526719979
  0
LINE
  5
8E
100
AcDbEntity
  8
1
  6
CONTINUOUS
 62
             7
100
AcDbLine
 10
-21114.596387080601
 20
-11831.94526719979
 11
-21114.596387080601
 21
-11835.44526719979
  0
LINE
  5
8D
100
AcDbEntity
  8
1
  6
CONTINUOUS
 62
             7
100
AcDbLine
 10
-21110.096387080601
 20
-11836.94526719979
 11
-21110.096387080601
 21
-11835.44526719979
  0
LINE
  5
8C
100
AcDbEntity
  8
1
  6
CONTINUOUS
 62
             7
100
AcDbLine
 10
-21109.3963870806
 20
-11975.94526719979
 11
-21114.596387080601
 21
-11975.94526719979
  0
LINE
  5
8B
100
AcDbEntity
  8
1
  6
CONTINUOUS
 62
             7
100
AcDbLine
 10
-21114.596387080601
 20
-11972.44526719979
 11
-21114.596387080601
 21
-11975.94526719979
  0
LINE
  5
8A
100
AcDbEntity
  8
1
  6
CONTINUOUS
 62
             7
100
AcDbLine
 10
-20978.419336097479
 20
-11964.94526719979
 11
-20977.327504581499
 21
-11964.94526719979
  0
LINE
  5
89
100
AcDbEntity
  8
1
  6
CONTINUOUS
 62
             7
100
AcDbLine
 10
-20997.489314130471
 20
-11964.94526719979
 11
-20981.77343806373
 21
-11964.94526719979
  0
LINE
  5
88
100
AcDbEntity
  8
1
  6
CONTINUOUS
 62
             7
100
AcDbLine
 10
-21000.47183907231
 20
-11956.67803588718
 11
-21000.598833496198
 21
-11956.20408624489
  0
LINE
  5
87
100
AcDbEntity
  8
1
  6
CONTINUOUS
 62
             7
100
AcDbLine
 10
-20976.361578755201
 20
-11963.686448154691
 11
-20978.505172294648
 21
-11955.686448154691
  0
LINE
  5
86
100
AcDbEntity
  8
1
  6
CONTINUOUS
 62
             7
100
AcDbLine
 10
-20998.912100700669
 20
-11962.499058736639
 11
-20998.455239956758
 21
-11964.20408624489
  0
LINE
  5
85
100
AcDbEntity
  8
1
  6
CONTINUOUS
 62
             7
100
AcDbLine
 10
-20997.175166501729
 20
-11961.70954319167
 11
-20998.912100700669
 21
-11962.499058736639
  0
LINE
  5
84
100
AcDbEntity
  8
1
  6
CONTINUOUS
 62
             7
100
AcDbLine
 10
-21000.47183907231
 20
-11956.67803588718
 11
-20997.28954268539
 21
-11958.12453424486
  0
LINE
  5
83
100
AcDbEntity
  8
1
  6
CONTINUOUS
 62
             7
100
AcDbLine
 10
-20979.471098120939
 20
-11954.94526719979
 11
-20999.632907669911
 21
-11954.94526719979
  0
LINE
  5
82
100
AcDbEntity
  8
1
  6
CONTINUOUS
 62
             7
100
AcDbLine
 10
-21017.096387080612
 20
-11966.94526719979
 11
-21021.096387080612
 21
-11964.94526719979
  0
LINE
  5
81
100
AcDbEntity
  8
1
  6
CONTINUOUS
 62
             7
100
AcDbLine
 10
-21013.096387080612
 20
-11964.94526719979
 11
-21017.096387080612
 21
-11966.94526719979
  0
LINE
  5
80
100
AcDbEntity
  8
1
  6
CONTINUOUS
 62
             7
100
AcDbLine
 10
-21021.096387080612
 20
-11964.94526719979
 11
-21013.096387080612
 21
-11964.94526719979
  0
LINE
  5
7F
100
AcDbEntity
  8
1
  6
CONTINUOUS
 62
             7
100
AcDbLine
 10
-21019.096387080612
 20
-11963.94526719979
 11
-21020.096387080612
 21
-11964.44526719979
  0
LINE
  5
7E
100
AcDbEntity
  8
1
  6
CONTINUOUS
 62
             7
100
AcDbLine
 10
-21015.096387080612
 20
-11963.94526719979
 11
-21019.096387080612
 21
-11963.94526719979
  0
LINE
  5
7D
100
AcDbEntity
  8
1
  6
CONTINUOUS
 62
             7
100
AcDbLine
 10
-21014.096387080612
 20
-11964.44526719979
 11
-21015.096387080612
 21
-11963.94526719979
  0
LINE
  5
7C
100
AcDbEntity
  8
1
  6
CONTINUOUS
 62
             7
100
AcDbLine
 10
-21020.096387080612
 20
-11964.44526719979
 11
-21014.096387080612
 21
-11964.44526719979
  0
LINE
  5
7B
100
AcDbEntity
  8
1
  6
CONTINUOUS
 62
             7
100
AcDbLine
 10
-21014.096387080612
 20
-11955.44526719979
 11
-21020.096387080612
 21
-11955.44526719979
  0
LINE
  5
7A
100
AcDbEntity
  8
1
  6
CONTINUOUS
 62
             7
100
AcDbLine
 10
-21015.096387080612
 20
-11955.94526719979
 11
-21014.096387080612
 21
-11955.44526719979
  0
LINE
  5
79
100
AcDbEntity
  8
1
  6
CONTINUOUS
 62
             7
100
AcDbLine
 10
-21019.096387080612
 20
-11955.94526719979
 11
-21015.096387080612
 21
-11955.94526719979
  0
LINE
  5
78
100
AcDbEntity
  8
1
  6
CONTINUOUS
 62
             7
100
AcDbLine
 10
-21020.096387080612
 20
-11955.44526719979
 11
-21019.096387080612
 21
-11955.94526719979
  0
LINE
  5
77
100
AcDbEntity
  8
1
  6
CONTINUOUS
 62
             7
100
AcDbLine
 10
-21013.096387080612
 20
-11954.94526719979
 11
-21021.096387080612
 21
-11954.94526719979
  0
LINE
  5
76
100
AcDbEntity
  8
1
  6
CONTINUOUS
 62
             7
100
AcDbLine
 10
-21017.096387080612
 20
-11952.94526719979
 11
-21013.096387080612
 21
-11954.94526719979
  0
LINE
  5
75
100
AcDbEntity
  8
1
  6
CONTINUOUS
 62
             7
100
AcDbLine
 10
-21021.096387080612
 20
-11954.94526719979
 11
-21017.096387080612
 21
-11952.94526719979
  0
LINE
  5
74
100
AcDbEntity
  8
1
  6
CONTINUOUS
 62
             7
100
AcDbLine
 10
-21002.096387080612
 20
-11959.94526719979
 11
-21006.096387080612
 21
-11957.94526719979
  0
LINE
  5
73
100
AcDbEntity
  8
1
  6
CONTINUOUS
 62
             7
100
AcDbLine
 10
-21006.096387080612
 20
-11957.94526719979
 11
-21006.096387080612
 21
-11961.94526719979
  0
LINE
  5
72
100
AcDbEntity
  8
1
  6
CONTINUOUS
 62
             7
100
AcDbLine
 10
-21006.096387080612
 20
-11961.94526719979
 11
-21002.096387080612
 21
-11959.94526719979
  0
LINE
  5
71
100
AcDbEntity
  8
1
  6
CONTINUOUS
 62
             7
100
AcDbLine
 10
-21007.096387080612
 20
-11958.44526719979
 11
-21007.096387080612
 21
-11961.44526719979
  0
LINE
  5
70
100
AcDbEntity
  8
1
  6
CONTINUOUS
 62
             7
100
AcDbLine
 10
-21007.096387080612
 20
-11961.44526719979
 11
-21008.096387080612
 21
-11960.94526719979
  0
LINE
  5
6F
100
AcDbEntity
  8
1
  6
CONTINUOUS
 62
             7
100
AcDbLine
 10
-21008.096387080612
 20
-11958.94526719979
 11
-21007.096387080612
 21
-11958.44526719979
  0
LINE
  5
6E
100
AcDbEntity
  8
1
  6
CONTINUOUS
 62
             7
100
AcDbLine
 10
-21008.096387080612
 20
-11960.94526719979
 11
-21008.096387080612
 21
-11958.94526719979
  0
LINE
  5
6D
100
AcDbEntity
  8
1
  6
CONTINUOUS
 62
             7
100
AcDbLine
 10
-21026.096387080612
 20
-11960.94526719979
 11
-21027.096387080612
 21
-11961.44526719979
  0
LINE
  5
6C
100
AcDbEntity
  8
1
  6
CONTINUOUS
 62
             7
100
AcDbLine
 10
-21026.096387080612
 20
-11958.94526719979
 11
-21026.096387080612
 21
-11960.94526719979
  0
LINE
  5
6B
100
AcDbEntity
  8
1
  6
CONTINUOUS
 62
             7
100
AcDbLine
 10
-21027.096387080612
 20
-11958.44526719979
 11
-21026.096387080612
 21
-11958.94526719979
  0
LINE
  5
6A
100
AcDbEntity
  8
1
  6
CONTINUOUS
 62
             7
100
AcDbLine
 10
-21027.096387080612
 20
-11961.44526719979
 11
-21027.096387080612
 21
-11958.44526719979
  0
LINE
  5
69
100
AcDbEntity
  8
1
  6
CONTINUOUS
 62
             7
100
AcDbLine
 10
-21032.096387080612
 20
-11959.94526719979
 11
-21028.096387080612
 21
-11961.94526719979
  0
LINE
  5
68
100
AcDbEntity
  8
1
  6
CONTINUOUS
 62
             7
100
AcDbLine
 10
-21028.096387080612
 20
-11957.94526719979
 11
-21032.096387080612
 21
-11959.94526719979
  0
LINE
  5
67
100
AcDbEntity
  8
1
  6
CONTINUOUS
 62
             7
100
AcDbLine
 10
-21028.096387080612
 20
-11961.94526719979
 11
-21028.096387080612
 21
-11957.94526719979
  0
LINE
  5
66
100
AcDbEntity
  8
1
  6
CONTINUOUS
 62
             7
100
AcDbLine
 10
-21076.36526957971
 20
-11964.94526719979
 11
-21059.971098120928
 21
-11964.94526719979
  0
LINE
  5
65
100
AcDbEntity
  8
1
  6
CONTINUOUS
 62
             7
100
AcDbLine
 10
-21095.86526957971
 20
-11964.94526719979
 11
-21079.471098120928
 21
-11964.94526719979
  0
LINE
  5
64
100
AcDbEntity
  8
1
  6
CONTINUOUS
 62
             7
100
AcDbLine
 10
-21074.221676040259
 20
-11954.94526719979
 11
-21057.827504581492
 21
-11954.94526719979
  0
LINE
  5
63
100
AcDbEntity
  8
1
  6
CONTINUOUS
 62
             7
100
AcDbLine
 10
-21093.72167604027
 20
-11954.94526719979
 11
-21077.327504581492
 21
-11954.94526719979
  0
LINE
  5
62
100
AcDbEntity
  8
1
  6
CONTINUOUS
 62
             7
100
AcDbLine
 10
-21078.505172294648
 20
-11964.20408624489
 11
-21076.361578755201
 21
-11956.20408624489
  0
LINE
  5
61
100
AcDbEntity
  8
1
  6
CONTINUOUS
 62
             7
100
AcDbLine
 10
-21059.005172294648
 20
-11964.20408624489
 11
-21056.861578755201
 21
-11956.20408624489
  0
LINE
  5
60
100
AcDbEntity
  8
1
  6
CONTINUOUS
 62
             7
100
AcDbLine
 10
-21094.687601866561
 20
-11955.686448154691
 11
-21096.831195406008
 21
-11963.686448154691
  0
LINE
  5
5F
100
AcDbEntity
  8
1
  6
CONTINUOUS
 62
             7
100
AcDbLine
 10
-21075.187601866561
 20
-11955.686448154691
 11
-21077.331195406008
 21
-11963.686448154691
  0
LINE
  5
5E
100
AcDbEntity
  8
1
  6
CONTINUOUS
 62
             7
100
AcDbLine
 10
-21056.86526957971
 20
-11964.94526719979
 11
-21036.703460030731
 21
-11964.94526719979
  0
LINE
  5
5D
100
AcDbEntity
  8
1
  6
CONTINUOUS
 62
             7
100
AcDbLine
 10
-21055.687601866561
 20
-11955.686448154691
 11
-21057.831195406008
 21
-11963.686448154691
  0
LINE
  5
5C
100
AcDbEntity
  8
1
  6
CONTINUOUS
 62
             7
100
AcDbLine
 10
-21034.55986649129
 20
-11954.94526719979
 11
-21054.721676040259
 21
-11954.94526719979
  0
LINE
  5
5B
100
AcDbEntity
  8
1
  6
CONTINUOUS
 62
             7
100
AcDbLine
 10
-21033.720935088899
 20
-11956.67803588718
 11
-21033.59394066501
 21
-11956.20408624489
  0
LINE
  5
5A
100
AcDbEntity
  8
1
  6
CONTINUOUS
 62
             7
100
AcDbLine
 10
-21036.903231475819
 20
-11958.12453424486
 11
-21033.720935088899
 21
-11956.67803588718
  0
LINE
  5
59
100
AcDbEntity
  8
1
  6
CONTINUOUS
 62
             7
100
AcDbLine
 10
-21035.280673460551
 20
-11962.499058736639
 11
-21037.017607659469
 21
-11961.70954319167
  0
LINE
  5
58
100
AcDbEntity
  8
1
  6
CONTINUOUS
 62
             7
100
AcDbLine
 10
-21035.737534204451
 20
-11964.20408624489
 11
-21035.280673460551
 21
-11962.499058736639
  0
LINE
  5
57
100
AcDbEntity
  8
1
  6
CONTINUOUS
 62
             7
100
AcDbLine
 10
-21017.923992969208
 20
-11959.294468023751
 11
-21025.48942853152
 21
-11955.855633677251
  0
LINE
  5
56
100
AcDbEntity
  8
1
  6
CONTINUOUS
 62
             7
100
AcDbLine
 10
-21008.703345629699
 20
-11955.855633677251
 11
-21016.268781192
 21
-11959.294468023751
  0
LINE
  5
55
100
AcDbEntity
  8
1
  6
CONTINUOUS
 62
             7
100
AcDbLine
 10
-21016.268781192
 20
-11950.596066375831
 11
-21008.703345629699
 21
-11954.03490072233
  0
LINE
  5
54
100
AcDbEntity
  8
1
  6
CONTINUOUS
 62
             7
100
AcDbLine
 10
-21025.48942853152
 20
-11954.03490072233
 11
-21017.923992969208
 21
-11950.596066375831
  0
LINE
  5
53
100
AcDbEntity
  8
1
  6
CONTINUOUS
 62
             7
100
AcDbLine
 10
-21017.923992969208
 20
-11969.294468023751
 11
-21025.48942853152
 21
-11965.855633677251
  0
LINE
  5
52
100
AcDbEntity
  8
1
  6
CONTINUOUS
 62
             7
100
AcDbLine
 10
-21008.703345629699
 20
-11965.855633677251
 11
-21016.268781192
 21
-11969.294468023751
  0
LINE
  5
51
100
AcDbEntity
  8
1
  6
CONTINUOUS
 62
             7
100
AcDbLine
 10
-21016.268781192
 20
-11960.596066375831
 11
-21008.703345629699
 21
-11964.03490072233
  0
LINE
  5
50
100
AcDbEntity
  8
1
  6
CONTINUOUS
 62
             7
100
AcDbLine
 10
-21025.48942853152
 20
-11964.03490072233
 11
-21017.923992969208
 21
-11960.596066375831
  0
LINE
  5
4F
100
AcDbEntity
  8
1
  6
CONTINUOUS
 62
             7
100
AcDbLine
 10
-21006.923992969208
 20
-11964.294468023751
 11
-21014.48942853152
 21
-11960.855633677251
  0
LINE
  5
4E
100
AcDbEntity
  8
1
  6
CONTINUOUS
 62
             7
100
AcDbLine
 10
-20997.703345629699
 20
-11960.855633677251
 11
-21005.268781192
 21
-11964.294468023751
  0
LINE
  5
4D
100
AcDbEntity
  8
1
  6
CONTINUOUS
 62
             7
100
AcDbLine
 10
-21005.268781192
 20
-11955.596066375831
 11
-20997.703345629699
 21
-11959.03490072233
  0
LINE
  5
4C
100
AcDbEntity
  8
1
  6
CONTINUOUS
 62
             7
100
AcDbLine
 10
-21014.48942853152
 20
-11959.03490072233
 11
-21006.923992969208
 21
-11955.596066375831
  0
LINE
  5
4B
100
AcDbEntity
  8
1
  6
CONTINUOUS
 62
             7
100
AcDbLine
 10
-21028.923992969208
 20
-11964.294468023751
 11
-21036.48942853152
 21
-11960.855633677251
  0
LINE
  5
4A
100
AcDbEntity
  8
1
  6
CONTINUOUS
 62
             7
100
AcDbLine
 10
-21019.703345629699
 20
-11960.855633677251
 11
-21027.268781192
 21
-11964.294468023751
  0
LINE
  5
49
100
AcDbEntity
  8
1
  6
CONTINUOUS
 62
             7
100
AcDbLine
 10
-21027.268781192
 20
-11955.596066375831
 11
-21019.703345629699
 21
-11959.03490072233
  0
LINE
  5
48
100
AcDbEntity
  8
1
  6
CONTINUOUS
 62
             7
100
AcDbLine
 10
-21036.48942853152
 20
-11959.03490072233
 11
-21028.923992969208
 21
-11955.596066375831
  0
LINE
  5
47
100
AcDbEntity
  8
0
  6
CONTINUOUS
 62
             7
100
AcDbLine
 10
-20970.246387080599
 20
-11948.095267199789
 11
-21102.946387080599
 21
-11948.095267199789
  0
LINE
  5
46
100
AcDbEntity
  8
0
  6
CONTINUOUS
 62
             7
100
AcDbLine
 10
-20970.246387080599
 20
-11971.79526719979
 11
-21102.946387080599
 21
-11971.79526719979
  0
LINE
  5
45
100
AcDbEntity
  8
0
  6
CONTINUOUS
 62
             7
100
AcDbLine
 10
-21103.946387080599
 20
-11949.095267199789
 11
-21103.946387080599
 21
-11970.79526719979
  0
LINE
  5
44
100
AcDbEntity
  8
0
  6
CONTINUOUS
 62
             7
100
AcDbLine
 10
-20969.246387080599
 20
-11949.095267199789
 11
-20969.246387080599
 21
-11970.79526719979
  0
LINE
  5
43
100
AcDbEntity
  8
1
  6
CONTINUOUS
 62
             7
100
AcDbLine
 10
-21095.8287489904
 20
-11959.94526719979
 11
-21096.995701725489
 21
-11959.94526719979
  0
LINE
  5
42
100
AcDbEntity
  8
1
  6
CONTINUOUS
 62
             7
100
AcDbLine
 10
-21097.902009512509
 20
-11960.522648938049
 11
-21100.933009290518
 21
-11967.022648938049
  0
LINE
  5
41
100
AcDbEntity
  8
1
  6
CONTINUOUS
 62
             7
100
AcDbLine
 10
-21100.026701503481
 20
-11968.44526719979
 11
-21019.792234781919
 21
-11968.44526719979
  0
LINE
  5
40
100
AcDbEntity
  8
1
  6
CONTINUOUS
 62
             7
100
AcDbLine
 10
-21014.400539379301
 20
-11968.44526719979
 11
-20973.166072657728
 21
-11968.44526719979
  0
LINE
  5
3F
100
AcDbEntity
  8
1
  6
CONTINUOUS
 62
             7
100
AcDbLine
 10
-20972.25976487068
 20
-11967.022648938049
 11
-20975.290764648689
 21
-11960.522648938049
  0
LINE
  5
3E
100
AcDbEntity
  8
1
  6
CONTINUOUS
 62
             7
100
AcDbLine
 10
-20976.197072435731
 20
-11959.94526719979
 11
-20977.364025170809
 21
-11959.94526719979
  0
LINE
  5
3D
100
AcDbEntity
  8
1
  6
CONTINUOUS
 62
             7
100
AcDbLine
 10
-21077.364025170809
 20
-11959.94526719979
 11
-21076.3287489904
 21
-11959.94526719979
  0
LINE
  5
3C
100
AcDbEntity
  8
1
  6
CONTINUOUS
 62
             7
100
AcDbLine
 10
-21057.864025170809
 20
-11959.94526719979
 11
-21056.8287489904
 21
-11959.94526719979
  0
LINE
  5
3B
100
AcDbEntity
  8
1
  6
CONTINUOUS
 62
             7
100
AcDbLine
 10
-21038.0756255872
 20
-11959.94526719979
 11
-21037.0756255872
 21
-11959.94526719979
  0
LINE
  5
3A
100
AcDbEntity
  8
1
  6
CONTINUOUS
 62
             7
100
AcDbLine
 10
-21019.117148574009
 20
-11959.94526719979
 11
-21015.0756255872
 21
-11959.94526719979
  0
LINE
  5
39
100
AcDbEntity
  8
1
  6
CONTINUOUS
 62
             7
100
AcDbLine
 10
-20997.117148574009
 20
-11959.94526719979
 11
-20996.117148574001
 21
-11959.94526719979
  0
POINT
  5
38
100
AcDbEntity
  8
DIM
 62
             7
100
AcDbPoint
 10
-20740.971987790381
 20
-11984.44526719979
  0
POINT
  5
37
100
AcDbEntity
  8
DIM
 62
             7
100
AcDbPoint
 10
-20740.971987790381
 20
-11823.44526719979
  0
POINT
  5
36
100
AcDbEntity
  8
DIM
 62
             7
100
AcDbPoint
 10
-20955.596387080601
 20
-11975.94526719979
  0
POINT
  5
35
100
AcDbEntity
  8
DIM
 62
             7
100
AcDbPoint
 10
-20955.596387080601
 20
-11831.94526719979
  0
POINT
  5
34
100
AcDbEntity
  8
DIM
 62
             7
100
AcDbPoint
 10
-20731.971987790381
 20
-11972.19526719979
  0
POINT
  5
33
100
AcDbEntity
  8
DIM
 62
             7
100
AcDbPoint
 10
-20731.971987790381
 20
-11835.69526719979
  0
POINT
  5
32
100
AcDbEntity
  8
DIM
 62
             7
100
AcDbPoint
 10
-20685.971987790381
 20
-11966.290267199791
  0
POINT
  5
31
100
AcDbEntity
  8
DIM
 62
             7
100
AcDbPoint
 10
-20870.971987790381
 20
-11986.2850521237
  0
POINT
  5
30
100
AcDbEntity
  8
DIM
 62
             7
100
AcDbPoint
 10
-20730.971987790381
 20
-11971.19526719979
  0
POINT
  5
2F
100
AcDbEntity
  8
DIM
 62
             7
100
AcDbPoint
 10
-20870.971987790381
 20
-11986.2850521237
  0
POINT
  5
2E
100
AcDbEntity
  8
DIM
 62
             7
100
AcDbPoint
 10
-20870.971987790381
 20
-11986.2850521237
  0
POINT
  5
2D
100
AcDbEntity
  8
DIM
 62
             7
100
AcDbPoint
 10
-20954.596387080601
 20
-11974.94526719979
  0
POINT
  5
2C
100
AcDbEntity
  8
DIM
 62
             7
100
AcDbPoint
 10
-21114.596387080601
 20
-11975.94526719979
  0
POINT
  5
2B
100
AcDbEntity
  8
DIM
 62
             7
100
AcDbPoint
 10
-20892.571987790379
 20
-11975.94526719979
  0
ENDSEC
  0
SECTION
  2
OBJECTS
  0
DICTIONARY
  5
19
100
AcDbDictionary
  3
ACAD_GROUP
350
1A
  3
ACAD_MLINESTYLE
350
1B
  0
DICTIONARY
  5
1A
102
{ACAD_REACTORS
330
19
102
}
100
AcDbDictionary
  0
DICTIONARY
  5
1B
102
{ACAD_REACTORS
330
19
102
}
100
AcDbDictionary
  3
STANDARD
350
1C
  0
MLINESTYLE
  5
1C
102
{ACAD_REACTORS
330
1B
102
}
100
AcDbMlineStyle
  2
STANDARD
 70
             0
  3

 62
             0
 51
90.0
 52
90.0
 71
             2
 49
0.5
 62
           256
  6
BYLAYER
 49
-0.5
 62
           256
  6
BYLAYER
  0
ENDSEC
  0
EOF
