  0
SECTION
  2
HEADER
  9
$ACADVER
  1
AC1014
  9
$ACADMAINTVER
 70
             0
  9
$DWGCODEPAGE
  3
ANSI_1252
  9
$INSBASE
 10
0.0
 20
0.0
 30
0.0
  9
$EXTMIN
 10
1.00000000000000E+20
 20
1.00000000000000E+20
 30
1.00000000000000E+20
  9
$EXTMAX
 10
-1.00000000000000E+20
 20
-1.00000000000000E+20
 30
-1.00000000000000E+20
  9
$LIMMIN
 10
0.0
 20
0.0
  9
$LIMMAX
 10
0.0
 20
0.0
  9
$ORTHOMODE
 70
             0
  9
$REGENMODE
 70
             1
  9
$FILLMODE
 70
             1
  9
$QTEXTMODE
 70
             0
  9
$MIRRTEXT
 70
             1
  9
$DRAGMODE
 70
             2
  9
$LTSCALE
 40
1.0
  9
$OSMODE
 70
             0
  9
$ATTMODE
 70
             1
  9
$TEXTSIZE
 40
0.2
  9
$TRACEWID
 40
0.05
  9
$TEXTSTYLE
  7
STANDARD
  9
$CLAYER
  8
0
  9
$CELTYPE
  6
CONTINUOUS
  9
$CECOLOR
 62
           256
  9
$CELTSCALE
 40
1.0
  9
$DELOBJ
 70
             1
  9
$DISPSILH
 70
             0
  9
$DIMSCALE
 40
1.0
  9
$DIMASZ
 40
0.18
  9
$DIMEXO
 40
0.0625
  9
$DIMDLI
 40
0.38
  9
$DIMRND
 40
0.0
  9
$DIMDLE
 40
0.0
  9
$DIMEXE
 40
0.18
  9
$DIMTP
 40
0.0
  9
$DIMTM
 40
0.0
  9
$DIMTXT
 40
0.18
  9
$DIMCEN
 40
0.09
  9
$DIMTSZ
 40
0.0
  9
$DIMTOL
 70
             0
  9
$DIMLIM
 70
             0
  9
$DIMTIH
 70
             1
  9
$DIMTOH
 70
             1
  9
$DIMSE1
 70
             0
  9
$DIMSE2
 70
             0
  9
$DIMTAD
 70
             0
  9
$DIMZIN
 70
             0
  9
$DIMBLK
  1

  9
$DIMASO
 70
             1
  9
$DIMSHO
 70
             1
  9
$DIMPOST
  1

  9
$DIMAPOST
  1

  9
$DIMALT
 70
             0
  9
$DIMALTD
 70
             2
  9
$DIMALTF
 40
25.4
  9
$DIMLFAC
 40
1.0
  9
$DIMTOFL
 70
             0
  9
$DIMTVP
 40
0.0
  9
$DIMTIX
 70
             0
  9
$DIMSOXD
 70
             0
  9
$DIMSAH
 70
             0
  9
$DIMBLK1
  1

  9
$DIMBLK2
  1

  9
$DIMSTYLE
  2
STANDARD
  9
$DIMCLRD
 70
             0
  9
$DIMCLRE
 70
             0
  9
$DIMCLRT
 70
             0
  9
$DIMTFAC
 40
1.0
  9
$DIMGAP
 40
0.09
  9
$DIMJUST
 70
             0
  9
$DIMSD1
 70
             0
  9
$DIMSD2
 70
             0
  9
$DIMTOLJ
 70
             1
  9
$DIMTZIN
 70
             0
  9
$DIMALTZ
 70
             0
  9
$DIMALTTZ
 70
             0
  9
$DIMFIT
 70
             3
  9
$DIMUPT
 70
             0
  9
$DIMUNIT
 70
             2
  9
$DIMDEC
 70
             4
  9
$DIMTDEC
 70
             4
  9
$DIMALTU
 70
             2
  9
$DIMALTTD
 70
             2
  9
$DIMTXSTY
  7
STANDARD
  9
$DIMAUNIT
 70
             0
  9
$LUNITS
 70
             2
  9
$LUPREC
 70
             4
  9
$SKETCHINC
 40
0.1
  9
$FILLETRAD
 40
0.0
  9
$AUNITS
 70
             0
  9
$AUPREC
 70
             0
  9
$MENU
  1
acad
  9
$ELEVATION
 40
0.0
  9
$PELEVATION
 40
0.0
  9
$THICKNESS
 40
0.0
  9
$LIMCHECK
 70
             0
  9
$BLIPMODE
 70
             1
  9
$CHAMFERA
 40
0.0
  9
$CHAMFERB
 40
0.0
  9
$CHAMFERC
 40
0.0
  9
$CHAMFERD
 40
0.0
  9
$SKPOLY
 70
             0
  9
$TDCREATE
 40
0.000000000
  9
$TDUPDATE
 40
0.000000000
  9
$TDINDWG
 40
0.0000000000
  9
$TDUSRTIMER
 40
0.0000000000
  9
$USRTIMER
 70
             1
  9
$ANGBASE
 50
0.0
  9
$ANGDIR
 70
             0
  9
$PDMODE
 70
             0
  9
$PDSIZE
 40
0.0
  9
$PLINEWID
 40
0.0
  9
$COORDS
 70
             0
  9
$SPLFRAME
 70
             0
  9
$SPLINETYPE
 70
             6
  9
$SPLINESEGS
 70
             8
  9
$ATTDIA
 70
             0
  9
$ATTREQ
 70
             1
  9
$HANDLING
 70
             1
  9
$HANDSEED
  5
37F
  9
$SURFTAB1
 70
             6
  9
$SURFTAB2
 70
             6
  9
$SURFTYPE
 70
             6
  9
$SURFU
 70
             6
  9
$SURFV
 70
             6
  9
$UCSNAME
  2

  9
$UCSORG
 10
0.0
 20
0.0
 30
0.0
  9
$UCSXDIR
 10
1.0
 20
0.0
 30
0.0
  9
$UCSYDIR
 10
0.0
 20
1.0
 30
0.0
  9
$PUCSNAME
  2

  9
$PUCSORG
 10
0.0
 20
0.0
 30
0.0
  9
$PUCSXDIR
 10
1.0
 20
0.0
 30
0.0
  9
$PUCSYDIR
 10
0.0
 20
1.0
 30
0.0
  9
$USERI1
 70
             0
  9
$USERI2
 70
             0
  9
$USERI3
 70
             0
  9
$USERI4
 70
             0
  9
$USERI5
 70
             0
  9
$USERR1
 40
11.6
  9
$USERR2
 40
0.0
  9
$USERR3
 40
0.0
  9
$USERR4
 40
0.0
  9
$USERR5
 40
0.0
  9
$WORLDVIEW
 70
             1
  9
$SHADEDGE
 70
             3
  9
$SHADEDIF
 70
            70
  9
$TILEMODE
 70
             1
  9
$MAXACTVP
 70
            16
  9
$PINSBASE
 10
0.0
 20
0.0
 30
0.0
  9
$PLIMCHECK
 70
             0
  9
$PEXTMIN
 10
1.00000000000000E+20
 20
1.00000000000000E+20
 30
1.00000000000000E+20
  9
$PEXTMAX
 10
-1.00000000000000E+20
 20
-1.00000000000000E+20
 30
-1.00000000000000E+20
  9
$PLIMMIN
 10
0.0
 20
0.0
  9
$PLIMMAX
 10
12.0
 20
9.0
  9
$UNITMODE
 70
             0
  9
$VISRETAIN
 70
             0
  9
$PLINEGEN
 70
             1
  9
$PSLTSCALE
 70
             0
  9
$TREEDEPTH
 70
          3020
  9
$PICKSTYLE
 70
             1
  9
$CMLSTYLE
  2
STANDARD
  9
$CMLJUST
 70
             0
  9
$CMLSCALE
 40
1.0
  9
$PROXYGRAPHICS
 70
             0
  9
$MEASUREMENT
 70
             1
  0
ENDSEC
  0
SECTION
  2
CLASSES
  0
CLASS
  1
LWPOLYLINE
  2
AcDbPolyline
  3
"AutoCAD"
 90
        0
280
             0
281
             1
  0
CLASS
  1
IMAGE
  2
AcDbRasterImage
  3
ISM
 90
      127
280
             0
281
             1
  0
CLASS
  1
OLE2FRAME
  2
AcDbOle2Frame
  3
""
 90
        0
280
             0
281
             1
  0
CLASS
  1
HATCH
  2
AcDbHatch
  3
"ACAD_SEDONA"
 90
        0
280
             0
281
             1
  0
CLASS
  1
DICTIONARYVAR
  2
AcDbDictionaryVar
  3
"AutoCAD"
 90
        0
280
             0
281
             0
  0
CLASS
  1
RASTERVARIABLES
  2
AcDbRasterVariables
  3
ISM
 90
        0
280
             0
281
             0
  0
CLASS
  1
IMAGEDEF
  2
AcDbRasterImageDef
  3
ISM
 90
        0
280
             0
281
             0
  0
CLASS
  1
IMAGEDEF_REACTOR
  2
AcDbRasterImageDefReactor
  3
ISM
 90
        1
280
             0
281
             0
  0
CLASS
  1
IDBUFFER
  2
AcDbIdBuffer
  3
"Acad"
 90
        0
280
             0
281
             0
  0
CLASS
  1
SPATIAL_FILTER
  2
AcDbSpatialFilter
  3
"Acad"
 90
        0
280
             0
281
             0
  0
CLASS
  1
XRECORD
  2
AcDbXrecord
  3
"<Built In>"
 90
        0
280
             0
281
             0
  0
CLASS
  1
SORTENTSTABLE
  2
AcDbSortentsTable
  3
"AutoCAD"
 90
        0
280
             0
281
             0
  0
CLASS
  1
LAYER_INDEX
  2
AcDbLayerIndex
  3
"Acad"
 90
        0
280
             0
281
             0
  0
CLASS
  1
SPATIAL_INDEX
  2
AcDbSpatialIndex
  3
"Acad"
 90
        0
280
             0
281
             0
  0
CLASS
  1
OBJECT_PTR
  2
CAseDLPNTableRecord
  3
"ASE-LPNTableRecord"
 90
        1
280
             0
281
             0
  0
CLASS
  1
LAYOUT
  2
AcDbLayout
  3
"AutoCAD 2000"
 90
        1
280
             0
281
             0
  0
CLASS
  1
PLOTSETTINGS
  2
AcDbPlotSettings
  3
"AutoCAD 2000"
 90
        1
280
             0
281
             0
  0
CLASS
  1
ACDBDICTIONARYWDFLT
  2
AcDbDictionaryWithDefault
  3
"AutoCAD 2000"
 90
        1
280
             0
281
             0
  0
CLASS
  1
ACDBPLACEHOLDER
  2
AcDbPlaceHolder
  3
"AutoCAD 2000"
 90
        1
280
             0
281
             0
  0
ENDSEC
  0
SECTION
  2
TABLES
  0
TABLE
  2
VPORT
  5
7
100
AcDbSymbolTable
 70
             1
  0
VPORT
  5
15
100
AcDbSymbolTableRecord
100
AcDbViewportTableRecord
  2
*ACTIVE
 70
             0
 10
0.0
 20
0.0
 11
1.0
 21
1.0
 12
-32.6627489297133
 22
121.0120930232563
 13
0.0
 23
0.0
 14
1.0
 24
1.0
 15
0.0
 25
0.0
 16
0.0
 26
0.0
 36
1.0
 17
0.0
 27
0.0
 37
0.0
 40
139.32924791086359
 41
1.60267857142857
 42
50.0
 43
0.0
 44
0.0
 50
0.0
 51
0.0
 71
             0
 72
           100
 73
             1
 74
             1
 75
             0
 76
             0
 77
             0
 78
             0
  0
ENDTAB
  0
TABLE
  2
LTYPE
  5
4
100
AcDbSymbolTable
 70
            10
  0
LTYPE
  5
11
100
AcDbSymbolTableRecord
100
AcDbLinetypeTableRecord
  2
BYBLOCK
 70
            64
  3

 72
            65
 73
             0
 40
0.0
  0
LTYPE
  5
12
100
AcDbSymbolTableRecord
100
AcDbLinetypeTableRecord
  2
BYLAYER
 70
            64
  3

 72
            65
 73
             0
 40
0.0
  0
LTYPE
  5
13
100
AcDbSymbolTableRecord
100
AcDbLinetypeTableRecord
  2
CONTINUOUS
 70
            64
  3
Solid line
 72
            65
 73
             0
 40
0.0
  0
LTYPE
  5
1D
100
AcDbSymbolTableRecord
100
AcDbLinetypeTableRecord
  2
DASHED
 70
            64
  3
Dashed
 72
            65
 73
             2
 40
15.0
 49
12.0
 74
             0
 49
-3.0
 74
             0
  0
LTYPE
  5
1E
100
AcDbSymbolTableRecord
100
AcDbLinetypeTableRecord
  2
DOTTED
 70
            64
  3
Dotted
 72
            65
 73
             2
 40
3.5
 49
0.5
 74
             0
 49
-3.0
 74
             0
  0
LTYPE
  5
1F
100
AcDbSymbolTableRecord
100
AcDbLinetypeTableRecord
  2
DOT_CENTER
 70
            64
  3
Dot_Center
 72
            65
 73
             4
 40
2.0
 49
1.25
 74
             0
 49
-0.25
 74
             0
 49
0.25
 74
             0
 49
-0.25
 74
             0
  0
LTYPE
  5
20
100
AcDbSymbolTableRecord
100
AcDbLinetypeTableRecord
  2
LONG_DASHED
 70
            64
  3
Long_Dashed
 72
            65
 73
             2
 40
2.0
 49
1.5
 74
             0
 49
-0.5
 74
             0
  0
LTYPE
  5
21
100
AcDbSymbolTableRecord
100
AcDbLinetypeTableRecord
  2
DASH_CENTER
 70
            64
  3
Dash_Center
 72
            65
 73
             4
 40
36.0
 49
24.0
 74
             0
 49
-3.0
 74
             0
 49
6.0
 74
             0
 49
-3.0
 74
             0
  0
LTYPE
  5
22
100
AcDbSymbolTableRecord
100
AcDbLinetypeTableRecord
  2
PHANTOM
 70
            64
  3
Phantom
 72
            65
 73
             6
 40
2.5
 49
1.25
 74
             0
 49
-0.25
 74
             0
 49
0.25
 74
             0
 49
-0.25
 74
             0
 49
0.25
 74
             0
 49
-0.25
 74
             0
  0
LTYPE
  5
23
100
AcDbSymbolTableRecord
100
AcDbLinetypeTableRecord
  2
CENTER_DASH_DASH
 70
            64
  3
Center_Dash_Dash
 72
            65
 73
             6
 40
22.0
 49
12.0
 74
             0
 49
-3.0
 74
             0
 49
0.5
 74
             0
 49
-3.0
 74
             0
 49
0.5
 74
             0
 49
-3.0
 74
             0
  0
ENDTAB
  0
TABLE
  2
LAYER
  5
2
100
AcDbSymbolTable
 70
             2
  0
LAYER
  5
14
100
AcDbSymbolTableRecord
100
AcDbLayerTableRecord
  2
0
 70
             0
 62
             7
  6
CONTINUOUS
  0
LAYER
  5
24
100
AcDbSymbolTableRecord
100
AcDbLayerTableRecord
  2
1
 70
             0
 62
             7
  6
CONTINUOUS
  0
ENDTAB
  0
TABLE
  2
STYLE
  5
3
100
AcDbSymbolTable
 70
             1
  0
STYLE
  5
17
100
AcDbSymbolTableRecord
100
AcDbTextStyleTableRecord
  2
STANDARD
 70
             0
 40
0.0
 41
1.0
 50
0.0
 71
             0
 42
0.0
  3
txt
  4

  0
ENDTAB
  0
TABLE
  2
VIEW
  5
5
100
AcDbSymbolTable
 70
             0
  0
ENDTAB
  0
TABLE
  2
UCS
  5
6
100
AcDbSymbolTable
 70
             0
  0
ENDTAB
  0
TABLE
  2
APPID
  5
8
100
AcDbSymbolTable
 70
             1
  0
APPID
  5
16
100
AcDbSymbolTableRecord
100
AcDbRegAppTableRecord
  2
ACAD
 70
             0
  0
ENDTAB
  0
TABLE
  2
DIMSTYLE
  5
9
100
AcDbSymbolTable
 70
             1
  0
DIMSTYLE
105
18
100
AcDbSymbolTableRecord
100
AcDbDimStyleTableRecord
  2
STANDARD
 70
             0
  3

  4

  5

  6

  7

 40
1.0
 41
0.18
 42
0.0625
 43
0.38
 44
0.18
 45
0.0
 46
0.0
 47
0.0
 48
0.0
 71
             0
 72
             0
 73
             1
 74
             1
 75
             0
 76
             0
 77
             0
 78
             0
140
0.18
141
0.09
142
0.0
143
25.4
144
1.0
145
0.0
146
1.0
147
0.09
170
             0
171
             2
172
             0
173
             0
174
             0
175
             0
176
             0
177
             0
178
             0
270
             2
271
             4
272
             4
273
             2
274
             2
275
             0
280
             0
281
             0
282
             0
283
             1
284
             0
285
             0
286
             0
287
             0
288
             0
340
17
  0
ENDTAB
  0
TABLE
  2
BLOCK_RECORD
  5
1
100
AcDbSymbolTable
 70
             0
  0
BLOCK_RECORD
  5
A
100
AcDbSymbolTableRecord
100
AcDbBlockTableRecord
  2
*MODEL_SPACE
  0
BLOCK_RECORD
  5
B
100
AcDbSymbolTableRecord
100
AcDbBlockTableRecord
  2
*PAPER_SPACE
  0
ENDTAB
  0
ENDSEC
  0
SECTION
  2
BLOCKS
  0
BLOCK
  5
D
100
AcDbEntity
  8
0
100
AcDbBlockBegin
  2
*MODEL_SPACE
 70
             0
 10
0.0
 20
0.0
 30
0.0
  3
*MODEL_SPACE
  1

  0
ENDBLK
  5
E
100
AcDbEntity
  8
0
100
AcDbBlockEnd
  0
BLOCK
  5
F
100
AcDbEntity
 67
             1
  8
0
100
AcDbBlockBegin
  2
*PAPER_SPACE
 70
             0
 10
0.0
 20
0.0
 30
0.0
  3
*PAPER_SPACE
  1

  0
ENDBLK
  5
10
100
AcDbEntity
 67
             1
  8
0
100
AcDbBlockEnd
  0
ENDSEC
  0
SECTION
  2
ENTITIES
  0
ARC
  5
37D
100
AcDbEntity
  8
1
  6
CONTINUOUS
 62
             7
100
AcDbCircle
 10
-69.2627489297131
 20
151.5620930232563
 40
0.30000000000001
100
AcDbArc
 50
90.0
 51
180.0
  0
ARC
  5
37C
100
AcDbEntity
  8
1
  6
CONTINUOUS
 62
             7
100
AcDbCircle
 10
-64.06274892971328
 20
151.5620930232563
 40
0.30000000000018
100
AcDbArc
 50
0.0
 51
90.0
  0
ARC
  5
37B
100
AcDbEntity
  8
1
  6
CONTINUOUS
 62
             7
100
AcDbCircle
 10
-64.06274892971328
 20
146.36209302325631
 40
0.30000000000001
100
AcDbArc
 50
-90.0
 51
0.0
  0
ARC
  5
37A
100
AcDbEntity
  8
1
  6
CONTINUOUS
 62
             7
100
AcDbCircle
 10
-69.2627489297131
 20
146.36209302325631
 40
0.30000000000018
100
AcDbArc
 50
180.0
 51
-90.0
  0
ARC
  5
379
100
AcDbEntity
  8
1
  6
CONTINUOUS
 62
             7
100
AcDbCircle
 10
-69.2627489297131
 20
143.96209302325639
 40
0.30000000000001
100
AcDbArc
 50
90.0
 51
180.0
  0
ARC
  5
378
100
AcDbEntity
  8
1
  6
CONTINUOUS
 62
             7
100
AcDbCircle
 10
-64.06274892971328
 20
143.96209302325639
 40
0.30000000000018
100
AcDbArc
 50
0.0
 51
90.0
  0
ARC
  5
377
100
AcDbEntity
  8
1
  6
CONTINUOUS
 62
             7
100
AcDbCircle
 10
-64.06274892971328
 20
138.7620930232564
 40
0.30000000000001
100
AcDbArc
 50
-90.0
 51
0.0
  0
ARC
  5
376
100
AcDbEntity
  8
1
  6
CONTINUOUS
 62
             7
100
AcDbCircle
 10
-69.2627489297131
 20
138.7620930232564
 40
0.30000000000018
100
AcDbArc
 50
180.0
 51
-90.0
  0
ARC
  5
375
100
AcDbEntity
  8
1
  6
CONTINUOUS
 62
             7
100
AcDbCircle
 10
-69.2627489297131
 20
136.36209302325651
 40
0.29999999999998
100
AcDbArc
 50
90.0
 51
180.0
  0
ARC
  5
374
100
AcDbEntity
  8
1
  6
CONTINUOUS
 62
             7
100
AcDbCircle
 10
-64.06274892971328
 20
136.36209302325651
 40
0.30000000000018
100
AcDbArc
 50
0.0
 51
90.0
  0
ARC
  5
373
100
AcDbEntity
  8
1
  6
CONTINUOUS
 62
             7
100
AcDbCircle
 10
-64.06274892971328
 20
131.16209302325649
 40
0.29999999999998
100
AcDbArc
 50
-90.0
 51
0.0
  0
ARC
  5
372
100
AcDbEntity
  8
1
  6
CONTINUOUS
 62
             7
100
AcDbCircle
 10
-69.2627489297131
 20
131.16209302325649
 40
0.30000000000018
100
AcDbArc
 50
180.0
 51
-90.0
  0
ARC
  5
371
100
AcDbEntity
  8
1
  6
CONTINUOUS
 62
             7
100
AcDbCircle
 10
-69.2627489297131
 20
128.7620930232566
 40
0.30000000000001
100
AcDbArc
 50
90.0
 51
180.0
  0
ARC
  5
370
100
AcDbEntity
  8
1
  6
CONTINUOUS
 62
             7
100
AcDbCircle
 10
-64.06274892971328
 20
128.7620930232566
 40
0.30000000000018
100
AcDbArc
 50
0.0
 51
90.0
  0
ARC
  5
36F
100
AcDbEntity
  8
1
  6
CONTINUOUS
 62
             7
100
AcDbCircle
 10
-64.06274892971328
 20
123.56209302325659
 40
0.3
100
AcDbArc
 50
-90.0
 51
0.0
  0
ARC
  5
36E
100
AcDbEntity
  8
1
  6
CONTINUOUS
 62
             7
100
AcDbCircle
 10
-69.2627489297131
 20
123.56209302325659
 40
0.30000000000018
100
AcDbArc
 50
180.0
 51
-90.0
  0
ARC
  5
36D
100
AcDbEntity
  8
1
  6
CONTINUOUS
 62
             7
100
AcDbCircle
 10
-69.2627489297131
 20
121.1620930232567
 40
0.3
100
AcDbArc
 50
90.0
 51
180.0
  0
ARC
  5
36C
100
AcDbEntity
  8
1
  6
CONTINUOUS
 62
             7
100
AcDbCircle
 10
-64.06274892971328
 20
121.1620930232567
 40
0.30000000000018
100
AcDbArc
 50
0.0
 51
90.0
  0
ARC
  5
36B
100
AcDbEntity
  8
1
  6
CONTINUOUS
 62
             7
100
AcDbCircle
 10
-64.06274892971328
 20
115.9620930232567
 40
0.3
100
AcDbArc
 50
-90.0
 51
0.0
  0
ARC
  5
36A
100
AcDbEntity
  8
1
  6
CONTINUOUS
 62
             7
100
AcDbCircle
 10
-69.2627489297131
 20
115.9620930232567
 40
0.30000000000018
100
AcDbArc
 50
180.0
 51
-90.0
  0
ARC
  5
369
100
AcDbEntity
  8
1
  6
CONTINUOUS
 62
             7
100
AcDbCircle
 10
-127.7127489297132
 20
93.16209302325632
 40
0.30000000000021
100
AcDbArc
 50
180.0
 51
-90.0
  0
ARC
  5
368
100
AcDbEntity
  8
1
  6
CONTINUOUS
 62
             7
100
AcDbCircle
 10
-122.5127489297134
 20
93.16209302325632
 40
0.30000000000001
100
AcDbArc
 50
-90.0
 51
0.0
  0
ARC
  5
367
100
AcDbEntity
  8
1
  6
CONTINUOUS
 62
             7
100
AcDbCircle
 10
-122.5127489297134
 20
98.36209302325631
 40
0.3000000000002
100
AcDbArc
 50
0.0
 51
90.0
  0
ARC
  5
366
100
AcDbEntity
  8
1
  6
CONTINUOUS
 62
             7
100
AcDbCircle
 10
-127.7127489297132
 20
98.36209302325631
 40
0.30000000000001
100
AcDbArc
 50
90.0
 51
180.0
  0
ARC
  5
365
100
AcDbEntity
  8
1
  6
CONTINUOUS
 62
             7
100
AcDbCircle
 10
-127.7127489297132
 20
85.56209302325631
 40
0.30000000000021
100
AcDbArc
 50
180.0
 51
-90.0
  0
ARC
  5
364
100
AcDbEntity
  8
1
  6
CONTINUOUS
 62
             7
100
AcDbCircle
 10
-122.5127489297134
 20
85.56209302325631
 40
0.30000000000001
100
AcDbArc
 50
-90.0
 51
0.0
  0
ARC
  5
363
100
AcDbEntity
  8
1
  6
CONTINUOUS
 62
             7
100
AcDbCircle
 10
-122.5127489297134
 20
90.7620930232563
 40
0.3000000000002
100
AcDbArc
 50
0.0
 51
90.0
  0
ARC
  5
362
100
AcDbEntity
  8
1
  6
CONTINUOUS
 62
             7
100
AcDbCircle
 10
-127.7127489297132
 20
90.7620930232563
 40
0.30000000000001
100
AcDbArc
 50
90.0
 51
180.0
  0
ARC
  5
361
100
AcDbEntity
  8
1
  6
CONTINUOUS
 62
             7
100
AcDbCircle
 10
-127.7127489297132
 20
77.9620930232563
 40
0.30000000000021
100
AcDbArc
 50
180.0
 51
-90.0
  0
ARC
  5
360
100
AcDbEntity
  8
1
  6
CONTINUOUS
 62
             7
100
AcDbCircle
 10
-122.5127489297134
 20
77.9620930232563
 40
0.30000000000001
100
AcDbArc
 50
-90.0
 51
0.0
  0
ARC
  5
35F
100
AcDbEntity
  8
1
  6
CONTINUOUS
 62
             7
100
AcDbCircle
 10
-122.5127489297134
 20
83.16209302325629
 40
0.3000000000002
100
AcDbArc
 50
0.0
 51
90.0
  0
ARC
  5
35E
100
AcDbEntity
  8
1
  6
CONTINUOUS
 62
             7
100
AcDbCircle
 10
-127.7127489297132
 20
83.16209302325629
 40
0.30000000000001
100
AcDbArc
 50
90.0
 51
180.0
  0
ARC
  5
35D
100
AcDbEntity
  8
1
  6
CONTINUOUS
 62
             7
100
AcDbCircle
 10
-109.06274892971329
 20
122.9120930232563
 40
0.5
100
AcDbArc
 50
-90.0
 51
0.0
  0
ARC
  5
35C
100
AcDbEntity
  8
1
  6
CONTINUOUS
 62
             7
100
AcDbCircle
 10
-109.06274892971329
 20
147.11209302325631
 40
0.5
100
AcDbArc
 50
0.0
 51
90.0
  0
ARC
  5
35B
100
AcDbEntity
  8
1
  6
DOTTED
 62
             7
100
AcDbCircle
 10
63.3372510702867
 20
136.51209302325631
 40
2.0
100
AcDbArc
 50
180.0
 51
-90.0
  0
ARC
  5
35A
100
AcDbEntity
  8
1
  6
DOTTED
 62
             7
100
AcDbCircle
 10
63.3372510702867
 20
107.5120930232563
 40
2.0
100
AcDbArc
 50
90.0
 51
180.0
  0
ARC
  5
359
100
AcDbEntity
  8
1
  6
DOTTED
 62
             7
100
AcDbCircle
 10
67.8372510702867
 20
135.01209302325631
 40
1.0
100
AcDbArc
 50
0.0
 51
90.0
  0
ARC
  5
358
100
AcDbEntity
  8
1
  6
DOTTED
 62
             7
100
AcDbCircle
 10
67.8372510702867
 20
109.0120930232563
 40
1.0
100
AcDbArc
 50
-90.0
 51
0.0
  0
CIRCLE
  5
357
100
AcDbEntity
  8
1
  6
CONTINUOUS
 62
             7
100
AcDbCircle
 10
-66.6627489297133
 20
148.9620930232563
 40
2.75
  0
CIRCLE
  5
356
100
AcDbEntity
  8
1
  6
CONTINUOUS
 62
             7
100
AcDbCircle
 10
-66.6627489297133
 20
141.36209302325639
 40
2.75
  0
CIRCLE
  5
355
100
AcDbEntity
  8
1
  6
CONTINUOUS
 62
             7
100
AcDbCircle
 10
-66.6627489297133
 20
133.76209302325651
 40
2.75
  0
CIRCLE
  5
354
100
AcDbEntity
  8
1
  6
CONTINUOUS
 62
             7
100
AcDbCircle
 10
-66.6627489297133
 20
126.1620930232566
 40
2.75
  0
CIRCLE
  5
353
100
AcDbEntity
  8
1
  6
CONTINUOUS
 62
             7
100
AcDbCircle
 10
-66.6627489297133
 20
118.56209302325669
 40
2.75
  0
CIRCLE
  5
352
100
AcDbEntity
  8
1
  6
CONTINUOUS
 62
             7
100
AcDbCircle
 10
-125.1127489297134
 20
95.76209302325631
 40
2.75
  0
CIRCLE
  5
351
100
AcDbEntity
  8
1
  6
CONTINUOUS
 62
             7
100
AcDbCircle
 10
-125.1127489297134
 20
88.1620930232563
 40
2.75
  0
CIRCLE
  5
350
100
AcDbEntity
  8
1
  6
CONTINUOUS
 62
             7
100
AcDbCircle
 10
-125.1127489297134
 20
80.5620930232563
 40
2.75
  0
CIRCLE
  5
34F
100
AcDbEntity
  8
1
  6
CONTINUOUS
 62
             7
100
AcDbCircle
 10
-118.56274892971329
 20
160.01209302325631
 40
2.0
  0
CIRCLE
  5
34E
100
AcDbEntity
  8
1
  6
CONTINUOUS
 62
             7
100
AcDbCircle
 10
-118.56274892971329
 20
160.01209302325631
 40
4.75
  0
CIRCLE
  5
34D
100
AcDbEntity
  8
1
  6
CONTINUOUS
 62
             7
100
AcDbCircle
 10
-90.96274892971326
 20
168.51209302325631
 40
1.0
  0
CIRCLE
  5
34C
100
AcDbEntity
  8
1
  6
CONTINUOUS
 62
             7
100
AcDbCircle
 10
-90.96274892971326
 20
75.51209302325626
 40
1.0
  0
CIRCLE
  5
34B
100
AcDbEntity
  8
1
  6
CONTINUOUS
 62
             7
100
AcDbCircle
 10
-25.1627489297133
 20
82.01209302325628
 40
0.5
  0
CIRCLE
  5
34A
100
AcDbEntity
  8
1
  6
CONTINUOUS
 62
             7
100
AcDbCircle
 10
-25.1627489297133
 20
162.01209302325631
 40
0.5
  0
CIRCLE
  5
349
100
AcDbEntity
  8
1
  6
CONTINUOUS
 62
             7
100
AcDbCircle
 10
-66.96274892971326
 20
75.51209302325628
 40
2.25
  0
CIRCLE
  5
348
100
AcDbEntity
  8
1
  6
CONTINUOUS
 62
             7
100
AcDbCircle
 10
-66.96274892971326
 20
168.51209302325631
 40
2.25
  0
CIRCLE
  5
347
100
AcDbEntity
  8
1
  6
CONTINUOUS
 62
             7
100
AcDbCircle
 10
-125.1627489297133
 20
108.4120930232563
 40
2.25
  0
CIRCLE
  5
346
100
AcDbEntity
  8
1
  6
CONTINUOUS
 62
             7
100
AcDbCircle
 10
-125.1627489297133
 20
75.51209302325628
 40
2.25
  0
ARC
  5
345
100
AcDbEntity
  8
1
  6
CONTINUOUS
 62
             7
100
AcDbCircle
 10
-65.6627489297133
 20
164.51209302325631
 40
0.5
100
AcDbArc
 50
-90.0
 51
90.0
  0
ARC
  5
344
100
AcDbEntity
  8
1
  6
CONTINUOUS
 62
             7
100
AcDbCircle
 10
-67.6627489297133
 20
164.51209302325631
 40
0.5
100
AcDbArc
 50
90.0
 51
-90.0
  0
ARC
  5
343
100
AcDbEntity
  8
1
  6
CONTINUOUS
 62
             7
100
AcDbCircle
 10
-65.6627489297133
 20
161.51209302325631
 40
0.5
100
AcDbArc
 50
-90.0
 51
90.0
  0
ARC
  5
342
100
AcDbEntity
  8
1
  6
CONTINUOUS
 62
             7
100
AcDbCircle
 10
-67.6627489297133
 20
161.51209302325631
 40
0.5
100
AcDbArc
 50
90.0
 51
-90.0
  0
ARC
  5
341
100
AcDbEntity
  8
1
  6
CONTINUOUS
 62
             7
100
AcDbCircle
 10
-65.6627489297133
 20
158.51209302325631
 40
0.5
100
AcDbArc
 50
-90.0
 51
90.0
  0
ARC
  5
340
100
AcDbEntity
  8
1
  6
CONTINUOUS
 62
             7
100
AcDbCircle
 10
-67.6627489297133
 20
158.51209302325631
 40
0.5
100
AcDbArc
 50
90.0
 51
-90.0
  0
ARC
  5
33F
100
AcDbEntity
  8
1
  6
CONTINUOUS
 62
             7
100
AcDbCircle
 10
-65.6627489297133
 20
155.51209302325631
 40
0.5
100
AcDbArc
 50
-90.0
 51
90.0
  0
ARC
  5
33E
100
AcDbEntity
  8
1
  6
CONTINUOUS
 62
             7
100
AcDbCircle
 10
-67.6627489297133
 20
155.51209302325631
 40
0.5
100
AcDbArc
 50
90.0
 51
-90.0
  0
ARC
  5
33D
100
AcDbEntity
  8
1
  6
CONTINUOUS
 62
             7
100
AcDbCircle
 10
-61.6627489297133
 20
169.01209302325631
 40
1.0
100
AcDbArc
 50
0.0
 51
90.0
  0
ARC
  5
33C
100
AcDbEntity
  8
1
  6
CONTINUOUS
 62
             7
100
AcDbCircle
 10
-83.1627489297133
 20
169.01209302325631
 40
1.0
100
AcDbArc
 50
90.0
 51
180.0
  0
ARC
  5
33B
100
AcDbEntity
  8
1
  6
CONTINUOUS
 62
             7
100
AcDbCircle
 10
-83.1627489297133
 20
75.01209302325631
 40
1.0
100
AcDbArc
 50
180.0
 51
-90.0
  0
ARC
  5
33A
100
AcDbEntity
  8
1
  6
CONTINUOUS
 62
             7
100
AcDbCircle
 10
-61.6627489297133
 20
75.01209302325631
 40
1.0
100
AcDbArc
 50
-90.0
 51
0.0
  0
ARC
  5
339
100
AcDbEntity
  8
1
  6
CONTINUOUS
 62
             7
100
AcDbCircle
 10
-60.6627489297133
 20
82.01209302325631
 40
0.5
100
AcDbArc
 50
-90.0
 51
90.0
  0
ARC
  5
338
100
AcDbEntity
  8
1
  6
CONTINUOUS
 62
             7
100
AcDbCircle
 10
-60.6627489297133
 20
162.01209302325631
 40
0.5
100
AcDbArc
 50
-90.0
 51
90.0
  0
ARC
  5
337
100
AcDbEntity
  8
1
  6
CONTINUOUS
 62
             7
100
AcDbCircle
 10
-70.41274892971329
 20
71.5120930232563
 40
0.5
100
AcDbArc
 50
-90.0
 51
0.0
  0
ARC
  5
336
100
AcDbEntity
  8
1
  6
CONTINUOUS
 62
             7
100
AcDbCircle
 10
-73.91274892971329
 20
71.5120930232563
 40
0.5
100
AcDbArc
 50
180.0
 51
-90.0
  0
ARC
  5
335
100
AcDbEntity
  8
1
  6
CONTINUOUS
 62
             7
100
AcDbCircle
 10
-112.6627489297133
 20
71.51209302325631
 40
0.5
100
AcDbArc
 50
180.0
 51
-90.0
  0
ARC
  5
334
100
AcDbEntity
  8
1
  6
CONTINUOUS
 62
             7
100
AcDbCircle
 10
-103.6627489297133
 20
71.51209302325631
 40
0.5
100
AcDbArc
 50
-90.0
 51
0.0
  0
ARC
  5
333
100
AcDbEntity
  8
1
  6
CONTINUOUS
 62
             7
100
AcDbCircle
 10
-103.6627489297133
 20
71.51209302325631
 40
0.5
100
AcDbArc
 50
-90.0
 51
0.0
  0
ARC
  5
332
100
AcDbEntity
  8
1
  6
CONTINUOUS
 62
             7
100
AcDbCircle
 10
-131.1627489297133
 20
75.01209302325628
 40
1.0
100
AcDbArc
 50
180.0
 51
-90.0
  0
ARC
  5
331
100
AcDbEntity
  8
1
  6
CONTINUOUS
 62
             7
100
AcDbCircle
 10
-85.6627489297133
 20
169.01209302325631
 40
1.0
100
AcDbArc
 50
0.0
 51
90.0
  0
ARC
  5
330
100
AcDbEntity
  8
1
  6
CONTINUOUS
 62
             7
100
AcDbCircle
 10
-85.6627489297133
 20
75.01209302325628
 40
1.0
100
AcDbArc
 50
-90.0
 51
0.0
  0
ARC
  5
32F
100
AcDbEntity
  8
1
  6
CONTINUOUS
 62
             7
100
AcDbCircle
 10
-131.1627489297133
 20
169.01209302325631
 40
1.0
100
AcDbArc
 50
90.0
 51
180.0
  0
ARC
  5
32E
100
AcDbEntity
  8
1
  6
CONTINUOUS
 62
             7
100
AcDbCircle
 10
-84.6627489297133
 20
162.01209302325631
 40
0.5
100
AcDbArc
 50
-90.0
 51
90.0
  0
ARC
  5
32D
100
AcDbEntity
  8
1
  6
CONTINUOUS
 62
             7
100
AcDbCircle
 10
-84.6627489297133
 20
82.01209302325631
 40
0.5
100
AcDbArc
 50
-90.0
 51
90.0
  0
ARC
  5
32C
100
AcDbEntity
  8
1
  6
CONTINUOUS
 62
             7
100
AcDbCircle
 10
-90.4127489297133
 20
162.76209302325631
 40
0.74999999999991
100
AcDbArc
 50
-90.0
 51
90.0
  0
ARC
  5
32B
100
AcDbEntity
  8
1
  6
CONTINUOUS
 62
             7
100
AcDbCircle
 10
-91.9127489297133
 20
162.7620930232564
 40
0.75
100
AcDbArc
 50
90.0
 51
-90.0
  0
ARC
  5
32A
100
AcDbEntity
  8
1
  6
CONTINUOUS
 62
             7
100
AcDbCircle
 10
-90.4127489297133
 20
157.2620930232564
 40
0.75
100
AcDbArc
 50
-90.0
 51
90.0
  0
ARC
  5
329
100
AcDbEntity
  8
1
  6
CONTINUOUS
 62
             7
100
AcDbCircle
 10
-91.9127489297133
 20
157.2620930232564
 40
0.75
100
AcDbArc
 50
90.0
 51
-90.0
  0
ARC
  5
328
100
AcDbEntity
  8
1
  6
CONTINUOUS
 62
             7
100
AcDbCircle
 10
-84.6627489297133
 20
82.01209302325631
 40
0.5
100
AcDbArc
 50
-90.0
 51
90.0
  0
ARC
  5
327
100
AcDbEntity
  8
1
  6
CONTINUOUS
 62
             7
100
AcDbCircle
 10
-84.6627489297133
 20
162.01209302325631
 40
0.5
100
AcDbArc
 50
-90.0
 51
90.0
  0
ARC
  5
326
100
AcDbEntity
  8
1
  6
CONTINUOUS
 62
             7
100
AcDbCircle
 10
-34.6627489297133
 20
74.51209302325628
 40
0.5
100
AcDbArc
 50
180.0
 51
-90.0
  0
ARC
  5
325
100
AcDbEntity
  8
1
  6
CONTINUOUS
 62
             7
100
AcDbCircle
 10
-34.6627489297133
 20
169.51209302325631
 40
0.5
100
AcDbArc
 50
90.0
 51
180.0
  0
ARC
  5
324
100
AcDbEntity
  8
1
  6
CONTINUOUS
 62
             7
100
AcDbCircle
 10
59.8372510702867
 20
136.51209302325631
 40
1.50000000000001
100
AcDbArc
 50
-48.1896851042219
 51
48.18968510421901
  0
ARC
  5
323
100
AcDbEntity
  8
1
  6
CONTINUOUS
 62
             7
100
AcDbCircle
 10
-32.40186907133784
 20
150.71209302325619
 40
1.0
100
AcDbArc
 50
90.0
 51
163.04223669999115
  0
ARC
  5
322
100
AcDbEntity
  8
1
  6
CONTINUOUS
 62
             7
100
AcDbCircle
 10
-26.6627489297133
 20
148.96209302325619
 40
6.99999999999994
100
AcDbArc
 50
163.0422366999953
 51
-163.04223669999553
  0
ARC
  5
321
100
AcDbEntity
  8
1
  6
CONTINUOUS
 62
             7
100
AcDbCircle
 10
-32.40186907133784
 20
147.21209302325619
 40
0.99999999999989
100
AcDbArc
 50
-163.04223669999274
 51
-90.0
  0
ARC
  5
320
100
AcDbEntity
  8
1
  6
CONTINUOUS
 62
             7
100
AcDbCircle
 10
-32.40186907133784
 20
143.11209302325619
 40
1.0
100
AcDbArc
 50
90.0
 51
163.04223669999115
  0
ARC
  5
31F
100
AcDbEntity
  8
1
  6
CONTINUOUS
 62
             7
100
AcDbCircle
 10
-26.6627489297133
 20
141.36209302325619
 40
6.99999999999994
100
AcDbArc
 50
163.0422366999953
 51
-163.04223669999553
  0
ARC
  5
31E
100
AcDbEntity
  8
1
  6
CONTINUOUS
 62
             7
100
AcDbCircle
 10
-32.40186907133784
 20
139.61209302325619
 40
0.99999999999989
100
AcDbArc
 50
-163.04223669999274
 51
-90.0
  0
ARC
  5
31D
100
AcDbEntity
  8
1
  6
CONTINUOUS
 62
             7
100
AcDbCircle
 10
-32.40186907133784
 20
135.5120930232562
 40
1.0
100
AcDbArc
 50
90.0
 51
163.04223669999115
  0
ARC
  5
31C
100
AcDbEntity
  8
1
  6
CONTINUOUS
 62
             7
100
AcDbCircle
 10
-26.6627489297133
 20
133.7620930232562
 40
6.99999999999994
100
AcDbArc
 50
163.0422366999953
 51
-163.04223669999553
  0
ARC
  5
31B
100
AcDbEntity
  8
1
  6
CONTINUOUS
 62
             7
100
AcDbCircle
 10
-32.40186907133784
 20
132.0120930232562
 40
0.99999999999989
100
AcDbArc
 50
-163.04223669999274
 51
-90.0
  0
ARC
  5
31A
100
AcDbEntity
  8
1
  6
CONTINUOUS
 62
             7
100
AcDbCircle
 10
-32.40186907133784
 20
127.9120930232562
 40
1.0
100
AcDbArc
 50
90.0
 51
163.04223669999737
  0
ARC
  5
319
100
AcDbEntity
  8
1
  6
CONTINUOUS
 62
             7
100
AcDbCircle
 10
-26.6627489297133
 20
126.1620930232562
 40
6.9999999999999
100
AcDbArc
 50
163.04223669999618
 51
-163.04223669999541
  0
ARC
  5
318
100
AcDbEntity
  8
1
  6
CONTINUOUS
 62
             7
100
AcDbCircle
 10
-32.40186907133784
 20
124.4120930232562
 40
0.99999999999989
100
AcDbArc
 50
-163.04223669999195
 51
-90.0
  0
ARC
  5
317
100
AcDbEntity
  8
1
  6
CONTINUOUS
 62
             7
100
AcDbCircle
 10
-32.40186907133784
 20
120.3120930232562
 40
1.0
100
AcDbArc
 50
90.0
 51
163.04223669999737
  0
ARC
  5
316
100
AcDbEntity
  8
1
  6
CONTINUOUS
 62
             7
100
AcDbCircle
 10
-26.6627489297133
 20
118.5620930232562
 40
6.9999999999999
100
AcDbArc
 50
163.04223669999618
 51
-163.04223669999541
  0
ARC
  5
315
100
AcDbEntity
  8
1
  6
CONTINUOUS
 62
             7
100
AcDbCircle
 10
-32.40186907133784
 20
116.8120930232562
 40
0.99999999999989
100
AcDbArc
 50
-163.04223669999195
 51
-90.0
  0
ARC
  5
314
100
AcDbEntity
  8
1
  6
CONTINUOUS
 62
             7
100
AcDbCircle
 10
-32.40186907133784
 20
97.51209302325611
 40
1.0
100
AcDbArc
 50
90.0
 51
163.04223669999274
  0
ARC
  5
313
100
AcDbEntity
  8
1
  6
CONTINUOUS
 62
             7
100
AcDbCircle
 10
-26.6627489297133
 20
95.76209302325611
 40
6.99999999999993
100
AcDbArc
 50
163.04223669999553
 51
-163.04223669999553
  0
ARC
  5
312
100
AcDbEntity
  8
1
  6
CONTINUOUS
 62
             7
100
AcDbCircle
 10
-32.40186907133784
 20
94.01209302325611
 40
0.99999999999989
100
AcDbArc
 50
-163.04223669999274
 51
-90.0
  0
ARC
  5
311
100
AcDbEntity
  8
1
  6
CONTINUOUS
 62
             7
100
AcDbCircle
 10
-32.40186907133784
 20
89.91209302325611
 40
1.0
100
AcDbArc
 50
90.0
 51
163.04223669999348
  0
ARC
  5
310
100
AcDbEntity
  8
1
  6
CONTINUOUS
 62
             7
100
AcDbCircle
 10
-26.6627489297133
 20
88.16209302325611
 40
6.99999999999992
100
AcDbArc
 50
163.04223669999564
 51
-163.04223669999541
  0
ARC
  5
30F
100
AcDbEntity
  8
1
  6
CONTINUOUS
 62
             7
100
AcDbCircle
 10
-32.40186907133784
 20
86.41209302325611
 40
0.99999999999989
100
AcDbArc
 50
-163.04223669999195
 51
-90.0
  0
ARC
  5
30E
100
AcDbEntity
  8
1
  6
CONTINUOUS
 62
             7
100
AcDbCircle
 10
-32.40186907133784
 20
82.31209302325607
 40
1.0
100
AcDbArc
 50
90.0
 51
163.04223669999274
  0
ARC
  5
30D
100
AcDbEntity
  8
1
  6
CONTINUOUS
 62
             7
100
AcDbCircle
 10
-26.6627489297133
 20
80.56209302325607
 40
6.99999999999993
100
AcDbArc
 50
163.04223669999553
 51
-163.04223669999553
  0
ARC
  5
30C
100
AcDbEntity
  8
1
  6
CONTINUOUS
 62
             7
100
AcDbCircle
 10
-32.40186907133784
 20
78.81209302325607
 40
0.99999999999989
100
AcDbArc
 50
-163.04223669999274
 51
-90.0
  0
ARC
  5
30B
100
AcDbEntity
  8
1
  6
CONTINUOUS
 62
             7
100
AcDbCircle
 10
-36.85649501857299
 20
76.96209302325629
 40
0.8
100
AcDbArc
 50
90.0
 51
163.80864836138366
  0
ARC
  5
30A
100
AcDbEntity
  8
1
  6
CONTINUOUS
 62
             7
100
AcDbCircle
 10
-31.86274892971331
 20
75.51209302325628
 40
5.99999999999998
100
AcDbArc
 50
163.80864836138369
 51
-163.80864836138369
  0
ARC
  5
309
100
AcDbEntity
  8
1
  6
CONTINUOUS
 62
             7
100
AcDbCircle
 10
-36.85649501857299
 20
74.06209302325628
 40
0.79999999999984
100
AcDbArc
 50
-163.80864836138366
 51
-90.0
  0
ARC
  5
308
100
AcDbEntity
  8
1
  6
CONTINUOUS
 62
             7
100
AcDbCircle
 10
-36.85649501857299
 20
169.9620930232563
 40
0.80000000000001
100
AcDbArc
 50
90.0
 51
163.80864836138267
  0
ARC
  5
307
100
AcDbEntity
  8
1
  6
CONTINUOUS
 62
             7
100
AcDbCircle
 10
-31.86274892971331
 20
168.51209302325631
 40
5.99999999999998
100
AcDbArc
 50
163.80864836138369
 51
-163.80864836138343
  0
ARC
  5
306
100
AcDbEntity
  8
1
  6
CONTINUOUS
 62
             7
100
AcDbCircle
 10
-36.85649501857299
 20
167.0620930232563
 40
0.79999999999985
100
AcDbArc
 50
-163.80864836138267
 51
-90.0
  0
ARC
  5
305
100
AcDbEntity
  8
1
  6
CONTINUOUS
 62
             7
100
AcDbCircle
 10
-36.85649501857299
 20
106.9620930232563
 40
0.79999999999985
100
AcDbArc
 50
-163.8086483613817
 51
-90.0
  0
ARC
  5
304
100
AcDbEntity
  8
1
  6
CONTINUOUS
 62
             7
100
AcDbCircle
 10
-31.86274892971331
 20
108.4120930232563
 40
5.99999999999998
100
AcDbArc
 50
163.80864836138358
 51
-163.80864836138343
  0
ARC
  5
303
100
AcDbEntity
  8
1
  6
CONTINUOUS
 62
             7
100
AcDbCircle
 10
-36.85649501857299
 20
109.86209302325631
 40
0.8
100
AcDbArc
 50
90.0
 51
163.80864836138267
  0
LINE
  5
302
100
AcDbEntity
  8
1
  6
CONTINUOUS
 62
             7
100
AcDbLine
 10
-118.9627489297133
 20
124.61209302325631
 11
-118.9627489297133
 21
134.41209302325629
  0
LINE
  5
301
100
AcDbEntity
  8
1
  6
CONTINUOUS
 62
             7
100
AcDbLine
 10
-115.6627489297132
 20
131.01209302325631
 11
-120.9627489297133
 21
131.01209302325631
  0
LINE
  5
300
100
AcDbEntity
  8
1
  6
CONTINUOUS
 62
             7
100
AcDbLine
 10
-118.9627489297133
 20
130.76209302325631
 11
-120.9627489297133
 21
130.76209302325631
  0
LINE
  5
2FF
100
AcDbEntity
  8
1
  6
CONTINUOUS
 62
             7
100
AcDbLine
 10
-118.9627489297133
 20
131.26209302325631
 11
-120.9627489297133
 21
131.26209302325631
  0
LINE
  5
2FE
100
AcDbEntity
  8
1
  6
CONTINUOUS
 62
             7
100
AcDbLine
 10
-115.6627489297132
 20
129.01209302325631
 11
-120.9627489297133
 21
129.01209302325631
  0
LINE
  5
2FD
100
AcDbEntity
  8
1
  6
CONTINUOUS
 62
             7
100
AcDbLine
 10
-118.9627489297133
 20
128.76209302325631
 11
-120.9627489297133
 21
128.76209302325631
  0
LINE
  5
2FC
100
AcDbEntity
  8
1
  6
CONTINUOUS
 62
             7
100
AcDbLine
 10
-118.9627489297133
 20
129.26209302325631
 11
-120.9627489297133
 21
129.26209302325631
  0
LINE
  5
2FB
100
AcDbEntity
  8
1
  6
CONTINUOUS
 62
             7
100
AcDbLine
 10
-115.6627489297132
 20
128.01209302325631
 11
-120.9627489297133
 21
128.01209302325631
  0
LINE
  5
2FA
100
AcDbEntity
  8
1
  6
CONTINUOUS
 62
             7
100
AcDbLine
 10
-118.9627489297133
 20
127.7620930232563
 11
-120.9627489297133
 21
127.7620930232563
  0
LINE
  5
2F9
100
AcDbEntity
  8
1
  6
CONTINUOUS
 62
             7
100
AcDbLine
 10
-118.9627489297133
 20
128.26209302325631
 11
-120.9627489297133
 21
128.26209302325631
  0
LINE
  5
2F8
100
AcDbEntity
  8
1
  6
CONTINUOUS
 62
             7
100
AcDbLine
 10
-115.6627489297132
 20
130.01209302325631
 11
-120.9627489297133
 21
130.01209302325631
  0
LINE
  5
2F7
100
AcDbEntity
  8
1
  6
CONTINUOUS
 62
             7
100
AcDbLine
 10
-118.9627489297133
 20
129.76209302325631
 11
-120.9627489297133
 21
129.76209302325631
  0
LINE
  5
2F6
100
AcDbEntity
  8
1
  6
CONTINUOUS
 62
             7
100
AcDbLine
 10
-118.9627489297133
 20
130.26209302325631
 11
-120.9627489297133
 21
130.26209302325631
  0
LINE
  5
2F5
100
AcDbEntity
  8
1
  6
CONTINUOUS
 62
             7
100
AcDbLine
 10
-115.6627489297132
 20
127.0120930232563
 11
-120.9627489297133
 21
127.0120930232563
  0
LINE
  5
2F4
100
AcDbEntity
  8
1
  6
CONTINUOUS
 62
             7
100
AcDbLine
 10
-115.6627489297132
 20
132.01209302325631
 11
-120.9627489297133
 21
132.01209302325631
  0
LINE
  5
2F3
100
AcDbEntity
  8
1
  6
CONTINUOUS
 62
             7
100
AcDbLine
 10
-112.1627489297132
 20
124.61209302325631
 11
-118.9627489297133
 21
124.61209302325631
  0
LINE
  5
2F2
100
AcDbEntity
  8
1
  6
CONTINUOUS
 62
             7
100
AcDbLine
 10
-112.1627489297132
 20
134.41209302325629
 11
-118.9627489297133
 21
134.41209302325629
  0
LINE
  5
2F1
100
AcDbEntity
  8
1
  6
CONTINUOUS
 62
             7
100
AcDbLine
 10
-112.1627489297132
 20
126.2120930232563
 11
-110.56274892971319
 21
126.2120930232563
  0
LINE
  5
2F0
100
AcDbEntity
  8
1
  6
CONTINUOUS
 62
             7
100
AcDbLine
 10
-112.1627489297132
 20
132.8120930232563
 11
-110.56274892971319
 21
132.8120930232563
  0
LINE
  5
2EF
100
AcDbEntity
  8
1
  6
CONTINUOUS
 62
             7
100
AcDbLine
 10
-118.9627489297133
 20
126.7620930232563
 11
-120.9627489297133
 21
126.7620930232563
  0
LINE
  5
2EE
100
AcDbEntity
  8
1
  6
CONTINUOUS
 62
             7
100
AcDbLine
 10
-118.9627489297133
 20
127.2620930232563
 11
-120.9627489297133
 21
127.2620930232563
  0
LINE
  5
2ED
100
AcDbEntity
  8
1
  6
CONTINUOUS
 62
             7
100
AcDbLine
 10
-118.9627489297133
 20
131.76209302325631
 11
-120.9627489297133
 21
131.76209302325631
  0
LINE
  5
2EC
100
AcDbEntity
  8
1
  6
CONTINUOUS
 62
             7
100
AcDbLine
 10
-118.9627489297133
 20
132.26209302325631
 11
-120.9627489297133
 21
132.26209302325631
  0
LINE
  5
2EB
100
AcDbEntity
  8
1
  6
CONTINUOUS
 62
             7
100
AcDbLine
 10
-110.56274892971319
 20
126.2120930232563
 11
-110.56274892971319
 21
127.4120930232563
  0
LINE
  5
2EA
100
AcDbEntity
  8
1
  6
CONTINUOUS
 62
             7
100
AcDbLine
 10
-110.56274892971319
 20
127.4120930232563
 11
-108.9627489297133
 21
127.4120930232563
  0
LINE
  5
2E9
100
AcDbEntity
  8
1
  6
CONTINUOUS
 62
             7
100
AcDbLine
 10
-108.9627489297133
 20
131.61209302325631
 11
-110.56274892971319
 21
131.61209302325631
  0
LINE
  5
2E8
100
AcDbEntity
  8
1
  6
CONTINUOUS
 62
             7
100
AcDbLine
 10
-110.56274892971319
 20
131.61209302325631
 11
-110.56274892971319
 21
132.8120930232563
  0
LINE
  5
2E7
100
AcDbEntity
  8
1
  6
CONTINUOUS
 62
             7
100
AcDbLine
 10
-108.9627489297133
 20
127.4120930232563
 11
-108.9627489297133
 21
131.61209302325631
  0
LINE
  5
2E6
100
AcDbEntity
  8
1
  6
CONTINUOUS
 62
             7
100
AcDbLine
 10
-112.1627489297132
 20
126.2120930232563
 11
-112.1627489297132
 21
124.61209302325631
  0
LINE
  5
2E5
100
AcDbEntity
  8
1
  6
CONTINUOUS
 62
             7
100
AcDbLine
 10
-112.1627489297132
 20
132.8120930232563
 11
-112.1627489297132
 21
134.41209302325629
  0
LINE
  5
2E4
100
AcDbEntity
  8
1
  6
CONTINUOUS
 62
             7
100
AcDbLine
 10
-120.9627489297133
 20
127.2620930232563
 11
-120.9627489297133
 21
126.7620930232563
  0
LINE
  5
2E3
100
AcDbEntity
  8
1
  6
CONTINUOUS
 62
             7
100
AcDbLine
 10
-120.9627489297133
 20
128.26209302325631
 11
-120.9627489297133
 21
127.7620930232563
  0
LINE
  5
2E2
100
AcDbEntity
  8
1
  6
CONTINUOUS
 62
             7
100
AcDbLine
 10
-120.9627489297133
 20
129.26209302325631
 11
-120.9627489297133
 21
128.76209302325631
  0
LINE
  5
2E1
100
AcDbEntity
  8
1
  6
CONTINUOUS
 62
             7
100
AcDbLine
 10
-120.9627489297133
 20
130.26209302325631
 11
-120.9627489297133
 21
129.76209302325631
  0
LINE
  5
2E0
100
AcDbEntity
  8
1
  6
CONTINUOUS
 62
             7
100
AcDbLine
 10
-120.9627489297133
 20
131.26209302325631
 11
-120.9627489297133
 21
130.76209302325631
  0
LINE
  5
2DF
100
AcDbEntity
  8
1
  6
CONTINUOUS
 62
             7
100
AcDbLine
 10
-120.9627489297133
 20
132.26209302325631
 11
-120.9627489297133
 21
131.76209302325631
  0
LINE
  5
2DE
100
AcDbEntity
  8
1
  6
CONTINUOUS
 62
             7
100
AcDbLine
 10
-108.56274892971329
 20
148.01209302325631
 11
-108.56274892971329
 21
122.0120930232563
  0
LINE
  5
2DD
100
AcDbEntity
  8
1
  6
CONTINUOUS
 62
             2
100
AcDbLine
 10
-37.86254908707071
 20
73.26209302325628
 11
-37.86254908707071
 21
73.76209302325628
  0
LINE
  5
2DC
100
AcDbEntity
  8
1
  6
CONTINUOUS
 62
             7
100
AcDbLine
 10
-86.0127489297133
 20
171.01209302325631
 11
-82.81274892971331
 21
171.01209302325631
  0
LINE
  5
2DB
100
AcDbEntity
  8
1
  6
CONTINUOUS
 62
             7
100
AcDbLine
 10
-82.81274892971331
 20
172.01209302325631
 11
-82.81274892971331
 21
170.01209302325631
  0
LINE
  5
2DA
100
AcDbEntity
  8
1
  6
CONTINUOUS
 62
             7
100
AcDbLine
 10
-86.0127489297133
 20
172.01209302325631
 11
-82.81274892971331
 21
172.01209302325631
  0
LINE
  5
2D9
100
AcDbEntity
  8
1
  6
CONTINUOUS
 62
             7
100
AcDbLine
 10
-86.0127489297133
 20
170.01209302325631
 11
-86.0127489297133
 21
172.01209302325631
  0
LINE
  5
2D8
100
AcDbEntity
  8
1
  6
CONTINUOUS
 62
             7
100
AcDbLine
 10
-20.9127489297133
 20
171.01209302325631
 11
-20.9127489297133
 21
170.01209302325631
  0
LINE
  5
2D7
100
AcDbEntity
  8
1
  6
CONTINUOUS
 62
             7
100
AcDbLine
 10
-20.4627489297133
 20
171.01209302325631
 11
-20.9127489297133
 21
171.01209302325631
  0
LINE
  5
2D6
100
AcDbEntity
  8
1
  6
CONTINUOUS
 62
             7
100
AcDbLine
 10
-20.4627489297133
 20
172.01209302325631
 11
-20.4627489297133
 21
171.01209302325631
  0
LINE
  5
2D5
100
AcDbEntity
  8
1
  6
CONTINUOUS
 62
             7
100
AcDbLine
 10
-25.8627489297133
 20
172.01209302325631
 11
-20.4627489297133
 21
172.01209302325631
  0
LINE
  5
2D4
100
AcDbEntity
  8
1
  6
CONTINUOUS
 62
             7
100
AcDbLine
 10
-25.8627489297133
 20
171.01209302325631
 11
-25.8627489297133
 21
172.01209302325631
  0
LINE
  5
2D3
100
AcDbEntity
  8
1
  6
CONTINUOUS
 62
             7
100
AcDbLine
 10
-25.4127489297133
 20
171.01209302325631
 11
-25.8627489297133
 21
171.01209302325631
  0
LINE
  5
2D2
100
AcDbEntity
  8
1
  6
CONTINUOUS
 62
             7
100
AcDbLine
 10
-25.4127489297133
 20
170.01209302325631
 11
-25.4127489297133
 21
171.01209302325631
  0
LINE
  5
2D1
100
AcDbEntity
  8
1
  6
CONTINUOUS
 62
             7
100
AcDbLine
 10
-65.46274892971326
 20
166.8350420401315
 11
-65.46274892971326
 21
166.51209302325631
  0
LINE
  5
2D0
100
AcDbEntity
  8
1
  6
CONTINUOUS
 62
             7
100
AcDbLine
 10
-67.99352533611767
 20
166.51209302325631
 11
-74.1627489297133
 21
166.51209302325631
  0
LINE
  5
2CF
100
AcDbEntity
  8
1
  6
CONTINUOUS
 62
             7
100
AcDbLine
 10
-68.46274892971326
 20
166.8350420401315
 11
-68.46274892971326
 21
166.51209302325631
  0
LINE
  5
2CE
100
AcDbEntity
  8
1
  6
CONTINUOUS
 62
             7
100
AcDbLine
 10
-68.6397999128381
 20
170.01209302325631
 11
-132.1627489297133
 21
170.01209302325631
  0
LINE
  5
2CD
100
AcDbEntity
  8
1
  6
CONTINUOUS
 62
             7
100
AcDbLine
 10
-68.46274892971337
 20
77.51209302325631
 11
-68.46274892971337
 21
77.18914400638103
  0
LINE
  5
2CC
100
AcDbEntity
  8
1
  6
CONTINUOUS
 62
             7
100
AcDbLine
 10
-65.28569794658839
 20
74.01209302325631
 11
-60.16274892971331
 21
74.01209302325631
  0
LINE
  5
2CB
100
AcDbEntity
  8
1
  6
CONTINUOUS
 62
             7
100
AcDbLine
 10
-65.9319725233089
 20
77.51209302325631
 11
-60.6627489297133
 21
77.51209302325631
  0
LINE
  5
2CA
100
AcDbEntity
  8
1
  6
CONTINUOUS
 62
             7
100
AcDbLine
 10
-65.46274892971337
 20
77.51209302325631
 11
-65.46274892971337
 21
77.18914400638123
  0
LINE
  5
2C9
100
AcDbEntity
  8
1
  6
CONTINUOUS
 62
             7
100
AcDbLine
 10
-124.4994239716422
 20
77.66209302325629
 11
-122.5127489297134
 21
77.66209302325629
  0
LINE
  5
2C8
100
AcDbEntity
  8
1
  6
CONTINUOUS
 62
             7
100
AcDbLine
 10
-124.1319725233089
 20
77.51209302325628
 11
-84.6627489297133
 21
77.51209302325628
  0
LINE
  5
2C7
100
AcDbEntity
  8
1
  6
CONTINUOUS
 62
             7
100
AcDbLine
 10
-123.4856979465884
 20
74.01209302325631
 11
-68.63979991283813
 21
74.01209302325631
  0
LINE
  5
2C6
100
AcDbEntity
  8
1
  6
CONTINUOUS
 62
             7
100
AcDbLine
 10
-123.6627489297133
 20
106.7350420401315
 11
-123.6627489297133
 21
106.4120930232563
  0
LINE
  5
2C5
100
AcDbEntity
  8
1
  6
CONTINUOUS
 62
             7
100
AcDbLine
 10
-126.1935253361177
 20
106.4120930232563
 11
-132.1627489297133
 21
106.4120930232563
  0
LINE
  5
2C4
100
AcDbEntity
  8
1
  6
CONTINUOUS
 62
             7
100
AcDbLine
 10
-126.6627489297133
 20
106.7350420401315
 11
-126.6627489297133
 21
106.4120930232563
  0
LINE
  5
2C3
100
AcDbEntity
  8
1
  6
CONTINUOUS
 62
             7
100
AcDbLine
 10
-126.8397999128382
 20
109.9120930232563
 11
-132.1627489297133
 21
109.9120930232563
  0
LINE
  5
2C2
100
AcDbEntity
  8
1
  6
CONTINUOUS
 62
             7
100
AcDbLine
 10
-69.86274892971329
 20
73.01209302325631
 11
-68.11274892971329
 21
73.01209302325631
  0
LINE
  5
2C1
100
AcDbEntity
  8
1
  6
CONTINUOUS
 62
             7
100
AcDbLine
 10
-68.11274892971329
 20
71.51209302325631
 11
-69.86274892971329
 21
71.51209302325628
  0
LINE
  5
2C0
100
AcDbEntity
  8
1
  6
CONTINUOUS
 62
             7
100
AcDbLine
 10
-68.11274892971329
 20
73.01209302325631
 11
-68.11274892971329
 21
71.51209302325631
  0
LINE
  5
2BF
100
AcDbEntity
  8
1
  6
CONTINUOUS
 62
             7
100
AcDbLine
 10
-74.36274892971329
 20
71.51209302325628
 11
-76.11274892971329
 21
71.51209302325631
  0
LINE
  5
2BE
100
AcDbEntity
  8
1
  6
CONTINUOUS
 62
             7
100
AcDbLine
 10
-76.11274892971329
 20
71.51209302325631
 11
-76.11274892971329
 21
73.01209302325631
  0
LINE
  5
2BD
100
AcDbEntity
  8
1
  6
CONTINUOUS
 62
             7
100
AcDbLine
 10
-76.11274892971329
 20
73.01209302325631
 11
-74.36274892971329
 21
73.01209302325631
  0
LINE
  5
2BC
100
AcDbEntity
  8
1
  6
CONTINUOUS
 62
             7
100
AcDbLine
 10
-63.7127489297132
 20
72.01209302325631
 11
-63.7127489297132
 21
74.01209302325631
  0
LINE
  5
2BB
100
AcDbEntity
  8
1
  6
CONTINUOUS
 62
             7
100
AcDbLine
 10
-65.7127489297132
 20
70.01209302325631
 11
-63.7127489297132
 21
72.01209302325631
  0
LINE
  5
2BA
100
AcDbEntity
  8
1
  6
CONTINUOUS
 62
             7
100
AcDbLine
 10
-65.7127489297132
 20
70.01209302325631
 11
-78.5127489297133
 21
70.01209302325631
  0
LINE
  5
2B9
100
AcDbEntity
  8
1
  6
CONTINUOUS
 62
             7
100
AcDbLine
 10
-78.5127489297133
 20
70.01209302325631
 11
-80.5127489297133
 21
72.01209302325631
  0
LINE
  5
2B8
100
AcDbEntity
  8
1
  6
CONTINUOUS
 62
             7
100
AcDbLine
 10
-80.5127489297133
 20
72.01209302325631
 11
-80.5127489297133
 21
74.01209302325631
  0
LINE
  5
2B7
100
AcDbEntity
  8
1
  6
CONTINUOUS
 62
             7
100
AcDbLine
 10
-134.1627489297133
 20
83.68707035030823
 11
-134.1627489297133
 21
86.33711569620451
  0
LINE
  5
2B6
100
AcDbEntity
  8
1
  6
CONTINUOUS
 62
             7
100
AcDbLine
 10
-132.1627489297133
 20
83.51209302325631
 11
-134.1627489297133
 21
83.68707035030823
  0
LINE
  5
2B5
100
AcDbEntity
  8
1
  6
CONTINUOUS
 62
             7
100
AcDbLine
 10
-134.1627489297133
 20
83.68707035030823
 11
-134.1627489297133
 21
86.33711569620451
  0
LINE
  5
2B4
100
AcDbEntity
  8
1
  6
CONTINUOUS
 62
             7
100
AcDbLine
 10
-132.1627489297133
 20
86.51209302325631
 11
-134.1627489297133
 21
86.33711569620451
  0
LINE
  5
2B3
100
AcDbEntity
  8
1
  6
CONTINUOUS
 62
             7
100
AcDbLine
 10
-134.1627489297133
 20
153.6870703503082
 11
-134.1627489297133
 21
156.33711569620451
  0
LINE
  5
2B2
100
AcDbEntity
  8
1
  6
CONTINUOUS
 62
             7
100
AcDbLine
 10
-132.1627489297133
 20
156.51209302325631
 11
-134.1627489297133
 21
156.33711569620451
  0
LINE
  5
2B1
100
AcDbEntity
  8
1
  6
CONTINUOUS
 62
             7
100
AcDbLine
 10
-132.1627489297133
 20
153.51209302325631
 11
-134.1627489297133
 21
153.6870703503082
  0
LINE
  5
2B0
100
AcDbEntity
  8
1
  6
CONTINUOUS
 62
             7
100
AcDbLine
 10
-69.2627489297131
 20
146.0620930232563
 11
-64.06274892971328
 21
146.0620930232563
  0
LINE
  5
2AF
100
AcDbEntity
  8
1
  6
CONTINUOUS
 62
             7
100
AcDbLine
 10
-69.56274892971328
 20
151.5620930232563
 11
-69.56274892971328
 21
146.36209302325631
  0
LINE
  5
2AE
100
AcDbEntity
  8
1
  6
CONTINUOUS
 62
             7
100
AcDbLine
 10
-64.06274892971328
 20
151.86209302325631
 11
-69.2627489297131
 21
151.86209302325631
  0
LINE
  5
2AD
100
AcDbEntity
  8
1
  6
CONTINUOUS
 62
             7
100
AcDbLine
 10
-63.7627489297131
 20
146.36209302325631
 11
-63.7627489297131
 21
151.5620930232563
  0
LINE
  5
2AC
100
AcDbEntity
  8
1
  6
CONTINUOUS
 62
             7
100
AcDbLine
 10
-74.1627489297133
 20
170.01209302325631
 11
-74.1627489297133
 21
74.01209302325631
  0
LINE
  5
2AB
100
AcDbEntity
  8
1
  6
CONTINUOUS
 62
             7
100
AcDbLine
 10
-67.6627489297133
 20
165.01209302325631
 11
-65.6627489297133
 21
165.01209302325631
  0
LINE
  5
2AA
100
AcDbEntity
  8
1
  6
CONTINUOUS
 62
             7
100
AcDbLine
 10
-65.6627489297133
 20
164.01209302325631
 11
-67.6627489297133
 21
164.01209302325631
  0
LINE
  5
2A9
100
AcDbEntity
  8
1
  6
CONTINUOUS
 62
             7
100
AcDbLine
 10
-67.6627489297133
 20
162.01209302325631
 11
-65.6627489297133
 21
162.01209302325631
  0
LINE
  5
2A8
100
AcDbEntity
  8
1
  6
CONTINUOUS
 62
             7
100
AcDbLine
 10
-65.6627489297133
 20
161.01209302325631
 11
-67.6627489297133
 21
161.01209302325631
  0
LINE
  5
2A7
100
AcDbEntity
  8
1
  6
CONTINUOUS
 62
             7
100
AcDbLine
 10
-67.6627489297133
 20
159.01209302325631
 11
-65.6627489297133
 21
159.01209302325631
  0
LINE
  5
2A6
100
AcDbEntity
  8
1
  6
CONTINUOUS
 62
             7
100
AcDbLine
 10
-65.6627489297133
 20
158.01209302325631
 11
-67.6627489297133
 21
158.01209302325631
  0
LINE
  5
2A5
100
AcDbEntity
  8
1
  6
CONTINUOUS
 62
             7
100
AcDbLine
 10
-67.6627489297133
 20
156.01209302325631
 11
-65.6627489297133
 21
156.01209302325631
  0
LINE
  5
2A4
100
AcDbEntity
  8
1
  6
CONTINUOUS
 62
             7
100
AcDbLine
 10
-65.6627489297133
 20
155.01209302325631
 11
-67.6627489297133
 21
155.01209302325631
  0
LINE
  5
2A3
100
AcDbEntity
  8
1
  6
CONTINUOUS
 62
             7
100
AcDbLine
 10
-62.6627489297133
 20
166.51209302325631
 11
-62.6627489297133
 21
153.51209302325631
  0
LINE
  5
2A2
100
AcDbEntity
  8
1
  6
CONTINUOUS
 62
             7
100
AcDbLine
 10
-62.6627489297133
 20
153.51209302325631
 11
-74.1627489297133
 21
153.51209302325631
  0
LINE
  5
2A1
100
AcDbEntity
  8
1
  6
CONTINUOUS
 62
             7
100
AcDbLine
 10
-82.6627489297133
 20
152.01209302325631
 11
-82.6627489297133
 21
77.51209302325631
  0
LINE
  5
2A0
100
AcDbEntity
  8
1
  6
CONTINUOUS
 62
             7
100
AcDbLine
 10
-62.9127489297133
 20
83.61209302325631
 11
-62.9127489297133
 21
77.51209302325631
  0
LINE
  5
29F
100
AcDbEntity
  8
1
  6
CONTINUOUS
 62
             7
100
AcDbLine
 10
-70.4127489297133
 20
83.61209302325631
 11
-70.4127489297133
 21
81.56209302325632
  0
LINE
  5
29E
100
AcDbEntity
  8
1
  6
CONTINUOUS
 62
             7
100
AcDbLine
 10
-70.9127489297133
 20
83.61209302325631
 11
-70.9127489297133
 21
77.51209302325631
  0
LINE
  5
29D
100
AcDbEntity
  8
1
  6
CONTINUOUS
 62
             7
100
AcDbLine
 10
-70.9127489297133
 20
91.21209302325632
 11
-70.9127489297133
 21
85.11209302325631
  0
LINE
  5
29C
100
AcDbEntity
  8
1
  6
CONTINUOUS
 62
             7
100
AcDbLine
 10
-70.4127489297133
 20
91.21209302325632
 11
-70.4127489297133
 21
85.11209302325631
  0
LINE
  5
29B
100
AcDbEntity
  8
1
  6
CONTINUOUS
 62
             7
100
AcDbLine
 10
-62.9127489297133
 20
91.21209302325632
 11
-62.9127489297133
 21
85.11209302325631
  0
LINE
  5
29A
100
AcDbEntity
  8
1
  6
CONTINUOUS
 62
             7
100
AcDbLine
 10
-70.9127489297133
 20
91.21209302325632
 11
-70.9127489297133
 21
85.11209302325631
  0
LINE
  5
299
100
AcDbEntity
  8
1
  6
CONTINUOUS
 62
             7
100
AcDbLine
 10
-70.9127489297133
 20
98.8120930232563
 11
-70.9127489297133
 21
92.71209302325632
  0
LINE
  5
298
100
AcDbEntity
  8
1
  6
CONTINUOUS
 62
             7
100
AcDbLine
 10
-70.4127489297133
 20
98.8120930232563
 11
-70.4127489297133
 21
92.71209302325632
  0
LINE
  5
297
100
AcDbEntity
  8
1
  6
CONTINUOUS
 62
             7
100
AcDbLine
 10
-62.9127489297133
 20
98.8120930232563
 11
-62.9127489297133
 21
92.71209302325632
  0
LINE
  5
296
100
AcDbEntity
  8
1
  6
CONTINUOUS
 62
             7
100
AcDbLine
 10
-70.9127489297133
 20
98.8120930232563
 11
-70.9127489297133
 21
92.71209302325632
  0
LINE
  5
295
100
AcDbEntity
  8
1
  6
CONTINUOUS
 62
             7
100
AcDbLine
 10
-70.9127489297133
 20
106.4120930232563
 11
-70.9127489297133
 21
100.3120930232563
  0
LINE
  5
294
100
AcDbEntity
  8
1
  6
CONTINUOUS
 62
             7
100
AcDbLine
 10
-70.4127489297133
 20
106.4120930232563
 11
-70.4127489297133
 21
100.3120930232563
  0
LINE
  5
293
100
AcDbEntity
  8
1
  6
CONTINUOUS
 62
             7
100
AcDbLine
 10
-62.9127489297133
 20
106.4120930232563
 11
-62.9127489297133
 21
100.3120930232563
  0
LINE
  5
292
100
AcDbEntity
  8
1
  6
CONTINUOUS
 62
             7
100
AcDbLine
 10
-70.9127489297133
 20
106.4120930232563
 11
-70.9127489297133
 21
100.3120930232563
  0
LINE
  5
291
100
AcDbEntity
  8
1
  6
CONTINUOUS
 62
             7
100
AcDbLine
 10
-70.9127489297133
 20
114.0120930232563
 11
-70.9127489297133
 21
107.9120930232563
  0
LINE
  5
290
100
AcDbEntity
  8
1
  6
CONTINUOUS
 62
             7
100
AcDbLine
 10
-70.4127489297133
 20
114.0120930232563
 11
-70.4127489297133
 21
107.9120930232563
  0
LINE
  5
28F
100
AcDbEntity
  8
1
  6
CONTINUOUS
 62
             7
100
AcDbLine
 10
-62.9127489297133
 20
114.0120930232563
 11
-62.9127489297133
 21
107.9120930232563
  0
LINE
  5
28E
100
AcDbEntity
  8
1
  6
CONTINUOUS
 62
             7
100
AcDbLine
 10
-70.9127489297133
 20
114.0120930232563
 11
-70.9127489297133
 21
107.9120930232563
  0
LINE
  5
28D
100
AcDbEntity
  8
1
  6
CONTINUOUS
 62
             7
100
AcDbLine
 10
-70.9127489297133
 20
121.61209302325631
 11
-70.9127489297133
 21
115.5120930232563
  0
LINE
  5
28C
100
AcDbEntity
  8
1
  6
CONTINUOUS
 62
             7
100
AcDbLine
 10
-70.4127489297133
 20
121.61209302325631
 11
-70.4127489297133
 21
115.5120930232563
  0
LINE
  5
28B
100
AcDbEntity
  8
1
  6
CONTINUOUS
 62
             7
100
AcDbLine
 10
-62.9127489297133
 20
121.61209302325631
 11
-62.9127489297133
 21
115.5120930232563
  0
LINE
  5
28A
100
AcDbEntity
  8
1
  6
CONTINUOUS
 62
             7
100
AcDbLine
 10
-70.9127489297133
 20
121.61209302325631
 11
-70.9127489297133
 21
115.5120930232563
  0
LINE
  5
289
100
AcDbEntity
  8
1
  6
CONTINUOUS
 62
             7
100
AcDbLine
 10
-70.9127489297133
 20
129.2120930232563
 11
-70.9127489297133
 21
123.11209302325631
  0
LINE
  5
288
100
AcDbEntity
  8
1
  6
CONTINUOUS
 62
             7
100
AcDbLine
 10
-70.4127489297133
 20
129.2120930232563
 11
-70.4127489297133
 21
123.11209302325631
  0
LINE
  5
287
100
AcDbEntity
  8
1
  6
CONTINUOUS
 62
             7
100
AcDbLine
 10
-62.9127489297133
 20
129.2120930232563
 11
-62.9127489297133
 21
123.11209302325631
  0
LINE
  5
286
100
AcDbEntity
  8
1
  6
CONTINUOUS
 62
             7
100
AcDbLine
 10
-70.9127489297133
 20
129.2120930232563
 11
-70.9127489297133
 21
123.11209302325631
  0
LINE
  5
285
100
AcDbEntity
  8
1
  6
CONTINUOUS
 62
             7
100
AcDbLine
 10
-70.9127489297133
 20
136.8120930232563
 11
-70.9127489297133
 21
130.7120930232563
  0
LINE
  5
284
100
AcDbEntity
  8
1
  6
CONTINUOUS
 62
             7
100
AcDbLine
 10
-70.4127489297133
 20
136.8120930232563
 11
-70.4127489297133
 21
130.7120930232563
  0
LINE
  5
283
100
AcDbEntity
  8
1
  6
CONTINUOUS
 62
             7
100
AcDbLine
 10
-62.9127489297133
 20
136.8120930232563
 11
-62.9127489297133
 21
130.7120930232563
  0
LINE
  5
282
100
AcDbEntity
  8
1
  6
CONTINUOUS
 62
             7
100
AcDbLine
 10
-70.9127489297133
 20
136.8120930232563
 11
-70.9127489297133
 21
130.7120930232563
  0
LINE
  5
281
100
AcDbEntity
  8
1
  6
CONTINUOUS
 62
             7
100
AcDbLine
 10
-70.9127489297133
 20
144.41209302325629
 11
-70.9127489297133
 21
138.31209302325641
  0
LINE
  5
280
100
AcDbEntity
  8
1
  6
CONTINUOUS
 62
             7
100
AcDbLine
 10
-70.4127489297133
 20
144.41209302325629
 11
-70.4127489297133
 21
138.31209302325641
  0
LINE
  5
27F
100
AcDbEntity
  8
1
  6
CONTINUOUS
 62
             7
100
AcDbLine
 10
-62.9127489297133
 20
144.41209302325629
 11
-62.9127489297133
 21
138.31209302325641
  0
LINE
  5
27E
100
AcDbEntity
  8
1
  6
CONTINUOUS
 62
             7
100
AcDbLine
 10
-70.9127489297133
 20
144.41209302325629
 11
-70.9127489297133
 21
138.31209302325641
  0
LINE
  5
27D
100
AcDbEntity
  8
1
  6
CONTINUOUS
 62
             7
100
AcDbLine
 10
-70.9127489297133
 20
152.0120930232562
 11
-70.9127489297133
 21
145.91209302325629
  0
LINE
  5
27C
100
AcDbEntity
  8
1
  6
CONTINUOUS
 62
             7
100
AcDbLine
 10
-70.4127489297133
 20
152.0120930232562
 11
-70.4127489297133
 21
145.91209302325629
  0
LINE
  5
27B
100
AcDbEntity
  8
1
  6
CONTINUOUS
 62
             7
100
AcDbLine
 10
-62.9127489297133
 20
152.0120930232562
 11
-62.9127489297133
 21
145.91209302325629
  0
LINE
  5
27A
100
AcDbEntity
  8
1
  6
CONTINUOUS
 62
             7
100
AcDbLine
 10
-70.9127489297133
 20
152.0120930232562
 11
-70.9127489297133
 21
145.91209302325629
  0
LINE
  5
279
100
AcDbEntity
  8
1
  6
CONTINUOUS
 62
             7
100
AcDbLine
 10
-72.6627489297133
 20
145.91209302325629
 11
-72.6627489297133
 21
144.41209302325629
  0
LINE
  5
278
100
AcDbEntity
  8
1
  6
CONTINUOUS
 62
             7
100
AcDbLine
 10
-73.1627489297133
 20
91.21209302325632
 11
-73.1627489297133
 21
85.11209302325631
  0
LINE
  5
277
100
AcDbEntity
  8
1
  6
CONTINUOUS
 62
             7
100
AcDbLine
 10
-73.1627489297133
 20
114.0120930232563
 11
-73.1627489297133
 21
107.9120930232563
  0
LINE
  5
276
100
AcDbEntity
  8
1
  6
CONTINUOUS
 62
             7
100
AcDbLine
 10
-70.4127489297133
 20
79.56209302325632
 11
-70.4127489297133
 21
77.51209302325631
  0
LINE
  5
275
100
AcDbEntity
  8
1
  6
CONTINUOUS
 62
             7
100
AcDbLine
 10
-70.4127489297133
 20
81.56209302325632
 11
-70.4127489297133
 21
79.56209302325632
  0
LINE
  5
274
100
AcDbEntity
  8
1
  6
CONTINUOUS
 62
             7
100
AcDbLine
 10
-60.6627489297133
 20
169.01209302325631
 11
-60.6627489297133
 21
75.01209302325631
  0
LINE
  5
273
100
AcDbEntity
  8
1
  6
CONTINUOUS
 62
             7
100
AcDbLine
 10
-84.1627489297133
 20
152.0120930232562
 11
-60.6627489297133
 21
152.01209302325631
  0
LINE
  5
272
100
AcDbEntity
  8
1
  6
CONTINUOUS
 62
             7
100
AcDbLine
 10
-74.1627489297133
 20
145.91209302325629
 11
-60.6627489297133
 21
145.91209302325629
  0
LINE
  5
271
100
AcDbEntity
  8
1
  6
CONTINUOUS
 62
             7
100
AcDbLine
 10
-74.1627489297133
 20
144.41209302325629
 11
-60.6627489297133
 21
144.41209302325629
  0
LINE
  5
270
100
AcDbEntity
  8
1
  6
CONTINUOUS
 62
             7
100
AcDbLine
 10
-72.6627489297133
 20
138.31209302325641
 11
-72.6627489297133
 21
136.81209302325641
  0
LINE
  5
26F
100
AcDbEntity
  8
1
  6
CONTINUOUS
 62
             7
100
AcDbLine
 10
-74.1627489297133
 20
138.31209302325641
 11
-60.6627489297133
 21
138.31209302325641
  0
LINE
  5
26E
100
AcDbEntity
  8
1
  6
CONTINUOUS
 62
             7
100
AcDbLine
 10
-74.1627489297133
 20
136.81209302325641
 11
-60.6627489297133
 21
136.81209302325641
  0
LINE
  5
26D
100
AcDbEntity
  8
1
  6
CONTINUOUS
 62
             7
100
AcDbLine
 10
-72.6627489297133
 20
130.71209302325639
 11
-72.6627489297133
 21
129.21209302325639
  0
LINE
  5
26C
100
AcDbEntity
  8
1
  6
CONTINUOUS
 62
             7
100
AcDbLine
 10
-74.1627489297133
 20
130.71209302325639
 11
-60.6627489297133
 21
130.71209302325639
  0
LINE
  5
26B
100
AcDbEntity
  8
1
  6
CONTINUOUS
 62
             7
100
AcDbLine
 10
-74.1627489297133
 20
129.21209302325639
 11
-60.6627489297133
 21
129.21209302325639
  0
LINE
  5
26A
100
AcDbEntity
  8
1
  6
CONTINUOUS
 62
             7
100
AcDbLine
 10
-72.6627489297133
 20
123.11209302325641
 11
-72.6627489297133
 21
121.61209302325641
  0
LINE
  5
269
100
AcDbEntity
  8
1
  6
CONTINUOUS
 62
             7
100
AcDbLine
 10
-74.1627489297133
 20
123.11209302325641
 11
-60.6627489297133
 21
123.11209302325641
  0
LINE
  5
268
100
AcDbEntity
  8
1
  6
CONTINUOUS
 62
             7
100
AcDbLine
 10
-74.1627489297133
 20
121.61209302325641
 11
-60.6627489297133
 21
121.61209302325641
  0
LINE
  5
267
100
AcDbEntity
  8
1
  6
CONTINUOUS
 62
             7
100
AcDbLine
 10
-72.6627489297133
 20
115.5120930232565
 11
-72.6627489297133
 21
114.0120930232565
  0
LINE
  5
266
100
AcDbEntity
  8
1
  6
CONTINUOUS
 62
             7
100
AcDbLine
 10
-74.1627489297133
 20
115.5120930232565
 11
-60.6627489297133
 21
115.5120930232565
  0
LINE
  5
265
100
AcDbEntity
  8
1
  6
CONTINUOUS
 62
             7
100
AcDbLine
 10
-72.6627489297133
 20
107.9120930232565
 11
-72.6627489297133
 21
106.4120930232565
  0
LINE
  5
264
100
AcDbEntity
  8
1
  6
CONTINUOUS
 62
             7
100
AcDbLine
 10
-74.1627489297133
 20
106.4120930232565
 11
-60.6627489297133
 21
106.4120930232565
  0
LINE
  5
263
100
AcDbEntity
  8
1
  6
CONTINUOUS
 62
             7
100
AcDbLine
 10
-72.6627489297133
 20
100.31209302325649
 11
-72.6627489297133
 21
98.81209302325652
  0
LINE
  5
262
100
AcDbEntity
  8
1
  6
CONTINUOUS
 62
             7
100
AcDbLine
 10
-74.1627489297133
 20
100.31209302325649
 11
-60.6627489297133
 21
100.31209302325649
  0
LINE
  5
261
100
AcDbEntity
  8
1
  6
CONTINUOUS
 62
             7
100
AcDbLine
 10
-74.1627489297133
 20
98.81209302325652
 11
-60.6627489297133
 21
98.81209302325652
  0
LINE
  5
260
100
AcDbEntity
  8
1
  6
CONTINUOUS
 62
             7
100
AcDbLine
 10
-72.6627489297133
 20
92.71209302325656
 11
-72.6627489297133
 21
91.21209302325656
  0
LINE
  5
25F
100
AcDbEntity
  8
1
  6
CONTINUOUS
 62
             7
100
AcDbLine
 10
-74.1627489297133
 20
92.71209302325656
 11
-60.6627489297133
 21
92.71209302325656
  0
LINE
  5
25E
100
AcDbEntity
  8
1
  6
CONTINUOUS
 62
             7
100
AcDbLine
 10
-72.6627489297133
 20
85.11209302325658
 11
-72.6627489297133
 21
83.61209302325656
  0
LINE
  5
25D
100
AcDbEntity
  8
1
  6
CONTINUOUS
 62
             7
100
AcDbLine
 10
-74.1627489297133
 20
83.61209302325631
 11
-60.6627489297133
 21
83.61209302325631
  0
LINE
  5
25C
100
AcDbEntity
  8
1
  6
CONTINUOUS
 62
             7
100
AcDbLine
 10
-74.1627489297133
 20
114.0120930232563
 11
-60.6627489297133
 21
114.0120930232563
  0
LINE
  5
25B
100
AcDbEntity
  8
1
  6
CONTINUOUS
 62
             7
100
AcDbLine
 10
-74.1627489297133
 20
107.9120930232563
 11
-60.6627489297133
 21
107.9120930232563
  0
LINE
  5
25A
100
AcDbEntity
  8
1
  6
CONTINUOUS
 62
             7
100
AcDbLine
 10
-74.1627489297133
 20
91.21209302325632
 11
-60.6627489297133
 21
91.21209302325632
  0
LINE
  5
259
100
AcDbEntity
  8
1
  6
CONTINUOUS
 62
             7
100
AcDbLine
 10
-74.1627489297133
 20
85.11209302325631
 11
-60.6627489297133
 21
85.11209302325631
  0
LINE
  5
258
100
AcDbEntity
  8
1
  6
CONTINUOUS
 62
             7
100
AcDbLine
 10
-84.1627489297133
 20
75.01209302325631
 11
-84.1627489297133
 21
169.01209302325631
  0
LINE
  5
257
100
AcDbEntity
  8
1
  6
CONTINUOUS
 62
             7
100
AcDbLine
 10
-62.6627489297133
 20
166.51209302325631
 11
-65.93197252330884
 21
166.51209302325631
  0
LINE
  5
256
100
AcDbEntity
  8
1
  6
CONTINUOUS
 62
             7
100
AcDbLine
 10
-62.1627489297133
 20
74.01209302325631
 11
-62.1627489297133
 21
170.01209302325631
  0
LINE
  5
255
100
AcDbEntity
  8
1
  6
CONTINUOUS
 62
             7
100
AcDbLine
 10
-84.1627489297133
 20
77.51209302325631
 11
-67.99352533611761
 21
77.51209302325631
  0
LINE
  5
254
100
AcDbEntity
  8
1
  6
CONTINUOUS
 62
             7
100
AcDbLine
 10
-67.79411977961178
 20
150.0934638731548
 11
-65.53137807981483
 21
147.8307221733578
  0
LINE
  5
253
100
AcDbEntity
  8
1
  6
CONTINUOUS
 62
             7
100
AcDbLine
 10
-68.60729257797631
 20
147.01754937499331
 11
-64.7182052814503
 21
150.90663667151929
  0
LINE
  5
252
100
AcDbEntity
  8
1
  6
CONTINUOUS
 62
             7
100
AcDbLine
 10
-69.2627489297131
 20
138.46209302325639
 11
-64.06274892971328
 21
138.46209302325639
  0
LINE
  5
251
100
AcDbEntity
  8
1
  6
CONTINUOUS
 62
             7
100
AcDbLine
 10
-69.56274892971328
 20
143.96209302325639
 11
-69.56274892971328
 21
138.7620930232564
  0
LINE
  5
250
100
AcDbEntity
  8
1
  6
CONTINUOUS
 62
             7
100
AcDbLine
 10
-64.06274892971328
 20
144.2620930232564
 11
-69.2627489297131
 21
144.2620930232564
  0
LINE
  5
24F
100
AcDbEntity
  8
1
  6
CONTINUOUS
 62
             7
100
AcDbLine
 10
-63.7627489297131
 20
138.7620930232564
 11
-63.7627489297131
 21
143.96209302325639
  0
LINE
  5
24E
100
AcDbEntity
  8
1
  6
CONTINUOUS
 62
             7
100
AcDbLine
 10
-67.79411977961178
 20
142.49346387315489
 11
-65.53137807981483
 21
140.23072217335789
  0
LINE
  5
24D
100
AcDbEntity
  8
1
  6
CONTINUOUS
 62
             7
100
AcDbLine
 10
-68.60729257797631
 20
139.4175493749934
 11
-64.7182052814503
 21
143.30663667151941
  0
LINE
  5
24C
100
AcDbEntity
  8
1
  6
CONTINUOUS
 62
             7
100
AcDbLine
 10
-69.2627489297131
 20
130.86209302325651
 11
-64.06274892971328
 21
130.86209302325651
  0
LINE
  5
24B
100
AcDbEntity
  8
1
  6
CONTINUOUS
 62
             7
100
AcDbLine
 10
-69.56274892971328
 20
136.36209302325651
 11
-69.56274892971328
 21
131.16209302325649
  0
LINE
  5
24A
100
AcDbEntity
  8
1
  6
CONTINUOUS
 62
             7
100
AcDbLine
 10
-64.06274892971328
 20
136.66209302325649
 11
-69.2627489297131
 21
136.66209302325649
  0
LINE
  5
249
100
AcDbEntity
  8
1
  6
CONTINUOUS
 62
             7
100
AcDbLine
 10
-63.7627489297131
 20
131.16209302325649
 11
-63.7627489297131
 21
136.36209302325651
  0
LINE
  5
248
100
AcDbEntity
  8
1
  6
CONTINUOUS
 62
             7
100
AcDbLine
 10
-67.79411977961178
 20
134.89346387315501
 11
-65.53137807981483
 21
132.63072217335801
  0
LINE
  5
247
100
AcDbEntity
  8
1
  6
CONTINUOUS
 62
             7
100
AcDbLine
 10
-68.60729257797631
 20
131.81754937499349
 11
-64.7182052814503
 21
135.7066366715195
  0
LINE
  5
246
100
AcDbEntity
  8
1
  6
CONTINUOUS
 62
             7
100
AcDbLine
 10
-69.2627489297131
 20
123.2620930232566
 11
-64.06274892971328
 21
123.2620930232566
  0
LINE
  5
245
100
AcDbEntity
  8
1
  6
CONTINUOUS
 62
             7
100
AcDbLine
 10
-69.56274892971328
 20
128.7620930232566
 11
-69.56274892971328
 21
123.56209302325659
  0
LINE
  5
244
100
AcDbEntity
  8
1
  6
CONTINUOUS
 62
             7
100
AcDbLine
 10
-64.06274892971328
 20
129.06209302325661
 11
-69.2627489297131
 21
129.06209302325661
  0
LINE
  5
243
100
AcDbEntity
  8
1
  6
CONTINUOUS
 62
             7
100
AcDbLine
 10
-63.7627489297131
 20
123.56209302325659
 11
-63.7627489297131
 21
128.7620930232566
  0
LINE
  5
242
100
AcDbEntity
  8
1
  6
CONTINUOUS
 62
             7
100
AcDbLine
 10
-67.79411977961178
 20
127.2934638731551
 11
-65.53137807981483
 21
125.0307221733581
  0
LINE
  5
241
100
AcDbEntity
  8
1
  6
CONTINUOUS
 62
             7
100
AcDbLine
 10
-68.60729257797631
 20
124.2175493749936
 11
-64.7182052814503
 21
128.1066366715196
  0
LINE
  5
240
100
AcDbEntity
  8
1
  6
CONTINUOUS
 62
             7
100
AcDbLine
 10
-69.2627489297131
 20
115.6620930232567
 11
-64.06274892971328
 21
115.6620930232567
  0
LINE
  5
23F
100
AcDbEntity
  8
1
  6
CONTINUOUS
 62
             7
100
AcDbLine
 10
-69.56274892971328
 20
121.1620930232567
 11
-69.56274892971328
 21
115.9620930232567
  0
LINE
  5
23E
100
AcDbEntity
  8
1
  6
CONTINUOUS
 62
             7
100
AcDbLine
 10
-64.06274892971328
 20
121.4620930232567
 11
-69.2627489297131
 21
121.4620930232567
  0
LINE
  5
23D
100
AcDbEntity
  8
1
  6
CONTINUOUS
 62
             7
100
AcDbLine
 10
-63.7627489297131
 20
115.9620930232567
 11
-63.7627489297131
 21
121.1620930232567
  0
LINE
  5
23C
100
AcDbEntity
  8
1
  6
CONTINUOUS
 62
             7
100
AcDbLine
 10
-67.79411977961178
 20
119.6934638731551
 11
-65.53137807981483
 21
117.43072217335821
  0
LINE
  5
23B
100
AcDbEntity
  8
1
  6
CONTINUOUS
 62
             7
100
AcDbLine
 10
-68.60729257797631
 20
116.6175493749937
 11
-64.7182052814503
 21
120.5066366715197
  0
LINE
  5
23A
100
AcDbEntity
  8
1
  6
CONTINUOUS
 62
             7
100
AcDbLine
 10
-69.91274892971329
 20
71.5120930232563
 11
-69.91274892971329
 21
74.0120930232563
  0
LINE
  5
239
100
AcDbEntity
  8
1
  6
CONTINUOUS
 62
             7
100
AcDbLine
 10
-70.41274892971329
 20
71.0120930232563
 11
-73.91274892971329
 21
71.0120930232563
  0
LINE
  5
238
100
AcDbEntity
  8
1
  6
CONTINUOUS
 62
             7
100
AcDbLine
 10
-74.41274892971329
 20
71.5120930232563
 11
-74.41274892971329
 21
74.0120930232563
  0
LINE
  5
237
100
AcDbEntity
  8
1
  6
CONTINUOUS
 62
             7
100
AcDbLine
 10
-101.7627489297133
 20
70.01209302325633
 11
-99.7627489297133
 21
72.01209302325633
  0
LINE
  5
236
100
AcDbEntity
  8
1
  6
CONTINUOUS
 62
             7
100
AcDbLine
 10
-101.7627489297133
 20
70.01209302325633
 11
-114.56274892971329
 21
70.01209302325633
  0
LINE
  5
235
100
AcDbEntity
  8
1
  6
CONTINUOUS
 62
             7
100
AcDbLine
 10
-114.56274892971329
 20
70.01209302325633
 11
-116.56274892971329
 21
72.01209302325633
  0
LINE
  5
234
100
AcDbEntity
  8
1
  6
CONTINUOUS
 62
             7
100
AcDbLine
 10
-103.6627489297133
 20
71.01209302325631
 11
-112.6627489297133
 21
71.01209302325631
  0
LINE
  5
233
100
AcDbEntity
  8
1
  6
CONTINUOUS
 62
             7
100
AcDbLine
 10
-113.1627489297133
 20
71.51209302325631
 11
-113.1627489297133
 21
74.01209302325631
  0
LINE
  5
232
100
AcDbEntity
  8
1
  6
CONTINUOUS
 62
             7
100
AcDbLine
 10
-103.1627489297133
 20
74.01209302325631
 11
-103.1627489297133
 21
71.51209302325631
  0
LINE
  5
231
100
AcDbEntity
  8
1
  6
CONTINUOUS
 62
             7
100
AcDbLine
 10
-116.56274892971329
 20
72.01209302325633
 11
-116.56274892971329
 21
74.01209302325631
  0
LINE
  5
230
100
AcDbEntity
  8
1
  6
CONTINUOUS
 62
             7
100
AcDbLine
 10
-99.7627489297133
 20
72.01209302325633
 11
-99.7627489297133
 21
74.01209302325631
  0
LINE
  5
22F
100
AcDbEntity
  8
1
  6
DOTTED
 62
             7
100
AcDbLine
 10
-132.1627489297133
 20
75.01209302325628
 11
-132.1627489297133
 21
74.01209302325631
  0
LINE
  5
22E
100
AcDbEntity
  8
1
  6
DOTTED
 62
             7
100
AcDbLine
 10
-131.1627489297133
 20
74.01209302325628
 11
-132.1627489297133
 21
74.01209302325631
  0
LINE
  5
22D
100
AcDbEntity
  8
1
  6
CONTINUOUS
 62
             7
100
AcDbLine
 10
-127.0572925779764
 20
93.81754937499332
 11
-123.1682052814504
 21
97.70663667151931
  0
LINE
  5
22C
100
AcDbEntity
  8
1
  6
CONTINUOUS
 62
             7
100
AcDbLine
 10
-126.24411977961191
 20
96.89346387315479
 11
-123.9813780798149
 21
94.63072217335784
  0
LINE
  5
22B
100
AcDbEntity
  8
1
  6
CONTINUOUS
 62
             7
100
AcDbLine
 10
-122.2127489297132
 20
93.16209302325632
 11
-122.2127489297132
 21
98.36209302325631
  0
LINE
  5
22A
100
AcDbEntity
  8
1
  6
CONTINUOUS
 62
             7
100
AcDbLine
 10
-122.5127489297134
 20
98.66209302325632
 11
-127.7127489297132
 21
98.66209302325632
  0
LINE
  5
229
100
AcDbEntity
  8
1
  6
CONTINUOUS
 62
             7
100
AcDbLine
 10
-128.01274892971341
 20
98.36209302325631
 11
-128.01274892971341
 21
93.16209302325632
  0
LINE
  5
228
100
AcDbEntity
  8
1
  6
CONTINUOUS
 62
             7
100
AcDbLine
 10
-127.7127489297132
 20
92.86209302325631
 11
-122.5127489297134
 21
92.86209302325631
  0
LINE
  5
227
100
AcDbEntity
  8
1
  6
CONTINUOUS
 62
             7
100
AcDbLine
 10
-127.0572925779764
 20
86.21754937499331
 11
-123.1682052814504
 21
90.1066366715193
  0
LINE
  5
226
100
AcDbEntity
  8
1
  6
CONTINUOUS
 62
             7
100
AcDbLine
 10
-126.24411977961191
 20
89.29346387315478
 11
-123.9813780798149
 21
87.03072217335783
  0
LINE
  5
225
100
AcDbEntity
  8
1
  6
CONTINUOUS
 62
             7
100
AcDbLine
 10
-122.2127489297132
 20
85.56209302325631
 11
-122.2127489297132
 21
90.7620930232563
  0
LINE
  5
224
100
AcDbEntity
  8
1
  6
CONTINUOUS
 62
             7
100
AcDbLine
 10
-122.5127489297134
 20
91.06209302325631
 11
-127.7127489297132
 21
91.06209302325631
  0
LINE
  5
223
100
AcDbEntity
  8
1
  6
CONTINUOUS
 62
             7
100
AcDbLine
 10
-128.01274892971341
 20
90.7620930232563
 11
-128.01274892971341
 21
85.56209302325631
  0
LINE
  5
222
100
AcDbEntity
  8
1
  6
CONTINUOUS
 62
             7
100
AcDbLine
 10
-127.7127489297132
 20
85.2620930232563
 11
-122.5127489297134
 21
85.2620930232563
  0
LINE
  5
221
100
AcDbEntity
  8
1
  6
CONTINUOUS
 62
             7
100
AcDbLine
 10
-127.0572925779764
 20
78.6175493749933
 11
-123.1682052814504
 21
82.50663667151929
  0
LINE
  5
220
100
AcDbEntity
  8
1
  6
CONTINUOUS
 62
             7
100
AcDbLine
 10
-126.24411977961191
 20
81.69346387315477
 11
-123.9813780798149
 21
79.43072217335782
  0
LINE
  5
21F
100
AcDbEntity
  8
1
  6
CONTINUOUS
 62
             7
100
AcDbLine
 10
-122.2127489297132
 20
77.9620930232563
 11
-122.2127489297132
 21
83.16209302325629
  0
LINE
  5
21E
100
AcDbEntity
  8
1
  6
CONTINUOUS
 62
             7
100
AcDbLine
 10
-122.5127489297134
 20
83.4620930232563
 11
-127.7127489297132
 21
83.4620930232563
  0
LINE
  5
21D
100
AcDbEntity
  8
1
  6
CONTINUOUS
 62
             7
100
AcDbLine
 10
-128.01274892971341
 20
83.16209302325629
 11
-128.01274892971341
 21
77.9620930232563
  0
LINE
  5
21C
100
AcDbEntity
  8
1
  6
CONTINUOUS
 62
             7
100
AcDbLine
 10
-127.7127489297132
 20
77.66209302325629
 11
-125.8260738877844
 21
77.66209302325629
  0
LINE
  5
21B
100
AcDbEntity
  8
1
  6
CONTINUOUS
 62
             7
100
AcDbLine
 10
-98.1627489297133
 20
166.51209302325631
 11
-86.6627489297133
 21
166.51209302325631
  0
LINE
  5
21A
100
AcDbEntity
  8
1
  6
CONTINUOUS
 62
             7
100
AcDbLine
 10
-86.11274892971335
 20
74.01209302325628
 11
-86.11274892971335
 21
170.01209302325631
  0
LINE
  5
219
100
AcDbEntity
  8
1
  6
CONTINUOUS
 62
             7
100
AcDbLine
 10
-112.4127489297134
 20
88.66209302325625
 11
-112.4127489297134
 21
88.16209302325625
  0
LINE
  5
218
100
AcDbEntity
  8
1
  6
CONTINUOUS
 62
             7
100
AcDbLine
 10
-117.4127489297134
 20
88.16209302325625
 11
-112.4127489297134
 21
88.16209302325625
  0
LINE
  5
217
100
AcDbEntity
  8
1
  6
CONTINUOUS
 62
             7
100
AcDbLine
 10
-112.4127489297134
 20
95.76209302325624
 11
-112.4127489297134
 21
95.26209302325623
  0
LINE
  5
216
100
AcDbEntity
  8
1
  6
CONTINUOUS
 62
             7
100
AcDbLine
 10
-117.4127489297134
 20
95.76209302325624
 11
-112.4127489297134
 21
95.76209302325624
  0
LINE
  5
215
100
AcDbEntity
  8
1
  6
CONTINUOUS
 62
             7
100
AcDbLine
 10
-117.4127489297134
 20
80.56209302325624
 11
-115.4127489297134
 21
80.56209302325624
  0
LINE
  5
214
100
AcDbEntity
  8
1
  6
CONTINUOUS
 62
             7
100
AcDbLine
 10
-115.4127489297134
 20
80.56209302325624
 11
-115.4127489297134
 21
82.56209302325624
  0
LINE
  5
213
100
AcDbEntity
  8
1
  6
CONTINUOUS
 62
             7
100
AcDbLine
 10
-115.4127489297134
 20
82.56209302325624
 11
-112.4127489297134
 21
82.56209302325624
  0
LINE
  5
212
100
AcDbEntity
  8
1
  6
CONTINUOUS
 62
             7
100
AcDbLine
 10
-112.4127489297134
 20
82.56209302325624
 11
-112.4127489297134
 21
81.56209302325624
  0
LINE
  5
211
100
AcDbEntity
  8
1
  6
CONTINUOUS
 62
             7
100
AcDbLine
 10
-113.9127489297134
 20
81.56209302325624
 11
-110.9127489297134
 21
81.56209302325624
  0
LINE
  5
210
100
AcDbEntity
  8
1
  6
CONTINUOUS
 62
             7
100
AcDbLine
 10
-113.33539866052369
 20
80.56209302325624
 11
-111.490099198903
 21
80.56209302325624
  0
LINE
  5
20F
100
AcDbEntity
  8
1
  6
CONTINUOUS
 62
             7
100
AcDbLine
 10
-112.7580483913341
 20
79.56209302325624
 11
-112.0674494680927
 21
79.56209302325624
  0
LINE
  5
20E
100
AcDbEntity
  8
1
  6
CONTINUOUS
 62
             7
100
AcDbLine
 10
-120.9627489297133
 20
138.26209302325631
 11
-120.9627489297133
 21
137.76209302325631
  0
LINE
  5
20D
100
AcDbEntity
  8
1
  6
CONTINUOUS
 62
             7
100
AcDbLine
 10
-120.9627489297133
 20
139.26209302325631
 11
-120.9627489297133
 21
138.76209302325631
  0
LINE
  5
20C
100
AcDbEntity
  8
1
  6
CONTINUOUS
 62
             7
100
AcDbLine
 10
-120.9627489297133
 20
140.26209302325631
 11
-120.9627489297133
 21
139.76209302325631
  0
LINE
  5
20B
100
AcDbEntity
  8
1
  6
CONTINUOUS
 62
             7
100
AcDbLine
 10
-120.9627489297133
 20
141.26209302325631
 11
-120.9627489297133
 21
140.76209302325631
  0
LINE
  5
20A
100
AcDbEntity
  8
1
  6
CONTINUOUS
 62
             7
100
AcDbLine
 10
-120.9627489297133
 20
142.26209302325631
 11
-120.9627489297133
 21
141.76209302325631
  0
LINE
  5
209
100
AcDbEntity
  8
1
  6
CONTINUOUS
 62
             7
100
AcDbLine
 10
-120.9627489297133
 20
143.26209302325631
 11
-120.9627489297133
 21
142.76209302325631
  0
LINE
  5
208
100
AcDbEntity
  8
1
  6
CONTINUOUS
 62
             7
100
AcDbLine
 10
-114.1627489297132
 20
122.9120930232563
 11
-114.1627489297132
 21
122.0120930232563
  0
LINE
  5
207
100
AcDbEntity
  8
1
  6
CONTINUOUS
 62
             7
100
AcDbLine
 10
-119.1627489297132
 20
122.0120930232563
 11
-119.1627489297132
 21
122.9120930232563
  0
LINE
  5
206
100
AcDbEntity
  8
1
  6
CONTINUOUS
 62
             7
100
AcDbLine
 10
-123.9627489297133
 20
122.4120930232563
 11
-121.1627489297132
 21
122.4120930232563
  0
LINE
  5
205
100
AcDbEntity
  8
1
  6
CONTINUOUS
 62
             7
100
AcDbLine
 10
-112.1627489297132
 20
122.4120930232563
 11
-109.06274892971329
 21
122.4120930232563
  0
LINE
  5
204
100
AcDbEntity
  8
1
  6
CONTINUOUS
 62
             7
100
AcDbLine
 10
-121.1627489297132
 20
122.0120930232563
 11
-121.1627489297132
 21
122.9120930232563
  0
LINE
  5
203
100
AcDbEntity
  8
1
  6
CONTINUOUS
 62
             7
100
AcDbLine
 10
-121.1627489297132
 20
122.9120930232563
 11
-112.1627489297132
 21
122.9120930232563
  0
LINE
  5
202
100
AcDbEntity
  8
1
  6
CONTINUOUS
 62
             7
100
AcDbLine
 10
-112.1627489297132
 20
122.0120930232563
 11
-112.1627489297132
 21
122.9120930232563
  0
LINE
  5
201
100
AcDbEntity
  8
1
  6
CONTINUOUS
 62
             7
100
AcDbLine
 10
-114.1627489297132
 20
148.01209302325631
 11
-114.1627489297132
 21
147.11209302325631
  0
LINE
  5
200
100
AcDbEntity
  8
1
  6
CONTINUOUS
 62
             7
100
AcDbLine
 10
-119.1627489297132
 20
147.11209302325631
 11
-119.1627489297132
 21
148.01209302325631
  0
LINE
  5
1FF
100
AcDbEntity
  8
1
  6
CONTINUOUS
 62
             7
100
AcDbLine
 10
-121.1627489297132
 20
147.61209302325631
 11
-123.9627489297133
 21
147.61209302325631
  0
LINE
  5
1FE
100
AcDbEntity
  8
1
  6
CONTINUOUS
 62
             7
100
AcDbLine
 10
-109.06274892971329
 20
147.61209302325631
 11
-112.1627489297132
 21
147.61209302325631
  0
LINE
  5
1FD
100
AcDbEntity
  8
1
  6
CONTINUOUS
 62
             7
100
AcDbLine
 10
-121.1627489297132
 20
147.11209302325631
 11
-121.1627489297132
 21
148.01209302325631
  0
LINE
  5
1FC
100
AcDbEntity
  8
1
  6
CONTINUOUS
 62
             7
100
AcDbLine
 10
-112.1627489297132
 20
147.11209302325631
 11
-121.1627489297132
 21
147.11209302325631
  0
LINE
  5
1FB
100
AcDbEntity
  8
1
  6
CONTINUOUS
 62
             7
100
AcDbLine
 10
-112.1627489297132
 20
147.11209302325631
 11
-112.1627489297132
 21
148.01209302325631
  0
LINE
  5
1FA
100
AcDbEntity
  8
1
  6
CONTINUOUS
 62
             7
100
AcDbLine
 10
-112.1627489297132
 20
135.61209302325631
 11
-112.1627489297132
 21
137.2120930232563
  0
LINE
  5
1F9
100
AcDbEntity
  8
1
  6
CONTINUOUS
 62
             7
100
AcDbLine
 10
-112.1627489297132
 20
145.41209302325629
 11
-112.1627489297132
 21
143.8120930232563
  0
LINE
  5
1F8
100
AcDbEntity
  8
1
  6
CONTINUOUS
 62
             7
100
AcDbLine
 10
-108.9627489297133
 20
138.41209302325629
 11
-108.9627489297133
 21
142.61209302325631
  0
LINE
  5
1F7
100
AcDbEntity
  8
1
  6
CONTINUOUS
 62
             7
100
AcDbLine
 10
-110.56274892971319
 20
137.2120930232563
 11
-110.56274892971319
 21
138.41209302325629
  0
LINE
  5
1F6
100
AcDbEntity
  8
1
  6
CONTINUOUS
 62
             7
100
AcDbLine
 10
-110.56274892971319
 20
138.41209302325629
 11
-108.9627489297133
 21
138.41209302325629
  0
LINE
  5
1F5
100
AcDbEntity
  8
1
  6
CONTINUOUS
 62
             7
100
AcDbLine
 10
-108.9627489297133
 20
142.61209302325631
 11
-110.56274892971319
 21
142.61209302325631
  0
LINE
  5
1F4
100
AcDbEntity
  8
1
  6
CONTINUOUS
 62
             7
100
AcDbLine
 10
-110.56274892971319
 20
142.61209302325631
 11
-110.56274892971319
 21
143.8120930232563
  0
LINE
  5
1F3
100
AcDbEntity
  8
1
  6
CONTINUOUS
 62
             7
100
AcDbLine
 10
-120.9627489297133
 20
137.76209302325631
 11
-118.9627489297133
 21
137.76209302325631
  0
LINE
  5
1F2
100
AcDbEntity
  8
1
  6
CONTINUOUS
 62
             7
100
AcDbLine
 10
-120.9627489297133
 20
138.26209302325631
 11
-118.9627489297133
 21
138.26209302325631
  0
LINE
  5
1F1
100
AcDbEntity
  8
1
  6
CONTINUOUS
 62
             7
100
AcDbLine
 10
-120.9627489297133
 20
142.76209302325631
 11
-118.9627489297133
 21
142.76209302325631
  0
LINE
  5
1F0
100
AcDbEntity
  8
1
  6
CONTINUOUS
 62
             7
100
AcDbLine
 10
-120.9627489297133
 20
143.26209302325631
 11
-118.9627489297133
 21
143.26209302325631
  0
LINE
  5
1EF
100
AcDbEntity
  8
1
  6
CONTINUOUS
 62
             7
100
AcDbLine
 10
-110.56274892971319
 20
137.2120930232563
 11
-112.1627489297132
 21
137.2120930232563
  0
LINE
  5
1EE
100
AcDbEntity
  8
1
  6
CONTINUOUS
 62
             7
100
AcDbLine
 10
-110.56274892971319
 20
143.8120930232563
 11
-112.1627489297132
 21
143.8120930232563
  0
LINE
  5
1ED
100
AcDbEntity
  8
1
  6
CONTINUOUS
 62
             7
100
AcDbLine
 10
-118.9627489297133
 20
135.61209302325631
 11
-112.1627489297132
 21
135.61209302325631
  0
LINE
  5
1EC
100
AcDbEntity
  8
1
  6
CONTINUOUS
 62
             7
100
AcDbLine
 10
-118.9627489297133
 20
145.41209302325629
 11
-112.1627489297132
 21
145.41209302325629
  0
LINE
  5
1EB
100
AcDbEntity
  8
1
  6
CONTINUOUS
 62
             7
100
AcDbLine
 10
-120.9627489297133
 20
138.01209302325631
 11
-115.6627489297132
 21
138.01209302325631
  0
LINE
  5
1EA
100
AcDbEntity
  8
1
  6
CONTINUOUS
 62
             7
100
AcDbLine
 10
-120.9627489297133
 20
143.01209302325631
 11
-115.6627489297132
 21
143.01209302325631
  0
LINE
  5
1E9
100
AcDbEntity
  8
1
  6
CONTINUOUS
 62
             7
100
AcDbLine
 10
-120.9627489297133
 20
139.76209302325631
 11
-118.9627489297133
 21
139.76209302325631
  0
LINE
  5
1E8
100
AcDbEntity
  8
1
  6
CONTINUOUS
 62
             7
100
AcDbLine
 10
-120.9627489297133
 20
140.26209302325631
 11
-118.9627489297133
 21
140.26209302325631
  0
LINE
  5
1E7
100
AcDbEntity
  8
1
  6
CONTINUOUS
 62
             7
100
AcDbLine
 10
-120.9627489297133
 20
140.01209302325631
 11
-115.6627489297132
 21
140.01209302325631
  0
LINE
  5
1E6
100
AcDbEntity
  8
1
  6
CONTINUOUS
 62
             7
100
AcDbLine
 10
-120.9627489297133
 20
141.76209302325631
 11
-118.9627489297133
 21
141.76209302325631
  0
LINE
  5
1E5
100
AcDbEntity
  8
1
  6
CONTINUOUS
 62
             7
100
AcDbLine
 10
-120.9627489297133
 20
142.26209302325631
 11
-118.9627489297133
 21
142.26209302325631
  0
LINE
  5
1E4
100
AcDbEntity
  8
1
  6
CONTINUOUS
 62
             7
100
AcDbLine
 10
-120.9627489297133
 20
142.01209302325631
 11
-115.6627489297132
 21
142.01209302325631
  0
LINE
  5
1E3
100
AcDbEntity
  8
1
  6
CONTINUOUS
 62
             7
100
AcDbLine
 10
-120.9627489297133
 20
140.76209302325631
 11
-118.9627489297133
 21
140.76209302325631
  0
LINE
  5
1E2
100
AcDbEntity
  8
1
  6
CONTINUOUS
 62
             7
100
AcDbLine
 10
-120.9627489297133
 20
141.26209302325631
 11
-118.9627489297133
 21
141.26209302325631
  0
LINE
  5
1E1
100
AcDbEntity
  8
1
  6
CONTINUOUS
 62
             7
100
AcDbLine
 10
-120.9627489297133
 20
141.01209302325631
 11
-115.6627489297132
 21
141.01209302325631
  0
LINE
  5
1E0
100
AcDbEntity
  8
1
  6
CONTINUOUS
 62
             7
100
AcDbLine
 10
-120.9627489297133
 20
138.76209302325631
 11
-118.9627489297133
 21
138.76209302325631
  0
LINE
  5
1DF
100
AcDbEntity
  8
1
  6
CONTINUOUS
 62
             7
100
AcDbLine
 10
-120.9627489297133
 20
139.26209302325631
 11
-118.9627489297133
 21
139.26209302325631
  0
LINE
  5
1DE
100
AcDbEntity
  8
1
  6
CONTINUOUS
 62
             7
100
AcDbLine
 10
-120.9627489297133
 20
139.01209302325631
 11
-115.6627489297132
 21
139.01209302325631
  0
LINE
  5
1DD
100
AcDbEntity
  8
1
  6
CONTINUOUS
 62
             7
100
AcDbLine
 10
-118.9627489297133
 20
135.61209302325631
 11
-118.9627489297133
 21
145.41209302325629
  0
LINE
  5
1DC
100
AcDbEntity
  8
1
  6
CONTINUOUS
 62
             7
100
AcDbLine
 10
-119.2627489297133
 20
160.81209302325641
 11
-120.06274892971319
 21
160.01209302325631
  0
LINE
  5
1DB
100
AcDbEntity
  8
1
  6
CONTINUOUS
 62
             7
100
AcDbLine
 10
-119.2627489297133
 20
160.4120930232564
 11
-119.2627489297133
 21
160.81209302325641
  0
LINE
  5
1DA
100
AcDbEntity
  8
1
  6
CONTINUOUS
 62
             7
100
AcDbLine
 10
-117.06274892971329
 20
160.4120930232564
 11
-119.2627489297133
 21
160.4120930232564
  0
LINE
  5
1D9
100
AcDbEntity
  8
1
  6
CONTINUOUS
 62
             7
100
AcDbLine
 10
-117.06274892971329
 20
159.61209302325639
 11
-117.06274892971329
 21
160.4120930232564
  0
LINE
  5
1D8
100
AcDbEntity
  8
1
  6
CONTINUOUS
 62
             7
100
AcDbLine
 10
-119.2627489297133
 20
159.61209302325639
 11
-117.06274892971329
 21
159.61209302325639
  0
LINE
  5
1D7
100
AcDbEntity
  8
1
  6
CONTINUOUS
 62
             7
100
AcDbLine
 10
-119.2627489297133
 20
159.2120930232563
 11
-119.2627489297133
 21
159.61209302325639
  0
LINE
  5
1D6
100
AcDbEntity
  8
1
  6
CONTINUOUS
 62
             7
100
AcDbLine
 10
-120.06274892971319
 20
160.01209302325631
 11
-119.2627489297133
 21
159.2120930232563
  0
LINE
  5
1D5
100
AcDbEntity
  8
1
  6
CONTINUOUS
 62
             7
100
AcDbLine
 10
-123.9627489297133
 20
148.01209302325631
 11
-107.7627489297133
 21
148.01209302325631
  0
LINE
  5
1D4
100
AcDbEntity
  8
1
  6
CONTINUOUS
 62
             7
100
AcDbLine
 10
-107.7627489297133
 20
148.01209302325631
 11
-107.7627489297133
 21
122.0120930232563
  0
LINE
  5
1D3
100
AcDbEntity
  8
1
  6
CONTINUOUS
 62
             7
100
AcDbLine
 10
-123.9627489297133
 20
122.0120930232563
 11
-123.9627489297133
 21
148.01209302325631
  0
LINE
  5
1D2
100
AcDbEntity
  8
1
  6
CONTINUOUS
 62
             7
100
AcDbLine
 10
-128.8627489297134
 20
83.61209302325629
 11
-128.8627489297134
 21
77.51209302325628
  0
LINE
  5
1D1
100
AcDbEntity
  8
1
  6
CONTINUOUS
 62
             7
100
AcDbLine
 10
-121.3627489297134
 20
83.61209302325629
 11
-121.3627489297134
 21
77.51209302325628
  0
LINE
  5
1D0
100
AcDbEntity
  8
1
  6
CONTINUOUS
 62
             7
100
AcDbLine
 10
-128.8627489297134
 20
91.2120930232563
 11
-128.8627489297134
 21
85.11209302325629
  0
LINE
  5
1CF
100
AcDbEntity
  8
1
  6
CONTINUOUS
 62
             7
100
AcDbLine
 10
-121.3627489297134
 20
91.2120930232563
 11
-121.3627489297134
 21
85.11209302325629
  0
LINE
  5
1CE
100
AcDbEntity
  8
1
  6
CONTINUOUS
 62
             7
100
AcDbLine
 10
-128.8627489297134
 20
98.81209302325632
 11
-128.8627489297134
 21
92.7120930232563
  0
LINE
  5
1CD
100
AcDbEntity
  8
1
  6
CONTINUOUS
 62
             7
100
AcDbLine
 10
-121.3627489297134
 20
98.81209302325632
 11
-121.3627489297134
 21
92.7120930232563
  0
LINE
  5
1CC
100
AcDbEntity
  8
1
  6
CONTINUOUS
 62
             7
100
AcDbLine
 10
-128.8627489297134
 20
106.4120930232563
 11
-128.8627489297134
 21
100.3120930232563
  0
LINE
  5
1CB
100
AcDbEntity
  8
1
  6
CONTINUOUS
 62
             7
100
AcDbLine
 10
-121.3627489297134
 20
106.4120930232563
 11
-121.3627489297134
 21
100.3120930232563
  0
LINE
  5
1CA
100
AcDbEntity
  8
1
  6
CONTINUOUS
 62
             7
100
AcDbLine
 10
-94.4127489297133
 20
83.61209302325629
 11
-94.4127489297133
 21
77.51209302325628
  0
LINE
  5
1C9
100
AcDbEntity
  8
1
  6
CONTINUOUS
 62
             7
100
AcDbLine
 10
-86.9127489297133
 20
83.61209302325629
 11
-86.9127489297133
 21
77.51209302325628
  0
LINE
  5
1C8
100
AcDbEntity
  8
1
  6
CONTINUOUS
 62
             7
100
AcDbLine
 10
-94.4127489297133
 20
91.2120930232563
 11
-94.4127489297133
 21
85.11209302325629
  0
LINE
  5
1C7
100
AcDbEntity
  8
1
  6
CONTINUOUS
 62
             7
100
AcDbLine
 10
-86.9127489297133
 20
91.2120930232563
 11
-86.9127489297133
 21
85.11209302325629
  0
LINE
  5
1C6
100
AcDbEntity
  8
1
  6
CONTINUOUS
 62
             7
100
AcDbLine
 10
-94.4127489297133
 20
98.81209302325632
 11
-94.4127489297133
 21
92.7120930232563
  0
LINE
  5
1C5
100
AcDbEntity
  8
1
  6
CONTINUOUS
 62
             7
100
AcDbLine
 10
-86.9127489297133
 20
98.81209302325632
 11
-86.9127489297133
 21
92.7120930232563
  0
LINE
  5
1C4
100
AcDbEntity
  8
1
  6
CONTINUOUS
 62
             7
100
AcDbLine
 10
-94.4127489297133
 20
106.4120930232563
 11
-94.4127489297133
 21
100.3120930232563
  0
LINE
  5
1C3
100
AcDbEntity
  8
1
  6
CONTINUOUS
 62
             7
100
AcDbLine
 10
-86.9127489297133
 20
106.4120930232563
 11
-86.9127489297133
 21
100.3120930232563
  0
LINE
  5
1C2
100
AcDbEntity
  8
1
  6
CONTINUOUS
 62
             7
100
AcDbLine
 10
-94.4127489297133
 20
114.0120930232563
 11
-94.4127489297133
 21
107.9120930232563
  0
LINE
  5
1C1
100
AcDbEntity
  8
1
  6
CONTINUOUS
 62
             7
100
AcDbLine
 10
-86.9127489297133
 20
114.0120930232563
 11
-86.9127489297133
 21
107.9120930232563
  0
LINE
  5
1C0
100
AcDbEntity
  8
1
  6
CONTINUOUS
 62
             7
100
AcDbLine
 10
-94.4127489297133
 20
121.61209302325631
 11
-94.4127489297133
 21
115.5120930232563
  0
LINE
  5
1BF
100
AcDbEntity
  8
1
  6
CONTINUOUS
 62
             7
100
AcDbLine
 10
-86.9127489297133
 20
121.61209302325631
 11
-86.9127489297133
 21
115.5120930232563
  0
LINE
  5
1BE
100
AcDbEntity
  8
1
  6
CONTINUOUS
 62
             7
100
AcDbLine
 10
-94.4127489297133
 20
129.2120930232563
 11
-94.4127489297133
 21
123.11209302325631
  0
LINE
  5
1BD
100
AcDbEntity
  8
1
  6
CONTINUOUS
 62
             7
100
AcDbLine
 10
-86.9127489297133
 20
129.2120930232563
 11
-86.9127489297133
 21
123.11209302325631
  0
LINE
  5
1BC
100
AcDbEntity
  8
1
  6
CONTINUOUS
 62
             7
100
AcDbLine
 10
-94.4127489297133
 20
136.8120930232563
 11
-94.4127489297133
 21
130.7120930232563
  0
LINE
  5
1BB
100
AcDbEntity
  8
1
  6
CONTINUOUS
 62
             7
100
AcDbLine
 10
-86.9127489297133
 20
136.8120930232563
 11
-86.9127489297133
 21
130.7120930232563
  0
LINE
  5
1BA
100
AcDbEntity
  8
1
  6
CONTINUOUS
 62
             7
100
AcDbLine
 10
-94.4127489297133
 20
144.41209302325629
 11
-94.4127489297133
 21
138.3120930232563
  0
LINE
  5
1B9
100
AcDbEntity
  8
1
  6
CONTINUOUS
 62
             7
100
AcDbLine
 10
-86.9127489297133
 20
144.41209302325629
 11
-86.9127489297133
 21
138.3120930232563
  0
LINE
  5
1B8
100
AcDbEntity
  8
1
  6
CONTINUOUS
 62
             7
100
AcDbLine
 10
-94.4127489297133
 20
152.01209302325631
 11
-94.4127489297133
 21
145.91209302325629
  0
LINE
  5
1B7
100
AcDbEntity
  8
1
  6
CONTINUOUS
 62
             7
100
AcDbLine
 10
-86.9127489297133
 20
152.01209302325631
 11
-86.9127489297133
 21
145.91209302325629
  0
LINE
  5
1B6
100
AcDbEntity
  8
1
  6
CONTINUOUS
 62
             7
100
AcDbLine
 10
-130.6627489297133
 20
152.01209302325631
 11
-130.6627489297133
 21
170.01209302325631
  0
LINE
  5
1B5
100
AcDbEntity
  8
1
  6
CONTINUOUS
 62
             7
100
AcDbLine
 10
-86.6627489297133
 20
166.51209302325631
 11
-86.6627489297133
 21
153.51209302325631
  0
LINE
  5
1B4
100
AcDbEntity
  8
1
  6
CONTINUOUS
 62
             7
100
AcDbLine
 10
-86.6627489297133
 20
153.51209302325631
 11
-98.1627489297133
 21
153.51209302325631
  0
LINE
  5
1B3
100
AcDbEntity
  8
1
  6
CONTINUOUS
 62
             7
100
AcDbLine
 10
-98.1627489297133
 20
153.51209302325631
 11
-98.1627489297133
 21
166.51209302325631
  0
LINE
  5
1B2
100
AcDbEntity
  8
1
  6
CONTINUOUS
 62
             7
100
AcDbLine
 10
-130.6627489297133
 20
77.51209302325628
 11
-130.6627489297133
 21
74.01209302325628
  0
LINE
  5
1B1
100
AcDbEntity
  8
1
  6
CONTINUOUS
 62
             7
100
AcDbLine
 10
-130.6627489297133
 20
109.9120930232563
 11
-130.6627489297133
 21
106.4120930232563
  0
LINE
  5
1B0
100
AcDbEntity
  8
1
  6
CONTINUOUS
 62
             7
100
AcDbLine
 10
-130.6627489297133
 20
100.3120930232563
 11
-130.6627489297133
 21
98.81209302325632
  0
LINE
  5
1AF
100
AcDbEntity
  8
1
  6
CONTINUOUS
 62
             7
100
AcDbLine
 10
-119.1627489297133
 20
98.81209302325632
 11
-119.1627489297133
 21
100.3120930232563
  0
LINE
  5
1AE
100
AcDbEntity
  8
1
  6
CONTINUOUS
 62
             7
100
AcDbLine
 10
-119.1627489297133
 20
106.4120930232563
 11
-119.1627489297133
 21
109.9120930232563
  0
LINE
  5
1AD
100
AcDbEntity
  8
1
  6
CONTINUOUS
 62
             7
100
AcDbLine
 10
-96.6627489297133
 20
144.41209302325629
 11
-96.6627489297133
 21
145.91209302325629
  0
LINE
  5
1AC
100
AcDbEntity
  8
1
  6
CONTINUOUS
 62
             7
100
AcDbLine
 10
-131.1627489297133
 20
106.4120930232563
 11
-131.1627489297133
 21
100.3120930232563
  0
LINE
  5
1AB
100
AcDbEntity
  8
1
  6
CONTINUOUS
 62
             7
100
AcDbLine
 10
-129.3627489297134
 20
106.4120930232563
 11
-129.3627489297134
 21
100.3120930232563
  0
LINE
  5
1AA
100
AcDbEntity
  8
1
  6
CONTINUOUS
 62
             7
100
AcDbLine
 10
-120.56274892971329
 20
106.4120930232563
 11
-120.56274892971329
 21
100.3120930232563
  0
LINE
  5
1A9
100
AcDbEntity
  8
1
  6
CONTINUOUS
 62
             7
100
AcDbLine
 10
-131.1627489297133
 20
98.81209302325632
 11
-131.1627489297133
 21
92.7120930232563
  0
LINE
  5
1A8
100
AcDbEntity
  8
1
  6
CONTINUOUS
 62
             7
100
AcDbLine
 10
-129.3627489297134
 20
98.81209302325632
 11
-129.3627489297134
 21
92.7120930232563
  0
LINE
  5
1A7
100
AcDbEntity
  8
1
  6
CONTINUOUS
 62
             7
100
AcDbLine
 10
-120.56274892971329
 20
98.81209302325632
 11
-120.56274892971329
 21
92.7120930232563
  0
LINE
  5
1A6
100
AcDbEntity
  8
1
  6
CONTINUOUS
 62
             7
100
AcDbLine
 10
-131.1627489297133
 20
91.2120930232563
 11
-131.1627489297133
 21
85.11209302325629
  0
LINE
  5
1A5
100
AcDbEntity
  8
1
  6
CONTINUOUS
 62
             7
100
AcDbLine
 10
-129.3627489297134
 20
91.2120930232563
 11
-129.3627489297134
 21
85.11209302325629
  0
LINE
  5
1A4
100
AcDbEntity
  8
1
  6
CONTINUOUS
 62
             7
100
AcDbLine
 10
-120.56274892971329
 20
91.2120930232563
 11
-120.56274892971329
 21
85.11209302325629
  0
LINE
  5
1A3
100
AcDbEntity
  8
1
  6
CONTINUOUS
 62
             7
100
AcDbLine
 10
-131.1627489297133
 20
83.61209302325629
 11
-131.1627489297133
 21
77.51209302325628
  0
LINE
  5
1A2
100
AcDbEntity
  8
1
  6
CONTINUOUS
 62
             7
100
AcDbLine
 10
-129.3627489297134
 20
83.61209302325629
 11
-129.3627489297134
 21
77.51209302325628
  0
LINE
  5
1A1
100
AcDbEntity
  8
1
  6
CONTINUOUS
 62
             7
100
AcDbLine
 10
-120.56274892971329
 20
83.61209302325629
 11
-120.56274892971329
 21
77.51209302325628
  0
LINE
  5
1A0
100
AcDbEntity
  8
1
  6
CONTINUOUS
 62
             7
100
AcDbLine
 10
-94.9127489297133
 20
83.61209302325629
 11
-94.9127489297133
 21
81.5620930232563
  0
LINE
  5
19F
100
AcDbEntity
  8
1
  6
CONTINUOUS
 62
             7
100
AcDbLine
 10
-94.9127489297133
 20
91.2120930232563
 11
-94.9127489297133
 21
85.11209302325629
  0
LINE
  5
19E
100
AcDbEntity
  8
1
  6
CONTINUOUS
 62
             7
100
AcDbLine
 10
-94.9127489297133
 20
98.81209302325632
 11
-94.9127489297133
 21
92.7120930232563
  0
LINE
  5
19D
100
AcDbEntity
  8
1
  6
CONTINUOUS
 62
             7
100
AcDbLine
 10
-94.9127489297133
 20
106.4120930232563
 11
-94.9127489297133
 21
100.3120930232563
  0
LINE
  5
19C
100
AcDbEntity
  8
1
  6
CONTINUOUS
 62
             7
100
AcDbLine
 10
-94.9127489297133
 20
114.0120930232563
 11
-94.9127489297133
 21
107.9120930232563
  0
LINE
  5
19B
100
AcDbEntity
  8
1
  6
CONTINUOUS
 62
             7
100
AcDbLine
 10
-94.9127489297133
 20
121.61209302325631
 11
-94.9127489297133
 21
115.5120930232563
  0
LINE
  5
19A
100
AcDbEntity
  8
1
  6
CONTINUOUS
 62
             7
100
AcDbLine
 10
-94.9127489297133
 20
129.2120930232563
 11
-94.9127489297133
 21
123.11209302325631
  0
LINE
  5
199
100
AcDbEntity
  8
1
  6
CONTINUOUS
 62
             7
100
AcDbLine
 10
-94.9127489297133
 20
136.8120930232563
 11
-94.9127489297133
 21
130.7120930232563
  0
LINE
  5
198
100
AcDbEntity
  8
1
  6
CONTINUOUS
 62
             7
100
AcDbLine
 10
-94.9127489297133
 20
144.41209302325629
 11
-94.9127489297133
 21
138.3120930232563
  0
LINE
  5
197
100
AcDbEntity
  8
1
  6
CONTINUOUS
 62
             7
100
AcDbLine
 10
-94.9127489297133
 20
152.01209302325631
 11
-94.9127489297133
 21
145.91209302325629
  0
LINE
  5
196
100
AcDbEntity
  8
1
  6
CONTINUOUS
 62
             7
100
AcDbLine
 10
-109.1627489297133
 20
106.4120930232563
 11
-109.1627489297133
 21
77.51209302325628
  0
LINE
  5
195
100
AcDbEntity
  8
1
  6
CONTINUOUS
 62
             7
100
AcDbLine
 10
-131.1627489297133
 20
109.9120930232563
 11
-131.1627489297133
 21
152.01209302325631
  0
LINE
  5
194
100
AcDbEntity
  8
1
  6
CONTINUOUS
 62
             7
100
AcDbLine
 10
-94.9127489297133
 20
81.5620930232563
 11
-94.9127489297133
 21
79.5620930232563
  0
LINE
  5
193
100
AcDbEntity
  8
1
  6
CONTINUOUS
 62
             7
100
AcDbLine
 10
-94.9127489297133
 20
79.5620930232563
 11
-94.9127489297133
 21
77.51209302325628
  0
LINE
  5
192
100
AcDbEntity
  8
1
  6
CONTINUOUS
 62
             7
100
AcDbLine
 10
-92.46274892971326
 20
170.01209302325631
 11
-92.46274892971326
 21
166.51209302325631
  0
LINE
  5
191
100
AcDbEntity
  8
1
  6
CONTINUOUS
 62
             7
100
AcDbLine
 10
-89.46274892971326
 20
170.01209302325631
 11
-89.46274892971326
 21
166.51209302325631
  0
LINE
  5
190
100
AcDbEntity
  8
1
  6
CONTINUOUS
 62
             7
100
AcDbLine
 10
-89.46274892971337
 20
77.51209302325631
 11
-89.46274892971337
 21
74.01209302325631
  0
LINE
  5
18F
100
AcDbEntity
  8
1
  6
CONTINUOUS
 62
             7
100
AcDbLine
 10
-92.46274892971326
 20
77.51209302325628
 11
-92.46274892971326
 21
74.01209302325628
  0
LINE
  5
18E
100
AcDbEntity
  8
1
  6
CONTINUOUS
 62
             7
100
AcDbLine
 10
-123.6627489297133
 20
77.51209302325628
 11
-123.6627489297133
 21
77.18914400638113
  0
LINE
  5
18D
100
AcDbEntity
  8
1
  6
CONTINUOUS
 62
             7
100
AcDbLine
 10
-126.6627489297133
 20
77.51209302325628
 11
-126.6627489297133
 21
77.18914400638113
  0
LINE
  5
18C
100
AcDbEntity
  8
1
  6
CONTINUOUS
 62
             7
100
AcDbLine
 10
-106.6627489297133
 20
152.01209302325631
 11
-106.6627489297133
 21
77.51209302325628
  0
LINE
  5
18B
100
AcDbEntity
  8
1
  6
CONTINUOUS
 62
             7
100
AcDbLine
 10
-132.1627489297133
 20
152.01209302325631
 11
-84.6627489297133
 21
152.01209302325631
  0
LINE
  5
18A
100
AcDbEntity
  8
1
  6
CONTINUOUS
 62
             7
100
AcDbLine
 10
-84.6627489297133
 20
169.01209302325631
 11
-84.6627489297133
 21
75.01209302325628
  0
LINE
  5
189
100
AcDbEntity
  8
1
  6
CONTINUOUS
 62
             7
100
AcDbLine
 10
-132.1627489297133
 20
77.51209302325628
 11
-126.1935253361177
 21
77.51209302325628
  0
LINE
  5
188
100
AcDbEntity
  8
1
  6
CONTINUOUS
 62
             7
100
AcDbLine
 10
-98.1627489297133
 20
152.01209302325631
 11
-98.1627489297133
 21
77.51209302325628
  0
LINE
  5
187
100
AcDbEntity
  8
1
  6
CONTINUOUS
 62
             7
100
AcDbLine
 10
-98.1627489297133
 20
145.91209302325629
 11
-84.6627489297133
 21
145.91209302325629
  0
LINE
  5
186
100
AcDbEntity
  8
1
  6
CONTINUOUS
 62
             7
100
AcDbLine
 10
-98.1627489297133
 20
144.41209302325629
 11
-84.6627489297133
 21
144.41209302325629
  0
LINE
  5
185
100
AcDbEntity
  8
1
  6
CONTINUOUS
 62
             7
100
AcDbLine
 10
-96.6627489297133
 20
136.81209302325621
 11
-96.6627489297133
 21
138.31209302325621
  0
LINE
  5
184
100
AcDbEntity
  8
1
  6
CONTINUOUS
 62
             7
100
AcDbLine
 10
-98.1627489297133
 20
138.31209302325621
 11
-84.6627489297133
 21
138.3120930232563
  0
LINE
  5
183
100
AcDbEntity
  8
1
  6
CONTINUOUS
 62
             7
100
AcDbLine
 10
-98.1627489297133
 20
136.81209302325621
 11
-84.6627489297133
 21
136.8120930232563
  0
LINE
  5
182
100
AcDbEntity
  8
1
  6
CONTINUOUS
 62
             7
100
AcDbLine
 10
-96.6627489297133
 20
129.21209302325619
 11
-96.6627489297133
 21
130.71209302325619
  0
LINE
  5
181
100
AcDbEntity
  8
1
  6
CONTINUOUS
 62
             7
100
AcDbLine
 10
-98.1627489297133
 20
130.71209302325619
 11
-84.6627489297133
 21
130.7120930232563
  0
LINE
  5
180
100
AcDbEntity
  8
1
  6
CONTINUOUS
 62
             7
100
AcDbLine
 10
-98.1627489297133
 20
129.21209302325619
 11
-84.6627489297133
 21
129.2120930232563
  0
LINE
  5
17F
100
AcDbEntity
  8
1
  6
CONTINUOUS
 62
             7
100
AcDbLine
 10
-96.6627489297133
 20
121.61209302325619
 11
-96.6627489297133
 21
123.11209302325619
  0
LINE
  5
17E
100
AcDbEntity
  8
1
  6
CONTINUOUS
 62
             7
100
AcDbLine
 10
-98.1627489297133
 20
123.11209302325619
 11
-84.6627489297133
 21
123.11209302325631
  0
LINE
  5
17D
100
AcDbEntity
  8
1
  6
CONTINUOUS
 62
             7
100
AcDbLine
 10
-98.1627489297133
 20
121.61209302325619
 11
-84.6627489297133
 21
121.61209302325631
  0
LINE
  5
17C
100
AcDbEntity
  8
1
  6
CONTINUOUS
 62
             7
100
AcDbLine
 10
-96.6627489297133
 20
114.0120930232562
 11
-96.6627489297133
 21
115.5120930232562
  0
LINE
  5
17B
100
AcDbEntity
  8
1
  6
CONTINUOUS
 62
             7
100
AcDbLine
 10
-98.1627489297133
 20
115.5120930232562
 11
-84.6627489297133
 21
115.5120930232563
  0
LINE
  5
17A
100
AcDbEntity
  8
1
  6
CONTINUOUS
 62
             7
100
AcDbLine
 10
-98.1627489297133
 20
114.0120930232562
 11
-84.6627489297133
 21
114.0120930232563
  0
LINE
  5
179
100
AcDbEntity
  8
1
  6
CONTINUOUS
 62
             7
100
AcDbLine
 10
-96.6627489297133
 20
106.4120930232562
 11
-96.6627489297133
 21
107.9120930232562
  0
LINE
  5
178
100
AcDbEntity
  8
1
  6
CONTINUOUS
 62
             7
100
AcDbLine
 10
-98.1627489297133
 20
107.9120930232562
 11
-84.6627489297133
 21
107.9120930232563
  0
LINE
  5
177
100
AcDbEntity
  8
1
  6
CONTINUOUS
 62
             7
100
AcDbLine
 10
-98.1627489297133
 20
106.4120930232562
 11
-84.6627489297133
 21
106.4120930232563
  0
LINE
  5
176
100
AcDbEntity
  8
1
  6
CONTINUOUS
 62
             7
100
AcDbLine
 10
-96.6627489297133
 20
98.81209302325615
 11
-96.6627489297133
 21
100.3120930232562
  0
LINE
  5
175
100
AcDbEntity
  8
1
  6
CONTINUOUS
 62
             7
100
AcDbLine
 10
-98.1627489297133
 20
100.3120930232562
 11
-84.6627489297133
 21
100.3120930232563
  0
LINE
  5
174
100
AcDbEntity
  8
1
  6
CONTINUOUS
 62
             7
100
AcDbLine
 10
-98.1627489297133
 20
98.81209302325615
 11
-84.6627489297133
 21
98.81209302325632
  0
LINE
  5
173
100
AcDbEntity
  8
1
  6
CONTINUOUS
 62
             7
100
AcDbLine
 10
-96.6627489297133
 20
91.21209302325613
 11
-96.6627489297133
 21
92.71209302325613
  0
LINE
  5
172
100
AcDbEntity
  8
1
  6
CONTINUOUS
 62
             7
100
AcDbLine
 10
-98.1627489297133
 20
92.71209302325613
 11
-84.6627489297133
 21
92.7120930232563
  0
LINE
  5
171
100
AcDbEntity
  8
1
  6
CONTINUOUS
 62
             7
100
AcDbLine
 10
-98.1627489297133
 20
91.21209302325613
 11
-84.6627489297133
 21
91.21209302325613
  0
LINE
  5
170
100
AcDbEntity
  8
1
  6
CONTINUOUS
 62
             7
100
AcDbLine
 10
-96.6627489297133
 20
83.61209302325609
 11
-96.6627489297133
 21
85.11209302325609
  0
LINE
  5
16F
100
AcDbEntity
  8
1
  6
CONTINUOUS
 62
             7
100
AcDbLine
 10
-98.1627489297133
 20
85.11209302325609
 11
-84.6627489297133
 21
85.11209302325629
  0
LINE
  5
16E
100
AcDbEntity
  8
1
  6
CONTINUOUS
 62
             7
100
AcDbLine
 10
-98.1627489297133
 20
83.61209302325629
 11
-84.6627489297133
 21
83.61209302325609
  0
LINE
  5
16D
100
AcDbEntity
  8
1
  6
CONTINUOUS
 62
             7
100
AcDbLine
 10
-109.1627489297133
 20
106.4120930232563
 11
-124.1319725233089
 21
106.4120930232563
  0
LINE
  5
16C
100
AcDbEntity
  8
1
  6
CONTINUOUS
 62
             7
100
AcDbLine
 10
-117.6627489297133
 20
109.9120930232563
 11
-123.4856979465885
 21
109.9120930232563
  0
LINE
  5
16B
100
AcDbEntity
  8
1
  6
CONTINUOUS
 62
             7
100
AcDbLine
 10
-117.6627489297133
 20
109.9120930232563
 11
-117.6627489297133
 21
77.51209302325628
  0
LINE
  5
16A
100
AcDbEntity
  8
1
  6
CONTINUOUS
 62
             7
100
AcDbLine
 10
-132.1627489297133
 20
100.3120930232563
 11
-117.6627489297133
 21
100.3120930232563
  0
LINE
  5
169
100
AcDbEntity
  8
1
  6
CONTINUOUS
 62
             7
100
AcDbLine
 10
-117.6627489297133
 20
98.81209302325632
 11
-132.1627489297133
 21
98.81209302325632
  0
LINE
  5
168
100
AcDbEntity
  8
1
  6
CONTINUOUS
 62
             7
100
AcDbLine
 10
-130.6627489297133
 20
92.71209302325627
 11
-130.6627489297133
 21
91.2120930232563
  0
LINE
  5
167
100
AcDbEntity
  8
1
  6
CONTINUOUS
 62
             7
100
AcDbLine
 10
-119.1627489297133
 20
91.2120930232563
 11
-119.1627489297133
 21
92.7120930232563
  0
LINE
  5
166
100
AcDbEntity
  8
1
  6
CONTINUOUS
 62
             7
100
AcDbLine
 10
-132.1627489297133
 20
92.71209302325627
 11
-117.6627489297133
 21
92.71209302325627
  0
LINE
  5
165
100
AcDbEntity
  8
1
  6
CONTINUOUS
 62
             7
100
AcDbLine
 10
-117.6627489297133
 20
91.2120930232563
 11
-132.1627489297133
 21
91.2120930232563
  0
LINE
  5
164
100
AcDbEntity
  8
1
  6
CONTINUOUS
 62
             7
100
AcDbLine
 10
-130.6627489297133
 20
85.11209302325625
 11
-130.6627489297133
 21
83.61209302325626
  0
LINE
  5
163
100
AcDbEntity
  8
1
  6
CONTINUOUS
 62
             7
100
AcDbLine
 10
-119.1627489297133
 20
83.61209302325626
 11
-119.1627489297133
 21
85.11209302325626
  0
LINE
  5
162
100
AcDbEntity
  8
1
  6
CONTINUOUS
 62
             7
100
AcDbLine
 10
-132.1627489297133
 20
85.11209302325625
 11
-117.6627489297133
 21
85.11209302325625
  0
LINE
  5
161
100
AcDbEntity
  8
1
  6
CONTINUOUS
 62
             7
100
AcDbLine
 10
-117.6627489297133
 20
83.61209302325626
 11
-132.1627489297133
 21
83.61209302325626
  0
LINE
  5
160
100
AcDbEntity
  8
1
  6
CONTINUOUS
 62
             7
100
AcDbLine
 10
-123.9627489297133
 20
122.0120930232563
 11
-107.7627489297133
 21
122.0120930232563
  0
LINE
  5
15F
100
AcDbEntity
  8
1
  6
CONTINUOUS
 62
             7
100
AcDbLine
 10
-91.9127489297133
 20
163.5120930232564
 11
-90.4127489297133
 21
163.5120930232564
  0
LINE
  5
15E
100
AcDbEntity
  8
1
  6
CONTINUOUS
 62
             7
100
AcDbLine
 10
-90.4127489297133
 20
162.0120930232564
 11
-91.9127489297133
 21
162.01209302325631
  0
LINE
  5
15D
100
AcDbEntity
  8
1
  6
CONTINUOUS
 62
             7
100
AcDbLine
 10
-91.9127489297133
 20
158.0120930232564
 11
-90.4127489297133
 21
158.01209302325631
  0
LINE
  5
15C
100
AcDbEntity
  8
1
  6
CONTINUOUS
 62
             7
100
AcDbLine
 10
-90.4127489297133
 20
156.5120930232564
 11
-91.9127489297133
 21
156.5120930232564
  0
LINE
  5
15B
100
AcDbEntity
  8
1
  6
CONTINUOUS
 62
             7
100
AcDbLine
 10
-132.1627489297133
 20
74.01209302325631
 11
-126.8397999128382
 21
74.01209302325631
  0
LINE
  5
15A
100
AcDbEntity
  8
1
  6
CONTINUOUS
 62
             7
100
AcDbLine
 10
-60.16274892971331
 20
74.01209302325631
 11
-60.1627489297133
 21
170.01209302325631
  0
LINE
  5
159
100
AcDbEntity
  8
1
  6
CONTINUOUS
 62
             7
100
AcDbLine
 10
-60.1627489297133
 20
170.01209302325631
 11
-65.28569794658841
 21
170.01209302325631
  0
LINE
  5
158
100
AcDbEntity
  8
1
  6
CONTINUOUS
 62
             7
100
AcDbLine
 10
-132.1627489297133
 20
170.01209302325631
 11
-132.1627489297133
 21
74.01209302325631
  0
LINE
  5
157
100
AcDbEntity
  8
1
  6
CONTINUOUS
 62
             7
100
AcDbLine
 10
62.43725107028661
 20
114.5120930232563
 11
60.8372510702867
 21
114.5120930232563
  0
LINE
  5
156
100
AcDbEntity
  8
1
  6
CONTINUOUS
 62
             7
100
AcDbLine
 10
62.43725107028661
 20
129.51209302325631
 11
62.43725107028661
 21
114.5120930232563
  0
LINE
  5
155
100
AcDbEntity
  8
1
  6
CONTINUOUS
 62
             7
100
AcDbLine
 10
60.8372510702867
 20
129.51209302325631
 11
62.43725107028661
 21
129.51209302325631
  0
LINE
  5
154
100
AcDbEntity
  8
1
  6
CONTINUOUS
 62
             7
100
AcDbLine
 10
54.41586273921141
 20
74.01209302325628
 11
54.57308607706051
 21
71.01209302325624
  0
LINE
  5
153
100
AcDbEntity
  8
1
  6
CONTINUOUS
 62
             7
100
AcDbLine
 10
54.57308607706051
 20
71.01209302325624
 11
57.6014160635132
 21
71.01209302325624
  0
LINE
  5
152
100
AcDbEntity
  8
1
  6
CONTINUOUS
 62
             7
100
AcDbLine
 10
57.6014160635132
 20
71.01209302325624
 11
57.75863940136219
 21
74.01209302325628
  0
LINE
  5
151
100
AcDbEntity
  8
1
  6
CONTINUOUS
 62
             7
100
AcDbLine
 10
53.3372510702867
 20
144.01209302325631
 11
58.8372510702867
 21
144.49328067264889
  0
LINE
  5
150
100
AcDbEntity
  8
1
  6
CONTINUOUS
 62
             7
100
AcDbLine
 10
53.3372510702867
 20
91.0120930232563
 11
58.8372510702867
 21
91.01209302325628
  0
LINE
  5
14F
100
AcDbEntity
  8
1
  6
CONTINUOUS
 62
             7
100
AcDbLine
 10
53.3372510702867
 20
144.01209302325631
 11
53.3372510702867
 21
91.0120930232563
  0
LINE
  5
14E
100
AcDbEntity
  8
1
  6
CONTINUOUS
 62
             7
100
AcDbLine
 10
-21.6627489297133
 20
164.01209302325631
 11
-21.6627489297133
 21
170.01209302325631
  0
LINE
  5
14D
100
AcDbEntity
  8
1
  6
CONTINUOUS
 62
             7
100
AcDbLine
 10
-24.6627489297133
 20
164.01209302325631
 11
-21.6627489297133
 21
164.01209302325631
  0
LINE
  5
14C
100
AcDbEntity
  8
1
  6
CONTINUOUS
 62
             7
100
AcDbLine
 10
-24.6627489297133
 20
170.01209302325631
 11
-24.6627489297133
 21
164.01209302325631
  0
LINE
  5
14B
100
AcDbEntity
  8
1
  6
CONTINUOUS
 62
             7
100
AcDbLine
 10
-24.6627489297133
 20
164.01209302325631
 11
-21.6627489297133
 21
164.01209302325631
  0
LINE
  5
14A
100
AcDbEntity
  8
1
  6
DOTTED
 62
             7
100
AcDbLine
 10
-24.6627489297133
 20
164.01209302325631
 11
-21.6627489297133
 21
164.01209302325631
  0
LINE
  5
149
100
AcDbEntity
  8
1
  6
CONTINUOUS
 62
             7
100
AcDbLine
 10
-24.6627489297133
 20
164.01209302325631
 11
-21.6627489297133
 21
164.01209302325631
  0
LINE
  5
148
100
AcDbEntity
  8
1
  6
CONTINUOUS
 62
             7
100
AcDbLine
 10
-33.6627489297133
 20
152.01209302325631
 11
-30.1627489297133
 21
152.01209302325631
  0
LINE
  5
147
100
AcDbEntity
  8
1
  6
CONTINUOUS
 62
             7
100
AcDbLine
 10
-33.6627489297133
 20
170.01209302325631
 11
-34.6627489297133
 21
170.01209302325631
  0
LINE
  5
146
100
AcDbEntity
  8
1
  6
CONTINUOUS
 62
             7
100
AcDbLine
 10
-33.6627489297133
 20
152.01209302325631
 11
-33.6627489297133
 21
170.01209302325631
  0
LINE
  5
145
100
AcDbEntity
  8
1
  6
CONTINUOUS
 62
             7
100
AcDbLine
 10
-33.6627489297133
 20
144.473185750505
 11
-30.1627489297133
 21
144.41209302325629
  0
LINE
  5
144
100
AcDbEntity
  8
1
  6
CONTINUOUS
 62
             7
100
AcDbLine
 10
-33.6627489297133
 20
145.8510002960075
 11
-35.1627489297133
 21
145.82481769861519
  0
LINE
  5
143
100
AcDbEntity
  8
1
  6
CONTINUOUS
 62
             7
100
AcDbLine
 10
-33.6627489297133
 20
145.8510002960075
 11
-33.6627489297133
 21
144.473185750505
  0
LINE
  5
142
100
AcDbEntity
  8
1
  6
CONTINUOUS
 62
             7
100
AcDbLine
 10
-33.6627489297133
 20
136.873185750505
 11
-30.1627489297133
 21
136.8120930232563
  0
LINE
  5
141
100
AcDbEntity
  8
1
  6
CONTINUOUS
 62
             7
100
AcDbLine
 10
-33.6627489297133
 20
138.2510002960075
 11
-35.1627489297133
 21
138.2248176986152
  0
LINE
  5
140
100
AcDbEntity
  8
1
  6
CONTINUOUS
 62
             7
100
AcDbLine
 10
-33.6627489297133
 20
136.873185750505
 11
-33.6627489297133
 21
138.2510002960075
  0
LINE
  5
13F
100
AcDbEntity
  8
1
  6
CONTINUOUS
 62
             7
100
AcDbLine
 10
-33.6627489297133
 20
129.27318575050501
 11
-30.1627489297133
 21
129.2120930232563
  0
LINE
  5
13E
100
AcDbEntity
  8
1
  6
CONTINUOUS
 62
             7
100
AcDbLine
 10
-33.6627489297133
 20
130.65100029600751
 11
-35.1627489297133
 21
130.6248176986152
  0
LINE
  5
13D
100
AcDbEntity
  8
1
  6
CONTINUOUS
 62
             7
100
AcDbLine
 10
-33.6627489297133
 20
129.27318575050501
 11
-33.6627489297133
 21
130.65100029600751
  0
LINE
  5
13C
100
AcDbEntity
  8
1
  6
CONTINUOUS
 62
             7
100
AcDbLine
 10
-33.6627489297133
 20
121.673185750505
 11
-30.1627489297133
 21
121.61209302325631
  0
LINE
  5
13B
100
AcDbEntity
  8
1
  6
CONTINUOUS
 62
             7
100
AcDbLine
 10
-33.6627489297133
 20
123.0510002960075
 11
-35.1627489297133
 21
123.02481769861519
  0
LINE
  5
13A
100
AcDbEntity
  8
1
  6
CONTINUOUS
 62
             7
100
AcDbLine
 10
-33.6627489297133
 20
121.673185750505
 11
-33.6627489297133
 21
123.0510002960075
  0
LINE
  5
139
100
AcDbEntity
  8
1
  6
CONTINUOUS
 62
             7
100
AcDbLine
 10
-33.6627489297133
 20
114.073185750505
 11
-30.1627489297133
 21
114.0120930232563
  0
LINE
  5
138
100
AcDbEntity
  8
1
  6
CONTINUOUS
 62
             7
100
AcDbLine
 10
-33.6627489297133
 20
115.45100029600751
 11
-35.1627489297133
 21
115.4248176986152
  0
LINE
  5
137
100
AcDbEntity
  8
1
  6
CONTINUOUS
 62
             7
100
AcDbLine
 10
-33.6627489297133
 20
114.073185750505
 11
-33.6627489297133
 21
115.45100029600751
  0
LINE
  5
136
100
AcDbEntity
  8
1
  6
CONTINUOUS
 62
             7
100
AcDbLine
 10
-33.6627489297133
 20
106.473185750505
 11
-30.1627489297133
 21
106.4120930232563
  0
LINE
  5
135
100
AcDbEntity
  8
1
  6
CONTINUOUS
 62
             7
100
AcDbLine
 10
-33.6627489297133
 20
107.8510002960075
 11
-35.1627489297133
 21
107.82481769861521
  0
LINE
  5
134
100
AcDbEntity
  8
1
  6
CONTINUOUS
 62
             7
100
AcDbLine
 10
-33.6627489297133
 20
106.473185750505
 11
-33.6627489297133
 21
107.8510002960075
  0
LINE
  5
133
100
AcDbEntity
  8
1
  6
CONTINUOUS
 62
             7
100
AcDbLine
 10
-33.6627489297133
 20
98.87318575050502
 11
-30.1627489297133
 21
98.81209302325627
  0
LINE
  5
132
100
AcDbEntity
  8
1
  6
CONTINUOUS
 62
             7
100
AcDbLine
 10
-33.6627489297133
 20
100.2510002960075
 11
-35.1627489297133
 21
100.2248176986152
  0
LINE
  5
131
100
AcDbEntity
  8
1
  6
CONTINUOUS
 62
             7
100
AcDbLine
 10
-33.6627489297133
 20
98.87318575050502
 11
-33.6627489297133
 21
100.2510002960075
  0
LINE
  5
130
100
AcDbEntity
  8
1
  6
CONTINUOUS
 62
             7
100
AcDbLine
 10
-33.6627489297133
 20
91.27318575050504
 11
-30.1627489297133
 21
91.21209302325626
  0
LINE
  5
12F
100
AcDbEntity
  8
1
  6
CONTINUOUS
 62
             7
100
AcDbLine
 10
-33.6627489297133
 20
92.6510002960075
 11
-35.1627489297133
 21
92.62481769861518
  0
LINE
  5
12E
100
AcDbEntity
  8
1
  6
CONTINUOUS
 62
             7
100
AcDbLine
 10
-33.6627489297133
 20
91.27318575050504
 11
-33.6627489297133
 21
92.6510002960075
  0
LINE
  5
12D
100
AcDbEntity
  8
1
  6
CONTINUOUS
 62
             7
100
AcDbLine
 10
-33.6627489297133
 20
83.67318575050503
 11
-30.1627489297133
 21
83.61209302325628
  0
LINE
  5
12C
100
AcDbEntity
  8
1
  6
CONTINUOUS
 62
             7
100
AcDbLine
 10
-33.6627489297133
 20
85.05100029600752
 11
-35.1627489297133
 21
85.02481769861517
  0
LINE
  5
12B
100
AcDbEntity
  8
1
  6
CONTINUOUS
 62
             7
100
AcDbLine
 10
-33.6627489297133
 20
83.67318575050503
 11
-33.6627489297133
 21
85.05100029600752
  0
LINE
  5
12A
100
AcDbEntity
  8
1
  6
CONTINUOUS
 62
             7
100
AcDbLine
 10
-33.6627489297133
 20
77.51209302325628
 11
-30.1627489297133
 21
77.51209302325628
  0
LINE
  5
129
100
AcDbEntity
  8
1
  6
CONTINUOUS
 62
             7
100
AcDbLine
 10
-33.6627489297133
 20
74.01209302325628
 11
-34.6627489297133
 21
74.01209302325628
  0
LINE
  5
128
100
AcDbEntity
  8
1
  6
CONTINUOUS
 62
             7
100
AcDbLine
 10
-33.6627489297133
 20
77.51209302325628
 11
-33.6627489297133
 21
74.01209302325628
  0
LINE
  5
127
100
AcDbEntity
  8
1
  6
CONTINUOUS
 62
             7
100
AcDbLine
 10
-35.1627489297133
 20
77.51209302325628
 11
-33.6627489297133
 21
77.51209302325628
  0
LINE
  5
126
100
AcDbEntity
  8
1
  6
CONTINUOUS
 62
             7
100
AcDbLine
 10
-35.1627489297133
 20
77.51209302325628
 11
-35.1627489297133
 21
74.51209302325628
  0
LINE
  5
125
100
AcDbEntity
  8
1
  6
CONTINUOUS
 62
             7
100
AcDbLine
 10
-30.1627489297133
 20
83.61209302325628
 11
-30.1627489297133
 21
77.51209302325628
  0
LINE
  5
124
100
AcDbEntity
  8
1
  6
CONTINUOUS
 62
             7
100
AcDbLine
 10
-30.1627489297133
 20
91.21209302325626
 11
-30.1627489297133
 21
85.11209302325628
  0
LINE
  5
123
100
AcDbEntity
  8
1
  6
CONTINUOUS
 62
             7
100
AcDbLine
 10
-30.1627489297133
 20
98.81209302325627
 11
-30.1627489297133
 21
92.71209302325626
  0
LINE
  5
122
100
AcDbEntity
  8
1
  6
CONTINUOUS
 62
             7
100
AcDbLine
 10
-30.1627489297133
 20
106.4120930232563
 11
-30.1627489297133
 21
100.3120930232563
  0
LINE
  5
121
100
AcDbEntity
  8
1
  6
CONTINUOUS
 62
             7
100
AcDbLine
 10
-30.1627489297133
 20
114.0120930232563
 11
-30.1627489297133
 21
107.9120930232563
  0
LINE
  5
120
100
AcDbEntity
  8
1
  6
CONTINUOUS
 62
             7
100
AcDbLine
 10
-30.1627489297133
 20
121.61209302325631
 11
-30.1627489297133
 21
115.5120930232563
  0
LINE
  5
11F
100
AcDbEntity
  8
1
  6
CONTINUOUS
 62
             7
100
AcDbLine
 10
-30.1627489297133
 20
129.2120930232563
 11
-30.1627489297133
 21
123.11209302325631
  0
LINE
  5
11E
100
AcDbEntity
  8
1
  6
CONTINUOUS
 62
             7
100
AcDbLine
 10
-30.1627489297133
 20
136.8120930232563
 11
-30.1627489297133
 21
130.7120930232563
  0
LINE
  5
11D
100
AcDbEntity
  8
1
  6
CONTINUOUS
 62
             7
100
AcDbLine
 10
-30.1627489297133
 20
144.41209302325629
 11
-30.1627489297133
 21
138.3120930232563
  0
LINE
  5
11C
100
AcDbEntity
  8
1
  6
CONTINUOUS
 62
             7
100
AcDbLine
 10
-35.1627489297133
 20
83.69936834789739
 11
-33.6627489297133
 21
83.67318575050503
  0
LINE
  5
11B
100
AcDbEntity
  8
1
  6
CONTINUOUS
 62
             7
100
AcDbLine
 10
-35.1627489297133
 20
85.02481769861517
 11
-35.1627489297133
 21
83.69936834789739
  0
LINE
  5
11A
100
AcDbEntity
  8
1
  6
CONTINUOUS
 62
             7
100
AcDbLine
 10
-30.1627489297133
 20
85.11209302325628
 11
-33.6627489297133
 21
85.05100029600752
  0
LINE
  5
119
100
AcDbEntity
  8
1
  6
CONTINUOUS
 62
             7
100
AcDbLine
 10
-35.1627489297133
 20
91.29936834789736
 11
-33.6627489297133
 21
91.27318575050504
  0
LINE
  5
118
100
AcDbEntity
  8
1
  6
CONTINUOUS
 62
             7
100
AcDbLine
 10
-35.1627489297133
 20
92.62481769861518
 11
-35.1627489297133
 21
91.29936834789736
  0
LINE
  5
117
100
AcDbEntity
  8
1
  6
CONTINUOUS
 62
             7
100
AcDbLine
 10
-30.1627489297133
 20
92.71209302325626
 11
-33.6627489297133
 21
92.6510002960075
  0
LINE
  5
116
100
AcDbEntity
  8
1
  6
CONTINUOUS
 62
             7
100
AcDbLine
 10
-35.1627489297133
 20
98.89936834789737
 11
-33.6627489297133
 21
98.87318575050502
  0
LINE
  5
115
100
AcDbEntity
  8
1
  6
CONTINUOUS
 62
             7
100
AcDbLine
 10
-35.1627489297133
 20
100.2248176986152
 11
-35.1627489297133
 21
98.89936834789737
  0
LINE
  5
114
100
AcDbEntity
  8
1
  6
CONTINUOUS
 62
             7
100
AcDbLine
 10
-30.1627489297133
 20
100.3120930232563
 11
-33.6627489297133
 21
100.2510002960075
  0
LINE
  5
113
100
AcDbEntity
  8
1
  6
CONTINUOUS
 62
             7
100
AcDbLine
 10
-35.1627489297133
 20
106.4993683478974
 11
-33.6627489297133
 21
106.473185750505
  0
LINE
  5
112
100
AcDbEntity
  8
1
  6
CONTINUOUS
 62
             7
100
AcDbLine
 10
-35.1627489297133
 20
107.82481769861521
 11
-35.1627489297133
 21
106.4993683478974
  0
LINE
  5
111
100
AcDbEntity
  8
1
  6
CONTINUOUS
 62
             7
100
AcDbLine
 10
-30.1627489297133
 20
107.9120930232563
 11
-33.6627489297133
 21
107.8510002960075
  0
LINE
  5
110
100
AcDbEntity
  8
1
  6
CONTINUOUS
 62
             7
100
AcDbLine
 10
-35.1627489297133
 20
114.0993683478974
 11
-33.6627489297133
 21
114.073185750505
  0
LINE
  5
10F
100
AcDbEntity
  8
1
  6
CONTINUOUS
 62
             7
100
AcDbLine
 10
-35.1627489297133
 20
115.4248176986152
 11
-35.1627489297133
 21
114.0993683478974
  0
LINE
  5
10E
100
AcDbEntity
  8
1
  6
CONTINUOUS
 62
             7
100
AcDbLine
 10
-30.1627489297133
 20
115.5120930232563
 11
-33.6627489297133
 21
115.45100029600751
  0
LINE
  5
10D
100
AcDbEntity
  8
1
  6
CONTINUOUS
 62
             7
100
AcDbLine
 10
-35.1627489297133
 20
121.6993683478974
 11
-33.6627489297133
 21
121.673185750505
  0
LINE
  5
10C
100
AcDbEntity
  8
1
  6
CONTINUOUS
 62
             7
100
AcDbLine
 10
-35.1627489297133
 20
123.02481769861519
 11
-35.1627489297133
 21
121.6993683478974
  0
LINE
  5
10B
100
AcDbEntity
  8
1
  6
CONTINUOUS
 62
             7
100
AcDbLine
 10
-30.1627489297133
 20
123.11209302325631
 11
-33.6627489297133
 21
123.0510002960075
  0
LINE
  5
10A
100
AcDbEntity
  8
1
  6
CONTINUOUS
 62
             7
100
AcDbLine
 10
-35.1627489297133
 20
129.2993683478974
 11
-33.6627489297133
 21
129.27318575050501
  0
LINE
  5
109
100
AcDbEntity
  8
1
  6
CONTINUOUS
 62
             7
100
AcDbLine
 10
-35.1627489297133
 20
130.6248176986152
 11
-35.1627489297133
 21
129.2993683478974
  0
LINE
  5
108
100
AcDbEntity
  8
1
  6
CONTINUOUS
 62
             7
100
AcDbLine
 10
-30.1627489297133
 20
130.7120930232563
 11
-33.6627489297133
 21
130.65100029600751
  0
LINE
  5
107
100
AcDbEntity
  8
1
  6
CONTINUOUS
 62
             7
100
AcDbLine
 10
-35.1627489297133
 20
136.89936834789739
 11
-33.6627489297133
 21
136.873185750505
  0
LINE
  5
106
100
AcDbEntity
  8
1
  6
CONTINUOUS
 62
             7
100
AcDbLine
 10
-35.1627489297133
 20
138.2248176986152
 11
-35.1627489297133
 21
136.89936834789739
  0
LINE
  5
105
100
AcDbEntity
  8
1
  6
CONTINUOUS
 62
             7
100
AcDbLine
 10
-30.1627489297133
 20
138.3120930232563
 11
-33.6627489297133
 21
138.2510002960075
  0
LINE
  5
104
100
AcDbEntity
  8
1
  6
CONTINUOUS
 62
             7
100
AcDbLine
 10
-35.1627489297133
 20
144.49936834789739
 11
-33.6627489297133
 21
144.473185750505
  0
LINE
  5
103
100
AcDbEntity
  8
1
  6
CONTINUOUS
 62
             7
100
AcDbLine
 10
-35.1627489297133
 20
145.82481769861519
 11
-35.1627489297133
 21
144.49936834789739
  0
LINE
  5
102
100
AcDbEntity
  8
1
  6
CONTINUOUS
 62
             7
100
AcDbLine
 10
-30.1627489297133
 20
145.91209302325629
 11
-33.6627489297133
 21
145.8510002960075
  0
LINE
  5
101
100
AcDbEntity
  8
1
  6
CONTINUOUS
 62
             7
100
AcDbLine
 10
-30.1627489297133
 20
152.01209302325631
 11
-30.1627489297133
 21
145.91209302325629
  0
LINE
  5
100
100
AcDbEntity
  8
1
  6
CONTINUOUS
 62
             7
100
AcDbLine
 10
-35.1627489297133
 20
152.01209302325631
 11
-33.6627489297133
 21
152.01209302325631
  0
LINE
  5
FF
100
AcDbEntity
  8
1
  6
CONTINUOUS
 62
             7
100
AcDbLine
 10
-35.1627489297133
 20
169.51209302325631
 11
-35.1627489297133
 21
152.01209302325631
  0
LINE
  5
FE
100
AcDbEntity
  8
1
  6
CONTINUOUS
 62
             7
100
AcDbLine
 10
58.8372510702867
 20
170.01209302325631
 11
58.8372510702867
 21
144.49328067264889
  0
LINE
  5
FD
100
AcDbEntity
  8
1
  6
CONTINUOUS
 62
             7
100
AcDbLine
 10
64.8372510702867
 20
139.51209302325631
 11
63.68255053190751
 21
137.51209302325631
  0
LINE
  5
FC
100
AcDbEntity
  8
1
  6
CONTINUOUS
 62
             7
100
AcDbLine
 10
63.68255053190751
 20
137.51209302325631
 11
62.3372510702867
 21
137.51209302325631
  0
LINE
  5
FB
100
AcDbEntity
  8
1
  6
CONTINUOUS
 62
             7
100
AcDbLine
 10
62.3372510702867
 20
137.51209302325631
 11
62.3372510702867
 21
139.51209302325631
  0
LINE
  5
FA
100
AcDbEntity
  8
1
  6
CONTINUOUS
 62
             7
100
AcDbLine
 10
60.8372510702867
 20
108.0120930232563
 11
61.3372510702867
 21
108.0120930232563
  0
LINE
  5
F9
100
AcDbEntity
  8
1
  6
CONTINUOUS
 62
             7
100
AcDbLine
 10
61.3372510702867
 20
108.0120930232563
 11
61.3372510702867
 21
106.0120930232563
  0
LINE
  5
F8
100
AcDbEntity
  8
1
  6
CONTINUOUS
 62
             7
100
AcDbLine
 10
61.3372510702867
 20
106.0120930232563
 11
60.8372510702867
 21
106.0120930232563
  0
LINE
  5
F7
100
AcDbEntity
  8
1
  6
CONTINUOUS
 62
             7
100
AcDbLine
 10
64.8372510702867
 20
170.01209302325631
 11
64.8372510702867
 21
139.51209302325631
  0
LINE
  5
F6
100
AcDbEntity
  8
1
  6
CONTINUOUS
 62
             7
100
AcDbLine
 10
64.8372510702867
 20
139.51209302325631
 11
60.8372510702867
 21
139.51209302325631
  0
LINE
  5
F5
100
AcDbEntity
  8
1
  6
CONTINUOUS
 62
             7
100
AcDbLine
 10
60.8372510702867
 20
139.51209302325631
 11
60.8372510702867
 21
104.0120930232563
  0
LINE
  5
F4
100
AcDbEntity
  8
1
  6
CONTINUOUS
 62
             7
100
AcDbLine
 10
60.8372510702867
 20
104.0120930232563
 11
64.8372510702867
 21
104.0120930232563
  0
LINE
  5
F3
100
AcDbEntity
  8
1
  6
CONTINUOUS
 62
             7
100
AcDbLine
 10
60.7372510702869
 20
83.41209302325626
 11
62.93725107028661
 21
83.41209302325626
  0
LINE
  5
F2
100
AcDbEntity
  8
1
  6
CONTINUOUS
 62
             7
100
AcDbLine
 10
62.93725107028661
 20
83.41209302325626
 11
62.93725107028661
 21
86.61209302325628
  0
LINE
  5
F1
100
AcDbEntity
  8
1
  6
CONTINUOUS
 62
             7
100
AcDbLine
 10
62.93725107028661
 20
86.61209302325628
 11
60.7372510702869
 21
86.61209302325628
  0
LINE
  5
F0
100
AcDbEntity
  8
1
  6
CONTINUOUS
 62
             7
100
AcDbLine
 10
60.7372510702869
 20
86.61209302325628
 11
60.7372510702869
 21
83.41209302325626
  0
LINE
  5
EF
100
AcDbEntity
  8
1
  6
CONTINUOUS
 62
             7
100
AcDbLine
 10
60.7372510702869
 20
153.41209302325629
 11
62.93725107028661
 21
153.41209302325629
  0
LINE
  5
EE
100
AcDbEntity
  8
1
  6
CONTINUOUS
 62
             7
100
AcDbLine
 10
62.93725107028661
 20
153.41209302325629
 11
62.93725107028661
 21
156.61209302325631
  0
LINE
  5
ED
100
AcDbEntity
  8
1
  6
CONTINUOUS
 62
             7
100
AcDbLine
 10
62.93725107028661
 20
156.61209302325631
 11
60.7372510702869
 21
156.61209302325631
  0
LINE
  5
EC
100
AcDbEntity
  8
1
  6
CONTINUOUS
 62
             7
100
AcDbLine
 10
60.7372510702869
 20
156.61209302325631
 11
60.7372510702869
 21
153.41209302325629
  0
LINE
  5
EB
100
AcDbEntity
  8
1
  6
CONTINUOUS
 62
             7
100
AcDbLine
 10
-33.6627489297133
 20
170.01209302325631
 11
58.8372510702867
 21
170.01209302325631
  0
LINE
  5
EA
100
AcDbEntity
  8
1
  6
CONTINUOUS
 62
             7
100
AcDbLine
 10
62.8372510702867
 20
106.5120930232563
 11
64.8372510702867
 21
104.0120930232563
  0
LINE
  5
E9
100
AcDbEntity
  8
1
  6
DOTTED
 62
             7
100
AcDbLine
 10
62.3372510702867
 20
106.5120930232563
 11
62.8372510702867
 21
106.5120930232563
  0
LINE
  5
E8
100
AcDbEntity
  8
1
  6
CONTINUOUS
 62
             7
100
AcDbLine
 10
64.8372510702867
 20
72.01209302325628
 11
60.8372510702867
 21
72.01209302325628
  0
LINE
  5
E7
100
AcDbEntity
  8
1
  6
CONTINUOUS
 62
             7
100
AcDbLine
 10
64.8372510702867
 20
70.01209302325628
 11
60.8372510702867
 21
70.01209302325628
  0
LINE
  5
E6
100
AcDbEntity
  8
1
  6
CONTINUOUS
 62
             7
100
AcDbLine
 10
62.3372510702867
 20
106.5120930232563
 11
62.3372510702867
 21
104.0120930232563
  0
LINE
  5
E5
100
AcDbEntity
  8
1
  6
CONTINUOUS
 62
             7
100
AcDbLine
 10
60.8372510702867
 20
70.01209302325628
 11
60.8372510702867
 21
74.01209302325631
  0
LINE
  5
E4
100
AcDbEntity
  8
1
  6
CONTINUOUS
 62
             7
100
AcDbLine
 10
64.8372510702867
 20
70.01209302325628
 11
64.8372510702867
 21
104.0120930232563
  0
LINE
  5
E3
100
AcDbEntity
  8
1
  6
DOTTED
 62
             7
100
AcDbLine
 10
62.3372510702867
 20
139.41209302325629
 11
61.3372510702867
 21
139.41209302325629
  0
LINE
  5
E2
100
AcDbEntity
  8
1
  6
DOTTED
 62
             7
100
AcDbLine
 10
61.3372510702867
 20
139.41209302325629
 11
61.3372510702867
 21
136.51209302325631
  0
LINE
  5
E1
100
AcDbEntity
  8
1
  6
DOTTED
 62
             7
100
AcDbLine
 10
63.3372510702867
 20
134.51209302325631
 11
67.2372510702869
 21
134.51209302325631
  0
LINE
  5
E0
100
AcDbEntity
  8
1
  6
DOTTED
 62
             7
100
AcDbLine
 10
67.2372510702869
 20
134.51209302325631
 11
67.2372510702869
 21
109.5120930232563
  0
LINE
  5
DF
100
AcDbEntity
  8
1
  6
DOTTED
 62
             7
100
AcDbLine
 10
67.2372510702869
 20
109.5120930232563
 11
63.3372510702867
 21
109.5120930232563
  0
LINE
  5
DE
100
AcDbEntity
  8
1
  6
DOTTED
 62
             7
100
AcDbLine
 10
61.3372510702867
 20
107.5120930232563
 11
61.3372510702867
 21
104.61209302325631
  0
LINE
  5
DD
100
AcDbEntity
  8
1
  6
DOTTED
 62
             7
100
AcDbLine
 10
61.3372510702867
 20
104.61209302325631
 11
62.3372510702867
 21
104.61209302325631
  0
LINE
  5
DC
100
AcDbEntity
  8
1
  6
DOTTED
 62
             7
100
AcDbLine
 10
62.3372510702867
 20
106.5120930232563
 11
63.3372510702867
 21
108.0120930232563
  0
LINE
  5
DB
100
AcDbEntity
  8
1
  6
DOTTED
 62
             7
100
AcDbLine
 10
63.3372510702867
 20
108.0120930232563
 11
67.8372510702867
 21
108.0120930232563
  0
LINE
  5
DA
100
AcDbEntity
  8
1
  6
DOTTED
 62
             7
100
AcDbLine
 10
68.8372510702867
 20
109.0120930232563
 11
68.8372510702867
 21
135.01209302325631
  0
LINE
  5
D9
100
AcDbEntity
  8
1
  6
DOTTED
 62
             7
100
AcDbLine
 10
67.8372510702867
 20
136.01209302325631
 11
63.3372510702867
 21
136.01209302325631
  0
LINE
  5
D8
100
AcDbEntity
  8
1
  6
DOTTED
 62
             7
100
AcDbLine
 10
63.3372510702867
 20
136.01209302325631
 11
62.3372510702867
 21
137.51209302325631
  0
LINE
  5
D7
100
AcDbEntity
  8
1
  6
CONTINUOUS
 62
             7
100
AcDbLine
 10
-31.6627489297133
 20
151.86209302325619
 11
-30.1627489297133
 21
151.86209302325619
  0
LINE
  5
D6
100
AcDbEntity
  8
1
  6
CONTINUOUS
 62
             7
100
AcDbLine
 10
-31.6627489297133
 20
146.06209302325621
 11
-31.6627489297133
 21
151.86209302325619
  0
LINE
  5
D5
100
AcDbEntity
  8
1
  6
CONTINUOUS
 62
             7
100
AcDbLine
 10
-30.1627489297133
 20
146.06209302325621
 11
-31.6627489297133
 21
146.06209302325621
  0
LINE
  5
D4
100
AcDbEntity
  8
1
  6
CONTINUOUS
 62
             7
100
AcDbLine
 10
-30.6627489297133
 20
150.46209302325619
 11
-30.1627489297133
 21
151.86209302325619
  0
LINE
  5
D3
100
AcDbEntity
  8
1
  6
CONTINUOUS
 62
             7
100
AcDbLine
 10
-30.6627489297133
 20
149.46209302325619
 11
-30.6627489297133
 21
150.46209302325619
  0
LINE
  5
D2
100
AcDbEntity
  8
1
  6
CONTINUOUS
 62
             7
100
AcDbLine
 10
-30.1627489297133
 20
149.46209302325619
 11
-30.6627489297133
 21
149.46209302325619
  0
LINE
  5
D1
100
AcDbEntity
  8
1
  6
CONTINUOUS
 62
             7
100
AcDbLine
 10
-30.1627489297133
 20
148.46209302325619
 11
-30.1627489297133
 21
149.46209302325619
  0
LINE
  5
D0
100
AcDbEntity
  8
1
  6
CONTINUOUS
 62
             7
100
AcDbLine
 10
-30.6627489297133
 20
148.46209302325619
 11
-30.1627489297133
 21
148.46209302325619
  0
LINE
  5
CF
100
AcDbEntity
  8
1
  6
CONTINUOUS
 62
             7
100
AcDbLine
 10
-30.6627489297133
 20
147.46209302325619
 11
-30.6627489297133
 21
148.46209302325619
  0
LINE
  5
CE
100
AcDbEntity
  8
1
  6
CONTINUOUS
 62
             7
100
AcDbLine
 10
-30.1627489297133
 20
146.06209302325621
 11
-30.6627489297133
 21
147.46209302325619
  0
LINE
  5
CD
100
AcDbEntity
  8
1
  6
CONTINUOUS
 62
             7
100
AcDbLine
 10
-31.6627489297133
 20
150.46209302325619
 11
-31.1627489297133
 21
151.86209302325619
  0
LINE
  5
CC
100
AcDbEntity
  8
1
  6
CONTINUOUS
 62
             7
100
AcDbLine
 10
-31.1627489297133
 20
149.46209302325619
 11
-31.6627489297133
 21
149.46209302325619
  0
LINE
  5
CB
100
AcDbEntity
  8
1
  6
CONTINUOUS
 62
             7
100
AcDbLine
 10
-31.1627489297133
 20
148.46209302325619
 11
-31.1627489297133
 21
149.46209302325619
  0
LINE
  5
CA
100
AcDbEntity
  8
1
  6
CONTINUOUS
 62
             7
100
AcDbLine
 10
-31.6627489297133
 20
148.46209302325619
 11
-31.1627489297133
 21
148.46209302325619
  0
LINE
  5
C9
100
AcDbEntity
  8
1
  6
CONTINUOUS
 62
             7
100
AcDbLine
 10
-31.1627489297133
 20
146.06209302325621
 11
-31.6627489297133
 21
147.46209302325619
  0
LINE
  5
C8
100
AcDbEntity
  8
1
  6
CONTINUOUS
 62
             7
100
AcDbLine
 10
-32.40186907133784
 20
151.71209302325619
 11
-31.6627489297133
 21
151.71209302325619
  0
LINE
  5
C7
100
AcDbEntity
  8
1
  6
CONTINUOUS
 62
             7
100
AcDbLine
 10
-31.6627489297133
 20
146.21209302325619
 11
-32.40186907133784
 21
146.21209302325619
  0
LINE
  5
C6
100
AcDbEntity
  8
1
  6
CONTINUOUS
 62
             7
100
AcDbLine
 10
-31.6627489297133
 20
144.2620930232562
 11
-30.1627489297133
 21
144.2620930232562
  0
LINE
  5
C5
100
AcDbEntity
  8
1
  6
CONTINUOUS
 62
             7
100
AcDbLine
 10
-31.6627489297133
 20
138.46209302325619
 11
-31.6627489297133
 21
144.2620930232562
  0
LINE
  5
C4
100
AcDbEntity
  8
1
  6
CONTINUOUS
 62
             7
100
AcDbLine
 10
-30.1627489297133
 20
138.46209302325619
 11
-31.6627489297133
 21
138.46209302325619
  0
LINE
  5
C3
100
AcDbEntity
  8
1
  6
CONTINUOUS
 62
             7
100
AcDbLine
 10
-30.6627489297133
 20
142.86209302325619
 11
-30.1627489297133
 21
144.2620930232562
  0
LINE
  5
C2
100
AcDbEntity
  8
1
  6
CONTINUOUS
 62
             7
100
AcDbLine
 10
-30.6627489297133
 20
141.86209302325619
 11
-30.6627489297133
 21
142.86209302325619
  0
LINE
  5
C1
100
AcDbEntity
  8
1
  6
CONTINUOUS
 62
             7
100
AcDbLine
 10
-30.1627489297133
 20
141.86209302325619
 11
-30.6627489297133
 21
141.86209302325619
  0
LINE
  5
C0
100
AcDbEntity
  8
1
  6
CONTINUOUS
 62
             7
100
AcDbLine
 10
-30.1627489297133
 20
140.86209302325619
 11
-30.1627489297133
 21
141.86209302325619
  0
LINE
  5
BF
100
AcDbEntity
  8
1
  6
CONTINUOUS
 62
             7
100
AcDbLine
 10
-30.6627489297133
 20
140.86209302325619
 11
-30.1627489297133
 21
140.86209302325619
  0
LINE
  5
BE
100
AcDbEntity
  8
1
  6
CONTINUOUS
 62
             7
100
AcDbLine
 10
-30.6627489297133
 20
139.86209302325619
 11
-30.6627489297133
 21
140.86209302325619
  0
LINE
  5
BD
100
AcDbEntity
  8
1
  6
CONTINUOUS
 62
             7
100
AcDbLine
 10
-30.1627489297133
 20
138.46209302325619
 11
-30.6627489297133
 21
139.86209302325619
  0
LINE
  5
BC
100
AcDbEntity
  8
1
  6
CONTINUOUS
 62
             7
100
AcDbLine
 10
-31.6627489297133
 20
142.86209302325619
 11
-31.1627489297133
 21
144.2620930232562
  0
LINE
  5
BB
100
AcDbEntity
  8
1
  6
CONTINUOUS
 62
             7
100
AcDbLine
 10
-31.1627489297133
 20
141.86209302325619
 11
-31.6627489297133
 21
141.86209302325619
  0
LINE
  5
BA
100
AcDbEntity
  8
1
  6
CONTINUOUS
 62
             7
100
AcDbLine
 10
-31.1627489297133
 20
140.86209302325619
 11
-31.1627489297133
 21
141.86209302325619
  0
LINE
  5
B9
100
AcDbEntity
  8
1
  6
CONTINUOUS
 62
             7
100
AcDbLine
 10
-31.6627489297133
 20
140.86209302325619
 11
-31.1627489297133
 21
140.86209302325619
  0
LINE
  5
B8
100
AcDbEntity
  8
1
  6
CONTINUOUS
 62
             7
100
AcDbLine
 10
-31.1627489297133
 20
138.46209302325619
 11
-31.6627489297133
 21
139.86209302325619
  0
LINE
  5
B7
100
AcDbEntity
  8
1
  6
CONTINUOUS
 62
             7
100
AcDbLine
 10
-32.40186907133784
 20
144.11209302325619
 11
-31.6627489297133
 21
144.11209302325619
  0
LINE
  5
B6
100
AcDbEntity
  8
1
  6
CONTINUOUS
 62
             7
100
AcDbLine
 10
-31.6627489297133
 20
138.61209302325619
 11
-32.40186907133784
 21
138.61209302325619
  0
LINE
  5
B5
100
AcDbEntity
  8
1
  6
CONTINUOUS
 62
             7
100
AcDbLine
 10
-31.6627489297133
 20
136.6620930232562
 11
-30.1627489297133
 21
136.6620930232562
  0
LINE
  5
B4
100
AcDbEntity
  8
1
  6
CONTINUOUS
 62
             7
100
AcDbLine
 10
-31.6627489297133
 20
130.86209302325619
 11
-31.6627489297133
 21
136.6620930232562
  0
LINE
  5
B3
100
AcDbEntity
  8
1
  6
CONTINUOUS
 62
             7
100
AcDbLine
 10
-30.1627489297133
 20
130.86209302325619
 11
-31.6627489297133
 21
130.86209302325619
  0
LINE
  5
B2
100
AcDbEntity
  8
1
  6
CONTINUOUS
 62
             7
100
AcDbLine
 10
-30.6627489297133
 20
135.2620930232562
 11
-30.1627489297133
 21
136.6620930232562
  0
LINE
  5
B1
100
AcDbEntity
  8
1
  6
CONTINUOUS
 62
             7
100
AcDbLine
 10
-30.6627489297133
 20
134.2620930232562
 11
-30.6627489297133
 21
135.2620930232562
  0
LINE
  5
B0
100
AcDbEntity
  8
1
  6
CONTINUOUS
 62
             7
100
AcDbLine
 10
-30.1627489297133
 20
134.2620930232562
 11
-30.6627489297133
 21
134.2620930232562
  0
LINE
  5
AF
100
AcDbEntity
  8
1
  6
CONTINUOUS
 62
             7
100
AcDbLine
 10
-30.1627489297133
 20
133.2620930232562
 11
-30.1627489297133
 21
134.2620930232562
  0
LINE
  5
AE
100
AcDbEntity
  8
1
  6
CONTINUOUS
 62
             7
100
AcDbLine
 10
-30.6627489297133
 20
133.2620930232562
 11
-30.1627489297133
 21
133.2620930232562
  0
LINE
  5
AD
100
AcDbEntity
  8
1
  6
CONTINUOUS
 62
             7
100
AcDbLine
 10
-30.6627489297133
 20
132.2620930232562
 11
-30.6627489297133
 21
133.2620930232562
  0
LINE
  5
AC
100
AcDbEntity
  8
1
  6
CONTINUOUS
 62
             7
100
AcDbLine
 10
-30.1627489297133
 20
130.86209302325619
 11
-30.6627489297133
 21
132.2620930232562
  0
LINE
  5
AB
100
AcDbEntity
  8
1
  6
CONTINUOUS
 62
             7
100
AcDbLine
 10
-31.6627489297133
 20
135.2620930232562
 11
-31.1627489297133
 21
136.6620930232562
  0
LINE
  5
AA
100
AcDbEntity
  8
1
  6
CONTINUOUS
 62
             7
100
AcDbLine
 10
-31.1627489297133
 20
134.2620930232562
 11
-31.6627489297133
 21
134.2620930232562
  0
LINE
  5
A9
100
AcDbEntity
  8
1
  6
CONTINUOUS
 62
             7
100
AcDbLine
 10
-31.1627489297133
 20
133.2620930232562
 11
-31.1627489297133
 21
134.2620930232562
  0
LINE
  5
A8
100
AcDbEntity
  8
1
  6
CONTINUOUS
 62
             7
100
AcDbLine
 10
-31.6627489297133
 20
133.2620930232562
 11
-31.1627489297133
 21
133.2620930232562
  0
LINE
  5
A7
100
AcDbEntity
  8
1
  6
CONTINUOUS
 62
             7
100
AcDbLine
 10
-31.1627489297133
 20
130.86209302325619
 11
-31.6627489297133
 21
132.2620930232562
  0
LINE
  5
A6
100
AcDbEntity
  8
1
  6
CONTINUOUS
 62
             7
100
AcDbLine
 10
-32.40186907133784
 20
136.5120930232562
 11
-31.6627489297133
 21
136.5120930232562
  0
LINE
  5
A5
100
AcDbEntity
  8
1
  6
CONTINUOUS
 62
             7
100
AcDbLine
 10
-31.6627489297133
 20
131.0120930232562
 11
-32.40186907133784
 21
131.0120930232562
  0
LINE
  5
A4
100
AcDbEntity
  8
1
  6
CONTINUOUS
 62
             7
100
AcDbLine
 10
-31.6627489297133
 20
129.06209302325621
 11
-30.1627489297133
 21
129.06209302325621
  0
LINE
  5
A3
100
AcDbEntity
  8
1
  6
CONTINUOUS
 62
             7
100
AcDbLine
 10
-31.6627489297133
 20
123.2620930232562
 11
-31.6627489297133
 21
129.06209302325621
  0
LINE
  5
A2
100
AcDbEntity
  8
1
  6
CONTINUOUS
 62
             7
100
AcDbLine
 10
-30.1627489297133
 20
123.2620930232562
 11
-31.6627489297133
 21
123.2620930232562
  0
LINE
  5
A1
100
AcDbEntity
  8
1
  6
CONTINUOUS
 62
             7
100
AcDbLine
 10
-30.6627489297133
 20
127.6620930232562
 11
-30.1627489297133
 21
129.06209302325621
  0
LINE
  5
A0
100
AcDbEntity
  8
1
  6
CONTINUOUS
 62
             7
100
AcDbLine
 10
-30.6627489297133
 20
126.6620930232562
 11
-30.6627489297133
 21
127.6620930232562
  0
LINE
  5
9F
100
AcDbEntity
  8
1
  6
CONTINUOUS
 62
             7
100
AcDbLine
 10
-30.1627489297133
 20
126.6620930232562
 11
-30.6627489297133
 21
126.6620930232562
  0
LINE
  5
9E
100
AcDbEntity
  8
1
  6
CONTINUOUS
 62
             7
100
AcDbLine
 10
-30.1627489297133
 20
125.6620930232562
 11
-30.1627489297133
 21
126.6620930232562
  0
LINE
  5
9D
100
AcDbEntity
  8
1
  6
CONTINUOUS
 62
             7
100
AcDbLine
 10
-30.6627489297133
 20
125.6620930232562
 11
-30.1627489297133
 21
125.6620930232562
  0
LINE
  5
9C
100
AcDbEntity
  8
1
  6
CONTINUOUS
 62
             7
100
AcDbLine
 10
-30.6627489297133
 20
124.6620930232562
 11
-30.6627489297133
 21
125.6620930232562
  0
LINE
  5
9B
100
AcDbEntity
  8
1
  6
CONTINUOUS
 62
             7
100
AcDbLine
 10
-30.1627489297133
 20
123.2620930232562
 11
-30.6627489297133
 21
124.6620930232562
  0
LINE
  5
9A
100
AcDbEntity
  8
1
  6
CONTINUOUS
 62
             7
100
AcDbLine
 10
-31.6627489297133
 20
127.6620930232562
 11
-31.1627489297133
 21
129.06209302325621
  0
LINE
  5
99
100
AcDbEntity
  8
1
  6
CONTINUOUS
 62
             7
100
AcDbLine
 10
-31.1627489297133
 20
126.6620930232562
 11
-31.6627489297133
 21
126.6620930232562
  0
LINE
  5
98
100
AcDbEntity
  8
1
  6
CONTINUOUS
 62
             7
100
AcDbLine
 10
-31.1627489297133
 20
125.6620930232562
 11
-31.1627489297133
 21
126.6620930232562
  0
LINE
  5
97
100
AcDbEntity
  8
1
  6
CONTINUOUS
 62
             7
100
AcDbLine
 10
-31.6627489297133
 20
125.6620930232562
 11
-31.1627489297133
 21
125.6620930232562
  0
LINE
  5
96
100
AcDbEntity
  8
1
  6
CONTINUOUS
 62
             7
100
AcDbLine
 10
-31.1627489297133
 20
123.2620930232562
 11
-31.6627489297133
 21
124.6620930232562
  0
LINE
  5
95
100
AcDbEntity
  8
1
  6
CONTINUOUS
 62
             7
100
AcDbLine
 10
-32.40186907133784
 20
128.9120930232562
 11
-31.6627489297133
 21
128.9120930232562
  0
LINE
  5
94
100
AcDbEntity
  8
1
  6
CONTINUOUS
 62
             7
100
AcDbLine
 10
-31.6627489297133
 20
123.4120930232562
 11
-32.40186907133784
 21
123.4120930232562
  0
LINE
  5
93
100
AcDbEntity
  8
1
  6
CONTINUOUS
 62
             7
100
AcDbLine
 10
-31.6627489297133
 20
121.4620930232561
 11
-30.1627489297133
 21
121.4620930232561
  0
LINE
  5
92
100
AcDbEntity
  8
1
  6
CONTINUOUS
 62
             7
100
AcDbLine
 10
-31.6627489297133
 20
115.6620930232562
 11
-31.6627489297133
 21
121.4620930232561
  0
LINE
  5
91
100
AcDbEntity
  8
1
  6
CONTINUOUS
 62
             7
100
AcDbLine
 10
-30.1627489297133
 20
115.6620930232562
 11
-31.6627489297133
 21
115.6620930232562
  0
LINE
  5
90
100
AcDbEntity
  8
1
  6
CONTINUOUS
 62
             7
100
AcDbLine
 10
-30.6627489297133
 20
120.0620930232562
 11
-30.1627489297133
 21
121.4620930232561
  0
LINE
  5
8F
100
AcDbEntity
  8
1
  6
CONTINUOUS
 62
             7
100
AcDbLine
 10
-30.6627489297133
 20
119.0620930232562
 11
-30.6627489297133
 21
120.0620930232562
  0
LINE
  5
8E
100
AcDbEntity
  8
1
  6
CONTINUOUS
 62
             7
100
AcDbLine
 10
-30.1627489297133
 20
119.0620930232562
 11
-30.6627489297133
 21
119.0620930232562
  0
LINE
  5
8D
100
AcDbEntity
  8
1
  6
CONTINUOUS
 62
             7
100
AcDbLine
 10
-30.1627489297133
 20
118.0620930232562
 11
-30.1627489297133
 21
119.0620930232562
  0
LINE
  5
8C
100
AcDbEntity
  8
1
  6
CONTINUOUS
 62
             7
100
AcDbLine
 10
-30.6627489297133
 20
118.0620930232562
 11
-30.1627489297133
 21
118.0620930232562
  0
LINE
  5
8B
100
AcDbEntity
  8
1
  6
CONTINUOUS
 62
             7
100
AcDbLine
 10
-30.6627489297133
 20
117.0620930232562
 11
-30.6627489297133
 21
118.0620930232562
  0
LINE
  5
8A
100
AcDbEntity
  8
1
  6
CONTINUOUS
 62
             7
100
AcDbLine
 10
-30.1627489297133
 20
115.6620930232562
 11
-30.6627489297133
 21
117.0620930232562
  0
LINE
  5
89
100
AcDbEntity
  8
1
  6
CONTINUOUS
 62
             7
100
AcDbLine
 10
-31.6627489297133
 20
120.0620930232562
 11
-31.1627489297133
 21
121.4620930232561
  0
LINE
  5
88
100
AcDbEntity
  8
1
  6
CONTINUOUS
 62
             7
100
AcDbLine
 10
-31.1627489297133
 20
119.0620930232562
 11
-31.6627489297133
 21
119.0620930232562
  0
LINE
  5
87
100
AcDbEntity
  8
1
  6
CONTINUOUS
 62
             7
100
AcDbLine
 10
-31.1627489297133
 20
118.0620930232562
 11
-31.1627489297133
 21
119.0620930232562
  0
LINE
  5
86
100
AcDbEntity
  8
1
  6
CONTINUOUS
 62
             7
100
AcDbLine
 10
-31.6627489297133
 20
118.0620930232562
 11
-31.1627489297133
 21
118.0620930232562
  0
LINE
  5
85
100
AcDbEntity
  8
1
  6
CONTINUOUS
 62
             7
100
AcDbLine
 10
-31.1627489297133
 20
115.6620930232562
 11
-31.6627489297133
 21
117.0620930232562
  0
LINE
  5
84
100
AcDbEntity
  8
1
  6
CONTINUOUS
 62
             7
100
AcDbLine
 10
-32.40186907133784
 20
121.3120930232562
 11
-31.6627489297133
 21
121.3120930232562
  0
LINE
  5
83
100
AcDbEntity
  8
1
  6
CONTINUOUS
 62
             7
100
AcDbLine
 10
-31.6627489297133
 20
115.8120930232562
 11
-32.40186907133784
 21
115.8120930232562
  0
LINE
  5
82
100
AcDbEntity
  8
1
  6
CONTINUOUS
 62
             7
100
AcDbLine
 10
-31.6627489297133
 20
98.66209302325608
 11
-30.1627489297133
 21
98.66209302325608
  0
LINE
  5
81
100
AcDbEntity
  8
1
  6
CONTINUOUS
 62
             7
100
AcDbLine
 10
-31.6627489297133
 20
92.86209302325614
 11
-31.6627489297133
 21
98.66209302325608
  0
LINE
  5
80
100
AcDbEntity
  8
1
  6
CONTINUOUS
 62
             7
100
AcDbLine
 10
-30.1627489297133
 20
92.86209302325614
 11
-31.6627489297133
 21
92.86209302325614
  0
LINE
  5
7F
100
AcDbEntity
  8
1
  6
CONTINUOUS
 62
             7
100
AcDbLine
 10
-30.6627489297133
 20
97.26209302325611
 11
-30.1627489297133
 21
98.66209302325608
  0
LINE
  5
7E
100
AcDbEntity
  8
1
  6
CONTINUOUS
 62
             7
100
AcDbLine
 10
-30.6627489297133
 20
96.26209302325611
 11
-30.6627489297133
 21
97.26209302325611
  0
LINE
  5
7D
100
AcDbEntity
  8
1
  6
CONTINUOUS
 62
             7
100
AcDbLine
 10
-30.1627489297133
 20
96.26209302325611
 11
-30.6627489297133
 21
96.26209302325611
  0
LINE
  5
7C
100
AcDbEntity
  8
1
  6
CONTINUOUS
 62
             7
100
AcDbLine
 10
-30.1627489297133
 20
95.26209302325611
 11
-30.1627489297133
 21
96.26209302325611
  0
LINE
  5
7B
100
AcDbEntity
  8
1
  6
CONTINUOUS
 62
             7
100
AcDbLine
 10
-30.6627489297133
 20
95.26209302325611
 11
-30.1627489297133
 21
95.26209302325611
  0
LINE
  5
7A
100
AcDbEntity
  8
1
  6
CONTINUOUS
 62
             7
100
AcDbLine
 10
-30.6627489297133
 20
94.26209302325611
 11
-30.6627489297133
 21
95.26209302325611
  0
LINE
  5
79
100
AcDbEntity
  8
1
  6
CONTINUOUS
 62
             7
100
AcDbLine
 10
-30.1627489297133
 20
92.86209302325614
 11
-30.6627489297133
 21
94.26209302325611
  0
LINE
  5
78
100
AcDbEntity
  8
1
  6
CONTINUOUS
 62
             7
100
AcDbLine
 10
-31.6627489297133
 20
97.26209302325611
 11
-31.1627489297133
 21
98.66209302325608
  0
LINE
  5
77
100
AcDbEntity
  8
1
  6
CONTINUOUS
 62
             7
100
AcDbLine
 10
-31.1627489297133
 20
96.26209302325611
 11
-31.6627489297133
 21
96.26209302325611
  0
LINE
  5
76
100
AcDbEntity
  8
1
  6
CONTINUOUS
 62
             7
100
AcDbLine
 10
-31.1627489297133
 20
95.26209302325611
 11
-31.1627489297133
 21
96.26209302325611
  0
LINE
  5
75
100
AcDbEntity
  8
1
  6
CONTINUOUS
 62
             7
100
AcDbLine
 10
-31.6627489297133
 20
95.26209302325611
 11
-31.1627489297133
 21
95.26209302325611
  0
LINE
  5
74
100
AcDbEntity
  8
1
  6
CONTINUOUS
 62
             7
100
AcDbLine
 10
-31.1627489297133
 20
92.86209302325614
 11
-31.6627489297133
 21
94.26209302325611
  0
LINE
  5
73
100
AcDbEntity
  8
1
  6
CONTINUOUS
 62
             7
100
AcDbLine
 10
-32.40186907133784
 20
98.51209302325611
 11
-31.6627489297133
 21
98.51209302325611
  0
LINE
  5
72
100
AcDbEntity
  8
1
  6
CONTINUOUS
 62
             7
100
AcDbLine
 10
-31.6627489297133
 20
93.01209302325611
 11
-32.40186907133784
 21
93.01209302325611
  0
LINE
  5
71
100
AcDbEntity
  8
1
  6
CONTINUOUS
 62
             7
100
AcDbLine
 10
-31.6627489297133
 20
91.06209302325607
 11
-30.1627489297133
 21
91.06209302325607
  0
LINE
  5
70
100
AcDbEntity
  8
1
  6
CONTINUOUS
 62
             7
100
AcDbLine
 10
-31.6627489297133
 20
85.26209302325611
 11
-31.6627489297133
 21
91.06209302325607
  0
LINE
  5
6F
100
AcDbEntity
  8
1
  6
CONTINUOUS
 62
             7
100
AcDbLine
 10
-30.1627489297133
 20
85.26209302325611
 11
-31.6627489297133
 21
85.26209302325611
  0
LINE
  5
6E
100
AcDbEntity
  8
1
  6
CONTINUOUS
 62
             7
100
AcDbLine
 10
-30.6627489297133
 20
89.66209302325611
 11
-30.1627489297133
 21
91.06209302325607
  0
LINE
  5
6D
100
AcDbEntity
  8
1
  6
CONTINUOUS
 62
             7
100
AcDbLine
 10
-30.6627489297133
 20
88.66209302325611
 11
-30.6627489297133
 21
89.66209302325611
  0
LINE
  5
6C
100
AcDbEntity
  8
1
  6
CONTINUOUS
 62
             7
100
AcDbLine
 10
-30.1627489297133
 20
88.66209302325611
 11
-30.6627489297133
 21
88.66209302325611
  0
LINE
  5
6B
100
AcDbEntity
  8
1
  6
CONTINUOUS
 62
             7
100
AcDbLine
 10
-30.1627489297133
 20
87.66209302325611
 11
-30.1627489297133
 21
88.66209302325611
  0
LINE
  5
6A
100
AcDbEntity
  8
1
  6
CONTINUOUS
 62
             7
100
AcDbLine
 10
-30.6627489297133
 20
87.66209302325611
 11
-30.1627489297133
 21
87.66209302325611
  0
LINE
  5
69
100
AcDbEntity
  8
1
  6
CONTINUOUS
 62
             7
100
AcDbLine
 10
-30.6627489297133
 20
86.66209302325611
 11
-30.6627489297133
 21
87.66209302325611
  0
LINE
  5
68
100
AcDbEntity
  8
1
  6
CONTINUOUS
 62
             7
100
AcDbLine
 10
-30.1627489297133
 20
85.26209302325611
 11
-30.6627489297133
 21
86.66209302325611
  0
LINE
  5
67
100
AcDbEntity
  8
1
  6
CONTINUOUS
 62
             7
100
AcDbLine
 10
-31.6627489297133
 20
89.66209302325611
 11
-31.1627489297133
 21
91.06209302325607
  0
LINE
  5
66
100
AcDbEntity
  8
1
  6
CONTINUOUS
 62
             7
100
AcDbLine
 10
-31.1627489297133
 20
88.66209302325611
 11
-31.6627489297133
 21
88.66209302325611
  0
LINE
  5
65
100
AcDbEntity
  8
1
  6
CONTINUOUS
 62
             7
100
AcDbLine
 10
-31.1627489297133
 20
87.66209302325611
 11
-31.1627489297133
 21
88.66209302325611
  0
LINE
  5
64
100
AcDbEntity
  8
1
  6
CONTINUOUS
 62
             7
100
AcDbLine
 10
-31.6627489297133
 20
87.66209302325611
 11
-31.1627489297133
 21
87.66209302325611
  0
LINE
  5
63
100
AcDbEntity
  8
1
  6
CONTINUOUS
 62
             7
100
AcDbLine
 10
-31.1627489297133
 20
85.26209302325611
 11
-31.6627489297133
 21
86.66209302325611
  0
LINE
  5
62
100
AcDbEntity
  8
1
  6
CONTINUOUS
 62
             7
100
AcDbLine
 10
-32.40186907133784
 20
90.91209302325611
 11
-31.6627489297133
 21
90.91209302325611
  0
LINE
  5
61
100
AcDbEntity
  8
1
  6
CONTINUOUS
 62
             7
100
AcDbLine
 10
-31.6627489297133
 20
85.41209302325611
 11
-32.40186907133784
 21
85.41209302325611
  0
LINE
  5
60
100
AcDbEntity
  8
1
  6
CONTINUOUS
 62
             7
100
AcDbLine
 10
-31.6627489297133
 20
83.46209302325605
 11
-30.1627489297133
 21
83.46209302325605
  0
LINE
  5
5F
100
AcDbEntity
  8
1
  6
CONTINUOUS
 62
             7
100
AcDbLine
 10
-31.6627489297133
 20
77.66209302325609
 11
-31.6627489297133
 21
83.46209302325605
  0
LINE
  5
5E
100
AcDbEntity
  8
1
  6
CONTINUOUS
 62
             7
100
AcDbLine
 10
-30.1627489297133
 20
77.66209302325609
 11
-31.6627489297133
 21
77.66209302325609
  0
LINE
  5
5D
100
AcDbEntity
  8
1
  6
CONTINUOUS
 62
             7
100
AcDbLine
 10
-30.6627489297133
 20
82.06209302325607
 11
-30.1627489297133
 21
83.46209302325605
  0
LINE
  5
5C
100
AcDbEntity
  8
1
  6
CONTINUOUS
 62
             7
100
AcDbLine
 10
-30.6627489297133
 20
81.06209302325607
 11
-30.6627489297133
 21
82.06209302325607
  0
LINE
  5
5B
100
AcDbEntity
  8
1
  6
CONTINUOUS
 62
             7
100
AcDbLine
 10
-30.1627489297133
 20
81.06209302325607
 11
-30.6627489297133
 21
81.06209302325607
  0
LINE
  5
5A
100
AcDbEntity
  8
1
  6
CONTINUOUS
 62
             7
100
AcDbLine
 10
-30.1627489297133
 20
80.06209302325607
 11
-30.1627489297133
 21
81.06209302325607
  0
LINE
  5
59
100
AcDbEntity
  8
1
  6
CONTINUOUS
 62
             7
100
AcDbLine
 10
-30.6627489297133
 20
80.06209302325607
 11
-30.1627489297133
 21
80.06209302325607
  0
LINE
  5
58
100
AcDbEntity
  8
1
  6
CONTINUOUS
 62
             7
100
AcDbLine
 10
-30.6627489297133
 20
79.06209302325607
 11
-30.6627489297133
 21
80.06209302325607
  0
LINE
  5
57
100
AcDbEntity
  8
1
  6
CONTINUOUS
 62
             7
100
AcDbLine
 10
-30.1627489297133
 20
77.66209302325609
 11
-30.6627489297133
 21
79.06209302325607
  0
LINE
  5
56
100
AcDbEntity
  8
1
  6
CONTINUOUS
 62
             7
100
AcDbLine
 10
-31.6627489297133
 20
82.06209302325607
 11
-31.1627489297133
 21
83.46209302325605
  0
LINE
  5
55
100
AcDbEntity
  8
1
  6
CONTINUOUS
 62
             7
100
AcDbLine
 10
-31.1627489297133
 20
81.06209302325607
 11
-31.6627489297133
 21
81.06209302325607
  0
LINE
  5
54
100
AcDbEntity
  8
1
  6
CONTINUOUS
 62
             7
100
AcDbLine
 10
-31.1627489297133
 20
80.06209302325607
 11
-31.1627489297133
 21
81.06209302325607
  0
LINE
  5
53
100
AcDbEntity
  8
1
  6
CONTINUOUS
 62
             7
100
AcDbLine
 10
-31.6627489297133
 20
80.06209302325607
 11
-31.1627489297133
 21
80.06209302325607
  0
LINE
  5
52
100
AcDbEntity
  8
1
  6
CONTINUOUS
 62
             7
100
AcDbLine
 10
-31.1627489297133
 20
77.66209302325609
 11
-31.6627489297133
 21
79.06209302325607
  0
LINE
  5
51
100
AcDbEntity
  8
1
  6
CONTINUOUS
 62
             7
100
AcDbLine
 10
-32.40186907133784
 20
83.31209302325607
 11
-31.6627489297133
 21
83.31209302325607
  0
LINE
  5
50
100
AcDbEntity
  8
1
  6
CONTINUOUS
 62
             7
100
AcDbLine
 10
-31.6627489297133
 20
77.81209302325607
 11
-32.40186907133784
 21
77.81209302325607
  0
LINE
  5
4F
100
AcDbEntity
  8
1
  6
CONTINUOUS
 62
             7
100
AcDbLine
 10
58.8372510702867
 20
144.49328067264889
 11
58.8372510702867
 21
91.01209302325628
  0
LINE
  5
4E
100
AcDbEntity
  8
1
  6
CONTINUOUS
 62
             7
100
AcDbLine
 10
58.8372510702867
 20
91.01209302325628
 11
58.8372510702867
 21
74.01209302325628
  0
LINE
  5
4D
100
AcDbEntity
  8
1
  6
CONTINUOUS
 62
             7
100
AcDbLine
 10
58.8372510702867
 20
170.01209302325631
 11
64.8372510702867
 21
170.01209302325631
  0
LINE
  5
4C
100
AcDbEntity
  8
1
  6
CONTINUOUS
 62
             7
100
AcDbLine
 10
-33.6627489297133
 20
74.01209302325628
 11
58.8372510702867
 21
74.01209302325628
  0
LINE
  5
4B
100
AcDbEntity
  8
1
  6
CONTINUOUS
 62
             7
100
AcDbLine
 10
58.8372510702867
 20
74.01209302325628
 11
64.8372510702867
 21
74.01209302325628
  0
LINE
  5
4A
100
AcDbEntity
  8
1
  6
CONTINUOUS
 62
             7
100
AcDbLine
 10
-35.1627489297133
 20
107.82481769861521
 11
-35.1627489297133
 21
109.9120930232563
  0
LINE
  5
49
100
AcDbEntity
  8
1
  6
CONTINUOUS
 62
             7
100
AcDbLine
 10
-35.1627489297133
 20
109.9120930232563
 11
-30.1627489297133
 21
109.9120930232563
  0
LINE
  5
48
100
AcDbEntity
  8
1
  6
CONTINUOUS
 62
             7
100
AcDbLine
 10
-33.6627489297133
 20
107.8510002960075
 11
-33.6627489297133
 21
109.9120930232563
  0
LINE
  5
47
100
AcDbEntity
  8
1
  6
CONTINUOUS
 62
             7
100
AcDbLine
 10
-67.88198774525577
 20
74.59285420771376
 11
-66.04351011417074
 21
76.43133183879878
  0
LINE
  5
46
100
AcDbEntity
  8
1
  6
CONTINUOUS
 62
             7
100
AcDbLine
 10
-67.88198774525577
 20
76.4313318387988
 11
-66.04351011417074
 21
74.59285420771377
  0
LINE
  5
45
100
AcDbEntity
  8
1
  6
CONTINUOUS
 62
             7
100
AcDbLine
 10
-67.88198774525577
 20
169.4313318387988
 11
-66.04351011417074
 21
167.5928542077138
  0
LINE
  5
44
100
AcDbEntity
  8
1
  6
CONTINUOUS
 62
             7
100
AcDbLine
 10
-67.88198774525577
 20
167.5928542077138
 11
-66.04351011417074
 21
169.4313318387988
  0
LINE
  5
43
100
AcDbEntity
  8
1
  6
CONTINUOUS
 62
             7
100
AcDbLine
 10
-68.31274892971328
 20
170.3120930232563
 11
-73.46274892971326
 21
170.3120930232563
  0
LINE
  5
42
100
AcDbEntity
  8
1
  6
CONTINUOUS
 62
             7
100
AcDbLine
 10
-73.46274892971326
 20
170.3120930232563
 11
-73.46274892971326
 21
73.7120930232563
  0
LINE
  5
41
100
AcDbEntity
  8
1
  6
CONTINUOUS
 62
             7
100
AcDbLine
 10
-73.46274892971326
 20
73.7120930232563
 11
-68.31274892971328
 21
73.7120930232563
  0
LINE
  5
40
100
AcDbEntity
  8
1
  6
CONTINUOUS
 62
             7
100
AcDbLine
 10
-65.61274892971323
 20
73.7120930232563
 11
-60.46274892971326
 21
73.7120930232563
  0
LINE
  5
3F
100
AcDbEntity
  8
1
  6
CONTINUOUS
 62
             7
100
AcDbLine
 10
-60.46274892971326
 20
73.7120930232563
 11
-60.46274892971326
 21
170.3120930232563
  0
LINE
  5
3E
100
AcDbEntity
  8
1
  6
CONTINUOUS
 62
             7
100
AcDbLine
 10
-60.46274892971326
 20
170.3120930232563
 11
-65.61274892971323
 21
170.3120930232563
  0
LINE
  5
3D
100
AcDbEntity
  8
1
  6
CONTINUOUS
 62
             7
100
AcDbLine
 10
-36.1627489297133
 20
73.7120930232563
 11
-35.1627489297133
 21
73.7120930232563
  0
LINE
  5
3C
100
AcDbEntity
  8
1
  6
CONTINUOUS
 62
             7
100
AcDbLine
 10
-35.1627489297133
 20
73.7120930232563
 11
-35.1627489297133
 21
170.3120930232563
  0
LINE
  5
3B
100
AcDbEntity
  8
1
  6
CONTINUOUS
 62
             7
100
AcDbLine
 10
-35.1627489297133
 20
170.3120930232563
 11
-36.1627489297133
 21
170.3120930232563
  0
LINE
  5
3A
100
AcDbEntity
  8
1
  6
CONTINUOUS
 62
             7
100
AcDbLine
 10
-36.1627489297133
 20
170.3120930232563
 11
-36.1627489297133
 21
73.7120930232563
  0
LINE
  5
39
100
AcDbEntity
  8
1
  6
CONTINUOUS
 62
             7
100
AcDbLine
 10
-36.1627489297133
 20
77.76209302325628
 11
-36.85649501857299
 21
77.76209302325628
  0
LINE
  5
38
100
AcDbEntity
  8
1
  6
CONTINUOUS
 62
             7
100
AcDbLine
 10
-36.85649501857299
 20
73.26209302325628
 11
-36.1627489297133
 21
73.26209302325628
  0
LINE
  5
37
100
AcDbEntity
  8
1
  6
CONTINUOUS
 62
             7
100
AcDbLine
 10
-36.1627489297133
 20
73.26209302325628
 11
-36.1627489297133
 21
73.7120930232563
  0
LINE
  5
36
100
AcDbEntity
  8
1
  6
CONTINUOUS
 62
             7
100
AcDbLine
 10
-36.1627489297133
 20
170.76209302325631
 11
-36.85649501857299
 21
170.76209302325631
  0
LINE
  5
35
100
AcDbEntity
  8
1
  6
CONTINUOUS
 62
             7
100
AcDbLine
 10
-36.85649501857299
 20
166.26209302325631
 11
-36.1627489297133
 21
166.26209302325631
  0
LINE
  5
34
100
AcDbEntity
  8
1
  6
CONTINUOUS
 62
             7
100
AcDbLine
 10
-36.85649501857299
 20
106.1620930232563
 11
-36.1627489297133
 21
106.1620930232563
  0
LINE
  5
33
100
AcDbEntity
  8
1
  6
CONTINUOUS
 62
             7
100
AcDbLine
 10
-36.1627489297133
 20
110.6620930232563
 11
-36.85649501857299
 21
110.6620930232563
  0
LINE
  5
32
100
AcDbEntity
  8
1
  6
CONTINUOUS
 62
             7
100
AcDbLine
 10
-36.1627489297133
 20
170.3120930232563
 11
-36.1627489297133
 21
170.76209302325631
  0
LINE
  5
31
100
AcDbEntity
  8
1
  6
CONTINUOUS
 62
             7
100
AcDbLine
 10
-126.0819877452558
 20
109.3313318387988
 11
-124.2435101141708
 21
107.4928542077138
  0
LINE
  5
30
100
AcDbEntity
  8
1
  6
CONTINUOUS
 62
             7
100
AcDbLine
 10
-126.0819877452558
 20
107.4928542077138
 11
-124.2435101141708
 21
109.3313318387988
  0
LINE
  5
2F
100
AcDbEntity
  8
1
  6
CONTINUOUS
 62
             7
100
AcDbLine
 10
-126.0819877452558
 20
74.59285420771376
 11
-124.2435101141708
 21
76.43133183879878
  0
LINE
  5
2E
100
AcDbEntity
  8
1
  6
CONTINUOUS
 62
             7
100
AcDbLine
 10
-126.0819877452558
 20
76.4313318387988
 11
-124.2435101141708
 21
74.59285420771377
  0
LINE
  5
2D
100
AcDbEntity
  8
1
  6
CONTINUOUS
 62
             7
100
AcDbLine
 10
-126.44337377719989
 20
110.2620930232563
 11
-131.6627489297133
 21
110.2620930232563
  0
LINE
  5
2C
100
AcDbEntity
  8
1
  6
CONTINUOUS
 62
             7
100
AcDbLine
 10
-131.6627489297133
 20
110.2620930232563
 11
-131.6627489297133
 21
73.6620930232563
  0
LINE
  5
2B
100
AcDbEntity
  8
1
  6
CONTINUOUS
 62
             7
100
AcDbLine
 10
-131.6627489297133
 20
73.6620930232563
 11
-126.44337377719989
 21
73.6620930232563
  0
LINE
  5
2A
100
AcDbEntity
  8
1
  6
CONTINUOUS
 62
             7
100
AcDbLine
 10
-123.8821240822267
 20
73.6620930232563
 11
-118.6627489297133
 21
73.6620930232563
  0
LINE
  5
29
100
AcDbEntity
  8
1
  6
CONTINUOUS
 62
             7
100
AcDbLine
 10
-118.6627489297133
 20
110.2620930232563
 11
-123.8821240822267
 21
110.2620930232563
  0
LINE
  5
28
100
AcDbEntity
  8
1
  6
CONTINUOUS
 62
             7
100
AcDbLine
 10
-118.6627489297133
 20
73.6620930232563
 11
-118.6627489297133
 21
110.2620930232563
  0
ENDSEC
  0
SECTION
  2
OBJECTS
  0
DICTIONARY
  5
19
100
AcDbDictionary
  3
ACAD_GROUP
350
1A
  3
ACAD_MLINESTYLE
350
1B
  0
DICTIONARY
  5
1A
102
{ACAD_REACTORS
330
19
102
}
100
AcDbDictionary
  0
DICTIONARY
  5
1B
102
{ACAD_REACTORS
330
19
102
}
100
AcDbDictionary
  3
STANDARD
350
1C
  0
MLINESTYLE
  5
1C
102
{ACAD_REACTORS
330
1B
102
}
100
AcDbMlineStyle
  2
STANDARD
 70
             0
  3

 62
             0
 51
90.0
 52
90.0
 71
             2
 49
0.5
 62
           256
  6
BYLAYER
 49
-0.5
 62
           256
  6
BYLAYER
  0
ENDSEC
  0
EOF
