  0
SECTION
  2
HEADER
  9
$ACADVER
  1
AC1014
  9
$ACADMAINTVER
 70
             0
  9
$DWGCODEPAGE
  3
ANSI_1252
  9
$INSBASE
 10
0.0
 20
0.0
 30
0.0
  9
$EXTMIN
 10
1.00000000000000E+20
 20
1.00000000000000E+20
 30
1.00000000000000E+20
  9
$EXTMAX
 10
-1.00000000000000E+20
 20
-1.00000000000000E+20
 30
-1.00000000000000E+20
  9
$LIMMIN
 10
0.0
 20
0.0
  9
$LIMMAX
 10
0.0
 20
0.0
  9
$ORTHOMODE
 70
             0
  9
$REGENMODE
 70
             1
  9
$FILLMODE
 70
             1
  9
$QTEXTMODE
 70
             0
  9
$MIRRTEXT
 70
             1
  9
$DRAGMODE
 70
             2
  9
$LTSCALE
 40
1.0
  9
$OSMODE
 70
             0
  9
$ATTMODE
 70
             1
  9
$TEXTSIZE
 40
0.2
  9
$TRACEWID
 40
0.05
  9
$TEXTSTYLE
  7
STANDARD
  9
$CLAYER
  8
0
  9
$CELTYPE
  6
CONTINUOUS
  9
$CECOLOR
 62
           256
  9
$CELTSCALE
 40
1.0
  9
$DELOBJ
 70
             1
  9
$DISPSILH
 70
             0
  9
$DIMSCALE
 40
1.0
  9
$DIMASZ
 40
0.18
  9
$DIMEXO
 40
0.0625
  9
$DIMDLI
 40
0.38
  9
$DIMRND
 40
0.0
  9
$DIMDLE
 40
0.0
  9
$DIMEXE
 40
0.18
  9
$DIMTP
 40
0.0
  9
$DIMTM
 40
0.0
  9
$DIMTXT
 40
0.18
  9
$DIMCEN
 40
0.09
  9
$DIMTSZ
 40
0.0
  9
$DIMTOL
 70
             0
  9
$DIMLIM
 70
             0
  9
$DIMTIH
 70
             1
  9
$DIMTOH
 70
             1
  9
$DIMSE1
 70
             0
  9
$DIMSE2
 70
             0
  9
$DIMTAD
 70
             0
  9
$DIMZIN
 70
             0
  9
$DIMBLK
  1

  9
$DIMASO
 70
             1
  9
$DIMSHO
 70
             1
  9
$DIMPOST
  1

  9
$DIMAPOST
  1

  9
$DIMALT
 70
             0
  9
$DIMALTD
 70
             2
  9
$DIMALTF
 40
25.4
  9
$DIMLFAC
 40
1.0
  9
$DIMTOFL
 70
             0
  9
$DIMTVP
 40
0.0
  9
$DIMTIX
 70
             0
  9
$DIMSOXD
 70
             0
  9
$DIMSAH
 70
             0
  9
$DIMBLK1
  1

  9
$DIMBLK2
  1

  9
$DIMSTYLE
  2
STANDARD
  9
$DIMCLRD
 70
             0
  9
$DIMCLRE
 70
             0
  9
$DIMCLRT
 70
             0
  9
$DIMTFAC
 40
1.0
  9
$DIMGAP
 40
0.09
  9
$DIMJUST
 70
             0
  9
$DIMSD1
 70
             0
  9
$DIMSD2
 70
             0
  9
$DIMTOLJ
 70
             1
  9
$DIMTZIN
 70
             0
  9
$DIMALTZ
 70
             0
  9
$DIMALTTZ
 70
             0
  9
$DIMFIT
 70
             3
  9
$DIMUPT
 70
             0
  9
$DIMUNIT
 70
             2
  9
$DIMDEC
 70
             4
  9
$DIMTDEC
 70
             4
  9
$DIMALTU
 70
             2
  9
$DIMALTTD
 70
             2
  9
$DIMTXSTY
  7
STANDARD
  9
$DIMAUNIT
 70
             0
  9
$LUNITS
 70
             2
  9
$LUPREC
 70
             4
  9
$SKETCHINC
 40
0.1
  9
$FILLETRAD
 40
0.0
  9
$AUNITS
 70
             0
  9
$AUPREC
 70
             0
  9
$MENU
  1
acad
  9
$ELEVATION
 40
0.0
  9
$PELEVATION
 40
0.0
  9
$THICKNESS
 40
0.0
  9
$LIMCHECK
 70
             0
  9
$BLIPMODE
 70
             1
  9
$CHAMFERA
 40
0.0
  9
$CHAMFERB
 40
0.0
  9
$CHAMFERC
 40
0.0
  9
$CHAMFERD
 40
0.0
  9
$SKPOLY
 70
             0
  9
$TDCREATE
 40
0.000000000
  9
$TDUPDATE
 40
0.000000000
  9
$TDINDWG
 40
0.0000000000
  9
$TDUSRTIMER
 40
0.0000000000
  9
$USRTIMER
 70
             1
  9
$ANGBASE
 50
0.0
  9
$ANGDIR
 70
             0
  9
$PDMODE
 70
             0
  9
$PDSIZE
 40
0.0
  9
$PLINEWID
 40
0.0
  9
$COORDS
 70
             0
  9
$SPLFRAME
 70
             0
  9
$SPLINETYPE
 70
             6
  9
$SPLINESEGS
 70
             8
  9
$ATTDIA
 70
             0
  9
$ATTREQ
 70
             1
  9
$HANDLING
 70
             1
  9
$HANDSEED
  5
322
  9
$SURFTAB1
 70
             6
  9
$SURFTAB2
 70
             6
  9
$SURFTYPE
 70
             6
  9
$SURFU
 70
             6
  9
$SURFV
 70
             6
  9
$UCSNAME
  2

  9
$UCSORG
 10
0.0
 20
0.0
 30
0.0
  9
$UCSXDIR
 10
1.0
 20
0.0
 30
0.0
  9
$UCSYDIR
 10
0.0
 20
1.0
 30
0.0
  9
$PUCSNAME
  2

  9
$PUCSORG
 10
0.0
 20
0.0
 30
0.0
  9
$PUCSXDIR
 10
1.0
 20
0.0
 30
0.0
  9
$PUCSYDIR
 10
0.0
 20
1.0
 30
0.0
  9
$USERI1
 70
             0
  9
$USERI2
 70
             0
  9
$USERI3
 70
             0
  9
$USERI4
 70
             0
  9
$USERI5
 70
             0
  9
$USERR1
 40
11.6
  9
$USERR2
 40
0.0
  9
$USERR3
 40
0.0
  9
$USERR4
 40
0.0
  9
$USERR5
 40
0.0
  9
$WORLDVIEW
 70
             1
  9
$SHADEDGE
 70
             3
  9
$SHADEDIF
 70
            70
  9
$TILEMODE
 70
             1
  9
$MAXACTVP
 70
            16
  9
$PINSBASE
 10
0.0
 20
0.0
 30
0.0
  9
$PLIMCHECK
 70
             0
  9
$PEXTMIN
 10
1.00000000000000E+20
 20
1.00000000000000E+20
 30
1.00000000000000E+20
  9
$PEXTMAX
 10
-1.00000000000000E+20
 20
-1.00000000000000E+20
 30
-1.00000000000000E+20
  9
$PLIMMIN
 10
0.0
 20
0.0
  9
$PLIMMAX
 10
12.0
 20
9.0
  9
$UNITMODE
 70
             0
  9
$VISRETAIN
 70
             0
  9
$PLINEGEN
 70
             1
  9
$PSLTSCALE
 70
             0
  9
$TREEDEPTH
 70
          3020
  9
$PICKSTYLE
 70
             1
  9
$CMLSTYLE
  2
STANDARD
  9
$CMLJUST
 70
             0
  9
$CMLSCALE
 40
1.0
  9
$PROXYGRAPHICS
 70
             0
  9
$MEASUREMENT
 70
             1
  0
ENDSEC
  0
SECTION
  2
CLASSES
  0
CLASS
  1
LWPOLYLINE
  2
AcDbPolyline
  3
"AutoCAD"
 90
        0
280
             0
281
             1
  0
CLASS
  1
IMAGE
  2
AcDbRasterImage
  3
ISM
 90
      127
280
             0
281
             1
  0
CLASS
  1
OLE2FRAME
  2
AcDbOle2Frame
  3
""
 90
        0
280
             0
281
             1
  0
CLASS
  1
HATCH
  2
AcDbHatch
  3
"ACAD_SEDONA"
 90
        0
280
             0
281
             1
  0
CLASS
  1
DICTIONARYVAR
  2
AcDbDictionaryVar
  3
"AutoCAD"
 90
        0
280
             0
281
             0
  0
CLASS
  1
RASTERVARIABLES
  2
AcDbRasterVariables
  3
ISM
 90
        0
280
             0
281
             0
  0
CLASS
  1
IMAGEDEF
  2
AcDbRasterImageDef
  3
ISM
 90
        0
280
             0
281
             0
  0
CLASS
  1
IMAGEDEF_REACTOR
  2
AcDbRasterImageDefReactor
  3
ISM
 90
        1
280
             0
281
             0
  0
CLASS
  1
IDBUFFER
  2
AcDbIdBuffer
  3
"Acad"
 90
        0
280
             0
281
             0
  0
CLASS
  1
SPATIAL_FILTER
  2
AcDbSpatialFilter
  3
"Acad"
 90
        0
280
             0
281
             0
  0
CLASS
  1
XRECORD
  2
AcDbXrecord
  3
"<Built In>"
 90
        0
280
             0
281
             0
  0
CLASS
  1
SORTENTSTABLE
  2
AcDbSortentsTable
  3
"AutoCAD"
 90
        0
280
             0
281
             0
  0
CLASS
  1
LAYER_INDEX
  2
AcDbLayerIndex
  3
"Acad"
 90
        0
280
             0
281
             0
  0
CLASS
  1
SPATIAL_INDEX
  2
AcDbSpatialIndex
  3
"Acad"
 90
        0
280
             0
281
             0
  0
CLASS
  1
OBJECT_PTR
  2
CAseDLPNTableRecord
  3
"ASE-LPNTableRecord"
 90
        1
280
             0
281
             0
  0
CLASS
  1
LAYOUT
  2
AcDbLayout
  3
"AutoCAD 2000"
 90
        1
280
             0
281
             0
  0
CLASS
  1
PLOTSETTINGS
  2
AcDbPlotSettings
  3
"AutoCAD 2000"
 90
        1
280
             0
281
             0
  0
CLASS
  1
ACDBDICTIONARYWDFLT
  2
AcDbDictionaryWithDefault
  3
"AutoCAD 2000"
 90
        1
280
             0
281
             0
  0
CLASS
  1
ACDBPLACEHOLDER
  2
AcDbPlaceHolder
  3
"AutoCAD 2000"
 90
        1
280
             0
281
             0
  0
ENDSEC
  0
SECTION
  2
TABLES
  0
TABLE
  2
VPORT
  5
7
100
AcDbSymbolTable
 70
             1
  0
VPORT
  5
15
100
AcDbSymbolTableRecord
100
AcDbViewportTableRecord
  2
*ACTIVE
 70
             0
 10
0.0
 20
0.0
 11
1.0
 21
1.0
 12
74.0
 22
0.0
 13
0.0
 23
0.0
 14
1.0
 24
1.0
 15
0.0
 25
0.0
 16
0.0
 26
0.0
 36
1.0
 17
0.0
 27
0.0
 37
0.0
 40
134.52479108635103
 41
1.60267857142857
 42
50.0
 43
0.0
 44
0.0
 50
0.0
 51
0.0
 71
             0
 72
           100
 73
             1
 74
             1
 75
             0
 76
             0
 77
             0
 78
             0
  0
ENDTAB
  0
TABLE
  2
LTYPE
  5
4
100
AcDbSymbolTable
 70
            10
  0
LTYPE
  5
11
100
AcDbSymbolTableRecord
100
AcDbLinetypeTableRecord
  2
BYBLOCK
 70
            64
  3

 72
            65
 73
             0
 40
0.0
  0
LTYPE
  5
12
100
AcDbSymbolTableRecord
100
AcDbLinetypeTableRecord
  2
BYLAYER
 70
            64
  3

 72
            65
 73
             0
 40
0.0
  0
LTYPE
  5
13
100
AcDbSymbolTableRecord
100
AcDbLinetypeTableRecord
  2
CONTINUOUS
 70
            64
  3
Solid line
 72
            65
 73
             0
 40
0.0
  0
LTYPE
  5
1D
100
AcDbSymbolTableRecord
100
AcDbLinetypeTableRecord
  2
DASHED
 70
            64
  3
Dashed
 72
            65
 73
             2
 40
15.0
 49
12.0
 74
             0
 49
-3.0
 74
             0
  0
LTYPE
  5
1E
100
AcDbSymbolTableRecord
100
AcDbLinetypeTableRecord
  2
DOTTED
 70
            64
  3
Dotted
 72
            65
 73
             2
 40
3.5
 49
0.5
 74
             0
 49
-3.0
 74
             0
  0
LTYPE
  5
1F
100
AcDbSymbolTableRecord
100
AcDbLinetypeTableRecord
  2
DOT_CENTER
 70
            64
  3
Dot_Center
 72
            65
 73
             4
 40
2.0
 49
1.25
 74
             0
 49
-0.25
 74
             0
 49
0.25
 74
             0
 49
-0.25
 74
             0
  0
LTYPE
  5
20
100
AcDbSymbolTableRecord
100
AcDbLinetypeTableRecord
  2
LONG_DASHED
 70
            64
  3
Long_Dashed
 72
            65
 73
             2
 40
2.0
 49
1.5
 74
             0
 49
-0.5
 74
             0
  0
LTYPE
  5
21
100
AcDbSymbolTableRecord
100
AcDbLinetypeTableRecord
  2
DASH_CENTER
 70
            64
  3
Dash_Center
 72
            65
 73
             4
 40
36.0
 49
24.0
 74
             0
 49
-3.0
 74
             0
 49
6.0
 74
             0
 49
-3.0
 74
             0
  0
LTYPE
  5
22
100
AcDbSymbolTableRecord
100
AcDbLinetypeTableRecord
  2
PHANTOM
 70
            64
  3
Phantom
 72
            65
 73
             6
 40
2.5
 49
1.25
 74
             0
 49
-0.25
 74
             0
 49
0.25
 74
             0
 49
-0.25
 74
             0
 49
0.25
 74
             0
 49
-0.25
 74
             0
  0
LTYPE
  5
23
100
AcDbSymbolTableRecord
100
AcDbLinetypeTableRecord
  2
CENTER_DASH_DASH
 70
            64
  3
Center_Dash_Dash
 72
            65
 73
             6
 40
22.0
 49
12.0
 74
             0
 49
-3.0
 74
             0
 49
0.5
 74
             0
 49
-3.0
 74
             0
 49
0.5
 74
             0
 49
-3.0
 74
             0
  0
ENDTAB
  0
TABLE
  2
LAYER
  5
2
100
AcDbSymbolTable
 70
             2
  0
LAYER
  5
14
100
AcDbSymbolTableRecord
100
AcDbLayerTableRecord
  2
0
 70
             0
 62
             7
  6
CONTINUOUS
  0
LAYER
  5
24
100
AcDbSymbolTableRecord
100
AcDbLayerTableRecord
  2
1
 70
             0
 62
             7
  6
CONTINUOUS
  0
ENDTAB
  0
TABLE
  2
STYLE
  5
3
100
AcDbSymbolTable
 70
             1
  0
STYLE
  5
17
100
AcDbSymbolTableRecord
100
AcDbTextStyleTableRecord
  2
STANDARD
 70
             0
 40
0.0
 41
1.0
 50
0.0
 71
             0
 42
0.0
  3
txt
  4

  0
ENDTAB
  0
TABLE
  2
VIEW
  5
5
100
AcDbSymbolTable
 70
             0
  0
ENDTAB
  0
TABLE
  2
UCS
  5
6
100
AcDbSymbolTable
 70
             0
  0
ENDTAB
  0
TABLE
  2
APPID
  5
8
100
AcDbSymbolTable
 70
             1
  0
APPID
  5
16
100
AcDbSymbolTableRecord
100
AcDbRegAppTableRecord
  2
ACAD
 70
             0
  0
ENDTAB
  0
TABLE
  2
DIMSTYLE
  5
9
100
AcDbSymbolTable
 70
             1
  0
DIMSTYLE
105
18
100
AcDbSymbolTableRecord
100
AcDbDimStyleTableRecord
  2
STANDARD
 70
             0
  3

  4

  5

  6

  7

 40
1.0
 41
0.18
 42
0.0625
 43
0.38
 44
0.18
 45
0.0
 46
0.0
 47
0.0
 48
0.0
 71
             0
 72
             0
 73
             1
 74
             1
 75
             0
 76
             0
 77
             0
 78
             0
140
0.18
141
0.09
142
0.0
143
25.4
144
1.0
145
0.0
146
1.0
147
0.09
170
             0
171
             2
172
             0
173
             0
174
             0
175
             0
176
             0
177
             0
178
             0
270
             2
271
             4
272
             4
273
             2
274
             2
275
             0
280
             0
281
             0
282
             0
283
             1
284
             0
285
             0
286
             0
287
             0
288
             0
340
17
  0
ENDTAB
  0
TABLE
  2
BLOCK_RECORD
  5
1
100
AcDbSymbolTable
 70
             0
  0
BLOCK_RECORD
  5
A
100
AcDbSymbolTableRecord
100
AcDbBlockTableRecord
  2
*MODEL_SPACE
  0
BLOCK_RECORD
  5
B
100
AcDbSymbolTableRecord
100
AcDbBlockTableRecord
  2
*PAPER_SPACE
  0
ENDTAB
  0
ENDSEC
  0
SECTION
  2
BLOCKS
  0
BLOCK
  5
D
100
AcDbEntity
  8
0
100
AcDbBlockBegin
  2
*MODEL_SPACE
 70
             0
 10
0.0
 20
0.0
 30
0.0
  3
*MODEL_SPACE
  1

  0
ENDBLK
  5
E
100
AcDbEntity
  8
0
100
AcDbBlockEnd
  0
BLOCK
  5
F
100
AcDbEntity
 67
             1
  8
0
100
AcDbBlockBegin
  2
*PAPER_SPACE
 70
             0
 10
0.0
 20
0.0
 30
0.0
  3
*PAPER_SPACE
  1

  0
ENDBLK
  5
10
100
AcDbEntity
 67
             1
  8
0
100
AcDbBlockEnd
  0
ENDSEC
  0
SECTION
  2
ENTITIES
  0
ARC
  5
320
100
AcDbEntity
  8
0
  6
CONTINUOUS
 62
             7
100
AcDbCircle
 10
166.69999999999999
 20
-36.71139990636706
 40
0.20000000000003
100
AcDbArc
 50
-69.44395478040582
 51
0.0
  0
ARC
  5
31F
100
AcDbEntity
  8
0
  6
CONTINUOUS
 62
             7
100
AcDbCircle
 10
166.69999999999999
 20
-38.48860009363293
 40
0.20000000000002
100
AcDbArc
 50
0.0
 51
69.44395478040582
  0
ARC
  5
31E
100
AcDbEntity
  8
0
  6
CONTINUOUS
 62
             7
100
AcDbCircle
 10
167.69999999999999
 20
-36.71139990636706
 40
0.20000000000003
100
AcDbArc
 50
-69.44395478040582
 51
0.0
  0
ARC
  5
31D
100
AcDbEntity
  8
0
  6
CONTINUOUS
 62
             7
100
AcDbCircle
 10
167.69999999999999
 20
-38.48860009363293
 40
0.20000000000002
100
AcDbArc
 50
0.0
 51
69.44395478040582
  0
ARC
  5
31C
100
AcDbEntity
  8
0
  6
CONTINUOUS
 62
             7
100
AcDbCircle
 10
166.69999999999999
 20
-27.31139990636707
 40
0.20000000000003
100
AcDbArc
 50
-69.44395478040619
 51
0.0
  0
ARC
  5
31B
100
AcDbEntity
  8
0
  6
CONTINUOUS
 62
             7
100
AcDbCircle
 10
166.69999999999999
 20
-29.08860009363293
 40
0.20000000000002
100
AcDbArc
 50
0.0
 51
69.44395478040582
  0
ARC
  5
31A
100
AcDbEntity
  8
0
  6
CONTINUOUS
 62
             7
100
AcDbCircle
 10
167.69999999999999
 20
-27.31139990636707
 40
0.20000000000003
100
AcDbArc
 50
-69.44395478040619
 51
0.0
  0
ARC
  5
319
100
AcDbEntity
  8
0
  6
CONTINUOUS
 62
             7
100
AcDbCircle
 10
167.69999999999999
 20
-29.08860009363293
 40
0.20000000000002
100
AcDbArc
 50
0.0
 51
69.44395478040582
  0
ARC
  5
318
100
AcDbEntity
  8
0
  6
CONTINUOUS
 62
             7
100
AcDbCircle
 10
166.69999999999999
 20
-8.51139990636706
 40
0.20000000000002
100
AcDbArc
 50
-69.44395478040509
 51
0.0
  0
ARC
  5
317
100
AcDbEntity
  8
0
  6
CONTINUOUS
 62
             7
100
AcDbCircle
 10
166.69999999999999
 20
-10.28860009363292
 40
0.20000000000002
100
AcDbArc
 50
0.0
 51
69.44395478040492
  0
ARC
  5
316
100
AcDbEntity
  8
0
  6
CONTINUOUS
 62
             7
100
AcDbCircle
 10
167.69999999999999
 20
-8.51139990636706
 40
0.20000000000002
100
AcDbArc
 50
-69.44395478040509
 51
0.0
  0
ARC
  5
315
100
AcDbEntity
  8
0
  6
CONTINUOUS
 62
             7
100
AcDbCircle
 10
167.69999999999999
 20
-10.28860009363292
 40
0.20000000000002
100
AcDbArc
 50
0.0
 51
69.44395478040492
  0
ARC
  5
314
100
AcDbEntity
  8
0
  6
CONTINUOUS
 62
             7
100
AcDbCircle
 10
166.69999999999999
 20
10.28860009363294
 40
0.20000000000003
100
AcDbArc
 50
-69.44395478040582
 51
0.0
  0
ARC
  5
313
100
AcDbEntity
  8
0
  6
CONTINUOUS
 62
             7
100
AcDbCircle
 10
166.69999999999999
 20
8.51139990636707
 40
0.20000000000002
100
AcDbArc
 50
0.0
 51
69.44395478040509
  0
ARC
  5
312
100
AcDbEntity
  8
0
  6
CONTINUOUS
 62
             7
100
AcDbCircle
 10
167.69999999999999
 20
10.28860009363294
 40
0.20000000000003
100
AcDbArc
 50
-69.44395478040582
 51
0.0
  0
ARC
  5
311
100
AcDbEntity
  8
0
  6
CONTINUOUS
 62
             7
100
AcDbCircle
 10
167.69999999999999
 20
8.51139990636707
 40
0.20000000000002
100
AcDbArc
 50
0.0
 51
69.44395478040509
  0
ARC
  5
310
100
AcDbEntity
  8
0
  6
CONTINUOUS
 62
             7
100
AcDbCircle
 10
166.69999999999999
 20
19.68860009363294
 40
0.20000000000003
100
AcDbArc
 50
-69.44395478040582
 51
0.0
  0
ARC
  5
30F
100
AcDbEntity
  8
0
  6
CONTINUOUS
 62
             7
100
AcDbCircle
 10
166.69999999999999
 20
17.91139990636707
 40
0.20000000000002
100
AcDbArc
 50
0.0
 51
69.44395478040582
  0
ARC
  5
30E
100
AcDbEntity
  8
0
  6
CONTINUOUS
 62
             7
100
AcDbCircle
 10
167.69999999999999
 20
19.68860009363294
 40
0.20000000000003
100
AcDbArc
 50
-69.44395478040582
 51
0.0
  0
ARC
  5
30D
100
AcDbEntity
  8
0
  6
CONTINUOUS
 62
             7
100
AcDbCircle
 10
167.69999999999999
 20
17.91139990636707
 40
0.20000000000002
100
AcDbArc
 50
0.0
 51
69.44395478040582
  0
ARC
  5
30C
100
AcDbEntity
  8
0
  6
CONTINUOUS
 62
             7
100
AcDbCircle
 10
166.69999999999999
 20
29.08860009363293
 40
0.20000000000002
100
AcDbArc
 50
-69.44395478040474
 51
0.0
  0
ARC
  5
30B
100
AcDbEntity
  8
0
  6
CONTINUOUS
 62
             7
100
AcDbCircle
 10
166.69999999999999
 20
27.31139990636707
 40
0.20000000000002
100
AcDbArc
 50
0.0
 51
69.44395478040619
  0
ARC
  5
30A
100
AcDbEntity
  8
0
  6
CONTINUOUS
 62
             7
100
AcDbCircle
 10
167.69999999999999
 20
29.08860009363293
 40
0.20000000000002
100
AcDbArc
 50
-69.44395478040474
 51
0.0
  0
ARC
  5
309
100
AcDbEntity
  8
0
  6
CONTINUOUS
 62
             7
100
AcDbCircle
 10
167.69999999999999
 20
27.31139990636707
 40
0.20000000000002
100
AcDbArc
 50
0.0
 51
69.44395478040619
  0
ARC
  5
308
100
AcDbEntity
  8
0
  6
CONTINUOUS
 62
             7
100
AcDbCircle
 10
166.69999999999999
 20
38.48860009363294
 40
0.20000000000002
100
AcDbArc
 50
-69.44395478040509
 51
0.0
  0
ARC
  5
307
100
AcDbEntity
  8
0
  6
CONTINUOUS
 62
             7
100
AcDbCircle
 10
166.69999999999999
 20
36.71139990636708
 40
0.20000000000002
100
AcDbArc
 50
0.0
 51
69.44395478040509
  0
ARC
  5
306
100
AcDbEntity
  8
0
  6
CONTINUOUS
 62
             7
100
AcDbCircle
 10
167.69999999999999
 20
38.48860009363294
 40
0.20000000000002
100
AcDbArc
 50
-69.44395478040509
 51
0.0
  0
ARC
  5
305
100
AcDbEntity
  8
0
  6
CONTINUOUS
 62
             7
100
AcDbCircle
 10
167.69999999999999
 20
36.71139990636708
 40
0.20000000000002
100
AcDbArc
 50
0.0
 51
69.44395478040509
  0
ARC
  5
304
100
AcDbEntity
  8
1
  6
CONTINUOUS
 62
             7
100
AcDbCircle
 10
148.30000000000001
 20
46.0
 40
1.0
100
AcDbArc
 50
-90.0
 51
0.0
  0
ARC
  5
303
100
AcDbEntity
  8
1
  6
CONTINUOUS
 62
             7
100
AcDbCircle
 10
148.30000000000001
 20
-46.0
 40
1.0
100
AcDbArc
 50
0.0
 51
90.0
  0
ARC
  5
302
100
AcDbEntity
  8
1
  6
CONTINUOUS
 62
             7
100
AcDbCircle
 10
171.5
 20
44.5
 40
0.5
100
AcDbArc
 50
0.0
 51
90.0
  0
ARC
  5
301
100
AcDbEntity
  8
1
  6
CONTINUOUS
 62
             7
100
AcDbCircle
 10
171.5
 20
-44.5
 40
0.5
100
AcDbArc
 50
-90.0
 51
0.0
  0
ARC
  5
300
100
AcDbEntity
  8
1
  6
CONTINUOUS
 62
             7
100
AcDbCircle
 10
60.5
 20
47.5
 40
0.5
100
AcDbArc
 50
90.0
 51
180.0
  0
ARC
  5
2FF
100
AcDbEntity
  8
1
  6
CONTINUOUS
 62
             7
100
AcDbCircle
 10
60.5
 20
-47.5
 40
0.5
100
AcDbArc
 50
180.0
 51
-90.0
  0
ARC
  5
2FE
100
AcDbEntity
  8
1
  6
CONTINUOUS
 62
             7
100
AcDbCircle
 10
-3.5
 20
-6.5
 40
1.0
100
AcDbArc
 50
90.0
 51
180.0
  0
ARC
  5
2FD
100
AcDbEntity
  8
1
  6
CONTINUOUS
 62
             7
100
AcDbCircle
 10
3.5
 20
-6.5
 40
1.0
100
AcDbArc
 50
0.0
 51
90.0
  0
ARC
  5
2FC
100
AcDbEntity
  8
1
  6
CONTINUOUS
 62
             7
100
AcDbCircle
 10
3.5
 20
-13.5
 40
1.0
100
AcDbArc
 50
-90.0
 51
0.0
  0
ARC
  5
2FB
100
AcDbEntity
  8
1
  6
CONTINUOUS
 62
             7
100
AcDbCircle
 10
-3.5
 20
-13.5
 40
1.0
100
AcDbArc
 50
180.0
 51
-90.0
  0
ARC
  5
2FA
100
AcDbEntity
  8
1
  6
CONTINUOUS
 62
             7
100
AcDbCircle
 10
6.5
 20
-13.5
 40
1.0
100
AcDbArc
 50
180.0
 51
-90.0
  0
ARC
  5
2F9
100
AcDbEntity
  8
1
  6
CONTINUOUS
 62
             7
100
AcDbCircle
 10
13.5
 20
-13.5
 40
1.0
100
AcDbArc
 50
-90.0
 51
0.0
  0
ARC
  5
2F8
100
AcDbEntity
  8
1
  6
CONTINUOUS
 62
             7
100
AcDbCircle
 10
13.5
 20
-6.5
 40
1.0
100
AcDbArc
 50
0.0
 51
90.0
  0
ARC
  5
2F7
100
AcDbEntity
  8
1
  6
CONTINUOUS
 62
             7
100
AcDbCircle
 10
6.5
 20
-6.5
 40
1.0
100
AcDbArc
 50
90.0
 51
180.0
  0
ARC
  5
2F6
100
AcDbEntity
  8
1
  6
CONTINUOUS
 62
             7
100
AcDbCircle
 10
-13.5
 20
-13.5
 40
1.0
100
AcDbArc
 50
180.0
 51
-90.0
  0
ARC
  5
2F5
100
AcDbEntity
  8
1
  6
CONTINUOUS
 62
             7
100
AcDbCircle
 10
-6.5
 20
-13.5
 40
1.0
100
AcDbArc
 50
-90.0
 51
0.0
  0
ARC
  5
2F4
100
AcDbEntity
  8
1
  6
CONTINUOUS
 62
             7
100
AcDbCircle
 10
-6.5
 20
-6.5
 40
1.0
100
AcDbArc
 50
0.0
 51
90.0
  0
ARC
  5
2F3
100
AcDbEntity
  8
1
  6
CONTINUOUS
 62
             7
100
AcDbCircle
 10
-13.5
 20
-6.5
 40
1.0
100
AcDbArc
 50
90.0
 51
180.0
  0
ARC
  5
2F2
100
AcDbEntity
  8
1
  6
CONTINUOUS
 62
             7
100
AcDbCircle
 10
-12.0
 20
29.25
 40
0.5
100
AcDbArc
 50
90.0
 51
180.0
  0
ARC
  5
2F1
100
AcDbEntity
  8
1
  6
CONTINUOUS
 62
             7
100
AcDbCircle
 10
-12.0
 20
26.75
 40
0.5
100
AcDbArc
 50
180.0
 51
-90.0
  0
ARC
  5
2F0
100
AcDbEntity
  8
1
  6
CONTINUOUS
 62
             7
100
AcDbCircle
 10
12.0
 20
26.75
 40
0.5
100
AcDbArc
 50
-90.0
 51
0.0
  0
ARC
  5
2EF
100
AcDbEntity
  8
1
  6
CONTINUOUS
 62
             7
100
AcDbCircle
 10
12.0
 20
29.25
 40
0.5
100
AcDbArc
 50
0.0
 51
90.0
  0
ARC
  5
2EE
100
AcDbEntity
  8
1
  6
CONTINUOUS
 62
             7
100
AcDbCircle
 10
-14.5
 20
8.5
 40
0.5
100
AcDbArc
 50
90.0
 51
180.0
  0
ARC
  5
2ED
100
AcDbEntity
  8
1
  6
CONTINUOUS
 62
             7
100
AcDbCircle
 10
-14.5
 20
-2.5
 40
0.5
100
AcDbArc
 50
180.0
 51
-90.0
  0
ARC
  5
2EC
100
AcDbEntity
  8
1
  6
CONTINUOUS
 62
             7
100
AcDbCircle
 10
14.5
 20
-2.5
 40
0.5
100
AcDbArc
 50
-90.0
 51
0.0
  0
ARC
  5
2EB
100
AcDbEntity
  8
1
  6
CONTINUOUS
 62
             7
100
AcDbCircle
 10
14.5
 20
8.5
 40
0.5
100
AcDbArc
 50
0.0
 51
90.0
  0
ARC
  5
2EA
100
AcDbEntity
  8
1
  6
CONTINUOUS
 62
             7
100
AcDbCircle
 10
-3.5
 20
-23.5
 40
1.0
100
AcDbArc
 50
180.0
 51
-90.0
  0
ARC
  5
2E9
100
AcDbEntity
  8
1
  6
CONTINUOUS
 62
             7
100
AcDbCircle
 10
3.5
 20
-23.5
 40
1.0
100
AcDbArc
 50
-90.0
 51
0.0
  0
ARC
  5
2E8
100
AcDbEntity
  8
1
  6
CONTINUOUS
 62
             7
100
AcDbCircle
 10
3.5
 20
-16.5
 40
1.0
100
AcDbArc
 50
0.0
 51
90.0
  0
ARC
  5
2E7
100
AcDbEntity
  8
1
  6
CONTINUOUS
 62
             7
100
AcDbCircle
 10
-3.5
 20
-16.5
 40
1.0
100
AcDbArc
 50
90.0
 51
180.0
  0
ARC
  5
2E6
100
AcDbEntity
  8
1
  6
CONTINUOUS
 62
             7
100
AcDbCircle
 10
6.5
 20
-16.5
 40
1.0
100
AcDbArc
 50
90.0
 51
180.0
  0
ARC
  5
2E5
100
AcDbEntity
  8
1
  6
CONTINUOUS
 62
             7
100
AcDbCircle
 10
13.5
 20
-16.5
 40
1.0
100
AcDbArc
 50
0.0
 51
90.0
  0
ARC
  5
2E4
100
AcDbEntity
  8
1
  6
CONTINUOUS
 62
             7
100
AcDbCircle
 10
13.5
 20
-23.5
 40
1.0
100
AcDbArc
 50
-90.0
 51
0.0
  0
ARC
  5
2E3
100
AcDbEntity
  8
1
  6
CONTINUOUS
 62
             7
100
AcDbCircle
 10
6.5
 20
-23.5
 40
1.0
100
AcDbArc
 50
180.0
 51
-90.0
  0
ARC
  5
2E2
100
AcDbEntity
  8
1
  6
CONTINUOUS
 62
             7
100
AcDbCircle
 10
-13.5
 20
-16.5
 40
1.0
100
AcDbArc
 50
90.0
 51
180.0
  0
ARC
  5
2E1
100
AcDbEntity
  8
1
  6
CONTINUOUS
 62
             7
100
AcDbCircle
 10
-6.5
 20
-16.5
 40
1.0
100
AcDbArc
 50
0.0
 51
90.0
  0
ARC
  5
2E0
100
AcDbEntity
  8
1
  6
CONTINUOUS
 62
             7
100
AcDbCircle
 10
-6.5
 20
-23.5
 40
1.0
100
AcDbArc
 50
-90.0
 51
0.0
  0
ARC
  5
2DF
100
AcDbEntity
  8
1
  6
CONTINUOUS
 62
             7
100
AcDbCircle
 10
-13.5
 20
-23.5
 40
1.0
100
AcDbArc
 50
180.0
 51
-90.0
  0
ARC
  5
2DE
100
AcDbEntity
  8
1
  6
CONTINUOUS
 62
             7
100
AcDbCircle
 10
9.5
 20
20.5
 40
0.5
100
AcDbArc
 50
90.0
 51
180.0
  0
ARC
  5
2DD
100
AcDbEntity
  8
1
  6
CONTINUOUS
 62
             7
100
AcDbCircle
 10
9.5
 20
19.5
 40
0.5
100
AcDbArc
 50
180.0
 51
-90.0
  0
ARC
  5
2DC
100
AcDbEntity
  8
1
  6
CONTINUOUS
 62
             7
100
AcDbCircle
 10
12.5
 20
19.5
 40
0.5
100
AcDbArc
 50
-90.0
 51
0.0
  0
ARC
  5
2DB
100
AcDbEntity
  8
1
  6
CONTINUOUS
 62
             7
100
AcDbCircle
 10
12.5
 20
20.5
 40
0.5
100
AcDbArc
 50
0.0
 51
90.0
  0
ARC
  5
2DA
100
AcDbEntity
  8
1
  6
CONTINUOUS
 62
             7
100
AcDbCircle
 10
-9.5
 20
20.5
 40
0.5
100
AcDbArc
 50
0.0
 51
90.0
  0
ARC
  5
2D9
100
AcDbEntity
  8
1
  6
CONTINUOUS
 62
             7
100
AcDbCircle
 10
-9.5
 20
19.5
 40
0.5
100
AcDbArc
 50
-90.0
 51
0.0
  0
ARC
  5
2D8
100
AcDbEntity
  8
1
  6
CONTINUOUS
 62
             7
100
AcDbCircle
 10
-12.5
 20
19.5
 40
0.5
100
AcDbArc
 50
180.0
 51
-90.0
  0
ARC
  5
2D7
100
AcDbEntity
  8
1
  6
CONTINUOUS
 62
             7
100
AcDbCircle
 10
-12.5
 20
20.5
 40
0.5
100
AcDbArc
 50
90.0
 51
180.0
  0
ARC
  5
2D6
100
AcDbEntity
  8
1
  6
CONTINUOUS
 62
             7
100
AcDbCircle
 10
-13.5
 20
-33.5
 40
1.0
100
AcDbArc
 50
180.0
 51
-90.0
  0
ARC
  5
2D5
100
AcDbEntity
  8
1
  6
CONTINUOUS
 62
             7
100
AcDbCircle
 10
-6.5
 20
-33.5
 40
1.0
100
AcDbArc
 50
-90.0
 51
0.0
  0
ARC
  5
2D4
100
AcDbEntity
  8
1
  6
CONTINUOUS
 62
             7
100
AcDbCircle
 10
-6.5
 20
-26.5
 40
1.0
100
AcDbArc
 50
0.0
 51
90.0
  0
ARC
  5
2D3
100
AcDbEntity
  8
1
  6
CONTINUOUS
 62
             7
100
AcDbCircle
 10
-13.5
 20
-26.5
 40
1.0
100
AcDbArc
 50
90.0
 51
180.0
  0
ARC
  5
2D2
100
AcDbEntity
  8
1
  6
CONTINUOUS
 62
             7
100
AcDbCircle
 10
-3.5
 20
-26.5
 40
1.0
100
AcDbArc
 50
90.0
 51
180.0
  0
ARC
  5
2D1
100
AcDbEntity
  8
1
  6
CONTINUOUS
 62
             7
100
AcDbCircle
 10
3.5
 20
-26.5
 40
1.0
100
AcDbArc
 50
0.0
 51
90.0
  0
ARC
  5
2D0
100
AcDbEntity
  8
1
  6
CONTINUOUS
 62
             7
100
AcDbCircle
 10
3.5
 20
-33.5
 40
1.0
100
AcDbArc
 50
-90.0
 51
0.0
  0
ARC
  5
2CF
100
AcDbEntity
  8
1
  6
CONTINUOUS
 62
             7
100
AcDbCircle
 10
-3.5
 20
-33.5
 40
1.0
100
AcDbArc
 50
180.0
 51
-90.0
  0
ARC
  5
2CE
100
AcDbEntity
  8
1
  6
CONTINUOUS
 62
             7
100
AcDbCircle
 10
1.5
 20
20.5
 40
0.5
100
AcDbArc
 50
0.0
 51
90.0
  0
ARC
  5
2CD
100
AcDbEntity
  8
1
  6
CONTINUOUS
 62
             7
100
AcDbCircle
 10
1.5
 20
19.5
 40
0.5
100
AcDbArc
 50
-90.0
 51
0.0
  0
ARC
  5
2CC
100
AcDbEntity
  8
1
  6
CONTINUOUS
 62
             7
100
AcDbCircle
 10
-1.5
 20
19.5
 40
0.5
100
AcDbArc
 50
180.0
 51
-90.0
  0
ARC
  5
2CB
100
AcDbEntity
  8
1
  6
CONTINUOUS
 62
             7
100
AcDbCircle
 10
-1.5
 20
20.5
 40
0.5
100
AcDbArc
 50
90.0
 51
180.0
  0
CIRCLE
  5
2CA
100
AcDbEntity
  8
0
  6
CONTINUOUS
 62
             7
100
AcDbCircle
 10
3.25
 20
-1.5
 40
0.59999999999999
  0
CIRCLE
  5
2C9
100
AcDbEntity
  8
0
  6
CONTINUOUS
 62
             7
100
AcDbCircle
 10
13.25
 20
-1.5
 40
0.59999999999999
  0
CIRCLE
  5
2C8
100
AcDbEntity
  8
0
  6
CONTINUOUS
 62
             7
100
AcDbCircle
 10
-6.75
 20
-1.5
 40
0.59999999999999
  0
ARC
  5
2C7
100
AcDbEntity
  8
0
  6
CONTINUOUS
 62
             7
100
AcDbCircle
 10
168.63912014162449
 20
-35.84999999999999
 40
1.00000000000001
100
AcDbArc
 50
16.95776330000297
 51
90.0
  0
ARC
  5
2C6
100
AcDbEntity
  8
0
  6
CONTINUOUS
 62
             7
100
AcDbCircle
 10
162.90000000000001
 20
-37.59999999999999
 40
7.0
100
AcDbArc
 50
-16.95776330000413
 51
16.95776330000401
  0
ARC
  5
2C5
100
AcDbEntity
  8
0
  6
CONTINUOUS
 62
             7
100
AcDbCircle
 10
168.63912014162449
 20
-39.34999999999999
 40
1.0
100
AcDbArc
 50
-90.0
 51
-16.95776330000374
  0
ARC
  5
2C4
100
AcDbEntity
  8
0
  6
CONTINUOUS
 62
             7
100
AcDbCircle
 10
168.63912014162449
 20
-26.45
 40
1.00000000000002
100
AcDbArc
 50
16.95776330000394
 51
90.0
  0
ARC
  5
2C3
100
AcDbEntity
  8
0
  6
CONTINUOUS
 62
             7
100
AcDbCircle
 10
162.90000000000001
 20
-28.2
 40
7.0
100
AcDbArc
 50
-16.95776330000401
 51
16.95776330000415
  0
ARC
  5
2C2
100
AcDbEntity
  8
0
  6
CONTINUOUS
 62
             7
100
AcDbCircle
 10
168.63912014162449
 20
-29.95
 40
1.0
100
AcDbArc
 50
-90.0
 51
-16.95776330000297
  0
ARC
  5
2C1
100
AcDbEntity
  8
0
  6
CONTINUOUS
 62
             7
100
AcDbCircle
 10
168.63912014162449
 20
-7.64999999999999
 40
1.00000000000001
100
AcDbArc
 50
16.9577633000034
 51
90.0
  0
ARC
  5
2C0
100
AcDbEntity
  8
0
  6
CONTINUOUS
 62
             7
100
AcDbCircle
 10
162.90000000000001
 20
-9.39999999999999
 40
7.0
100
AcDbArc
 50
-16.95776330000409
 51
16.95776330000407
  0
ARC
  5
2BF
100
AcDbEntity
  8
0
  6
CONTINUOUS
 62
             7
100
AcDbCircle
 10
168.63912014162449
 20
-11.14999999999999
 40
1.0
100
AcDbArc
 50
-90.0
 51
-16.95776330000355
  0
ARC
  5
2BE
100
AcDbEntity
  8
0
  6
CONTINUOUS
 62
             7
100
AcDbCircle
 10
168.63912014162449
 20
11.15000000000001
 40
1.00000000000001
100
AcDbArc
 50
16.95776330000297
 51
90.0
  0
ARC
  5
2BD
100
AcDbEntity
  8
0
  6
CONTINUOUS
 62
             7
100
AcDbCircle
 10
162.90000000000001
 20
9.40000000000001
 40
7.0
100
AcDbArc
 50
-16.95776330000406
 51
16.95776330000404
  0
ARC
  5
2BC
100
AcDbEntity
  8
0
  6
CONTINUOUS
 62
             7
100
AcDbCircle
 10
168.63912014162449
 20
7.65000000000001
 40
1.0
100
AcDbArc
 50
-90.0
 51
-16.9577633000033
  0
ARC
  5
2BB
100
AcDbEntity
  8
0
  6
CONTINUOUS
 62
             7
100
AcDbCircle
 10
168.63912014162449
 20
20.55
 40
1.00000000000001
100
AcDbArc
 50
16.95776330000355
 51
90.0
  0
ARC
  5
2BA
100
AcDbEntity
  8
0
  6
CONTINUOUS
 62
             7
100
AcDbCircle
 10
162.90000000000001
 20
18.8
 40
7.0
100
AcDbArc
 50
-16.95776330000401
 51
16.9577633000041
  0
ARC
  5
2B9
100
AcDbEntity
  8
0
  6
CONTINUOUS
 62
             7
100
AcDbCircle
 10
168.63912014162449
 20
17.05
 40
1.0
100
AcDbArc
 50
-90.0
 51
-16.95776330000297
  0
ARC
  5
2B8
100
AcDbEntity
  8
0
  6
CONTINUOUS
 62
             7
100
AcDbCircle
 10
168.63912014162449
 20
29.95
 40
1.00000000000001
100
AcDbArc
 50
16.95776330000355
 51
90.0
  0
ARC
  5
2B7
100
AcDbEntity
  8
0
  6
CONTINUOUS
 62
             7
100
AcDbCircle
 10
162.90000000000001
 20
28.2
 40
7.0
100
AcDbArc
 50
-16.95776330000401
 51
16.9577633000041
  0
ARC
  5
2B6
100
AcDbEntity
  8
0
  6
CONTINUOUS
 62
             7
100
AcDbCircle
 10
168.63912014162449
 20
26.45
 40
1.0
100
AcDbArc
 50
-90.0
 51
-16.95776330000297
  0
ARC
  5
2B5
100
AcDbEntity
  8
0
  6
CONTINUOUS
 62
             7
100
AcDbCircle
 10
168.63912014162449
 20
39.35000000000001
 40
1.00000000000001
100
AcDbArc
 50
16.95776330000374
 51
90.0
  0
ARC
  5
2B4
100
AcDbEntity
  8
0
  6
CONTINUOUS
 62
             7
100
AcDbCircle
 10
162.90000000000001
 20
37.60000000000001
 40
7.0
100
AcDbArc
 50
-16.95776330000407
 51
16.95776330000413
  0
ARC
  5
2B3
100
AcDbEntity
  8
0
  6
CONTINUOUS
 62
             7
100
AcDbCircle
 10
168.63912014162449
 20
35.85000000000001
 40
1.0
100
AcDbArc
 50
-90.0
 51
-16.95776330000335
  0
ARC
  5
2B2
100
AcDbEntity
  8
1
  6
CONTINUOUS
 62
             7
100
AcDbCircle
 10
150.27902432574939
 20
50.3
 40
1.3
100
AcDbArc
 50
-90.0
 51
-16.60154959902015
  0
ARC
  5
2B1
100
AcDbEntity
  8
1
  6
CONTINUOUS
 62
             7
100
AcDbCircle
 10
142.90000000000001
 20
52.5
 40
8.99999999999999
100
AcDbArc
 50
-16.6015495990201
 51
16.60154959902019
  0
ARC
  5
2B0
100
AcDbEntity
  8
1
  6
CONTINUOUS
 62
             7
100
AcDbCircle
 10
150.27902432574939
 20
54.7
 40
1.29999999999992
100
AcDbArc
 50
16.60154959902075
 51
90.0
  0
ARC
  5
2AF
100
AcDbEntity
  8
1
  6
CONTINUOUS
 62
             7
100
AcDbCircle
 10
150.27902432574939
 20
-50.29999999999998
 40
1.29999999999991
100
AcDbArc
 50
16.60154959901955
 51
90.0
  0
ARC
  5
2AE
100
AcDbEntity
  8
1
  6
CONTINUOUS
 62
             7
100
AcDbCircle
 10
142.90000000000001
 20
-52.5
 40
8.99999999999999
100
AcDbArc
 50
-16.60154959902019
 51
16.6015495990201
  0
ARC
  5
2AD
100
AcDbEntity
  8
1
  6
CONTINUOUS
 62
             7
100
AcDbCircle
 10
150.27902432574939
 20
-54.70000000000002
 40
1.29999999999998
100
AcDbArc
 50
-90.0
 51
-16.60154959902015
  0
LINE
  5
2AC
100
AcDbEntity
  8
1
  6
CONTINUOUS
 62
             7
100
AcDbLine
 10
-10.0
 20
26.25
 11
-10.0
 21
29.75
  0
LINE
  5
2AB
100
AcDbEntity
  8
1
  6
CONTINUOUS
 62
             7
100
AcDbLine
 10
-7.8
 20
26.25
 11
-7.8
 21
29.75
  0
LINE
  5
2AA
100
AcDbEntity
  8
1
  6
CONTINUOUS
 62
             7
100
AcDbLine
 10
-5.6
 20
26.25
 11
-5.6
 21
29.75
  0
LINE
  5
2A9
100
AcDbEntity
  8
1
  6
CONTINUOUS
 62
             7
100
AcDbLine
 10
-3.4
 20
26.25
 11
-3.4
 21
29.75
  0
LINE
  5
2A8
100
AcDbEntity
  8
1
  6
CONTINUOUS
 62
             7
100
AcDbLine
 10
-1.2
 20
26.25
 11
-1.2
 21
29.75
  0
LINE
  5
2A7
100
AcDbEntity
  8
1
  6
CONTINUOUS
 62
             7
100
AcDbLine
 10
-12.0
 20
26.25
 11
-12.0
 21
29.75
  0
LINE
  5
2A6
100
AcDbEntity
  8
1
  6
CONTINUOUS
 62
             7
100
AcDbLine
 10
-9.8
 20
26.25
 11
-9.8
 21
29.75
  0
LINE
  5
2A5
100
AcDbEntity
  8
1
  6
CONTINUOUS
 62
             7
100
AcDbLine
 10
-7.6
 20
26.25
 11
-7.6
 21
29.75
  0
LINE
  5
2A4
100
AcDbEntity
  8
1
  6
CONTINUOUS
 62
             7
100
AcDbLine
 10
-5.4
 20
26.25
 11
-5.4
 21
29.75
  0
LINE
  5
2A3
100
AcDbEntity
  8
1
  6
CONTINUOUS
 62
             7
100
AcDbLine
 10
-3.2
 20
26.25
 11
-3.2
 21
29.75
  0
LINE
  5
2A2
100
AcDbEntity
  8
1
  6
CONTINUOUS
 62
             7
100
AcDbLine
 10
10.0
 20
26.25
 11
10.0
 21
29.75
  0
LINE
  5
2A1
100
AcDbEntity
  8
1
  6
CONTINUOUS
 62
             7
100
AcDbLine
 10
7.8
 20
26.25
 11
7.8
 21
29.75
  0
LINE
  5
2A0
100
AcDbEntity
  8
1
  6
CONTINUOUS
 62
             7
100
AcDbLine
 10
5.6
 20
26.25
 11
5.6
 21
29.75
  0
LINE
  5
29F
100
AcDbEntity
  8
1
  6
CONTINUOUS
 62
             7
100
AcDbLine
 10
3.4
 20
26.25
 11
3.4
 21
29.75
  0
LINE
  5
29E
100
AcDbEntity
  8
1
  6
CONTINUOUS
 62
             7
100
AcDbLine
 10
1.2
 20
26.25
 11
1.2
 21
29.75
  0
LINE
  5
29D
100
AcDbEntity
  8
1
  6
CONTINUOUS
 62
             7
100
AcDbLine
 10
12.0
 20
26.25
 11
12.0
 21
29.75
  0
LINE
  5
29C
100
AcDbEntity
  8
1
  6
CONTINUOUS
 62
             7
100
AcDbLine
 10
9.8
 20
26.25
 11
9.8
 21
29.75
  0
LINE
  5
29B
100
AcDbEntity
  8
1
  6
CONTINUOUS
 62
             7
100
AcDbLine
 10
7.6
 20
26.25
 11
7.6
 21
29.75
  0
LINE
  5
29A
100
AcDbEntity
  8
1
  6
CONTINUOUS
 62
             7
100
AcDbLine
 10
5.4
 20
26.25
 11
5.4
 21
29.75
  0
LINE
  5
299
100
AcDbEntity
  8
1
  6
CONTINUOUS
 62
             7
100
AcDbLine
 10
3.2
 20
26.25
 11
3.2
 21
29.75
  0
LINE
  5
298
100
AcDbEntity
  8
0
  6
CONTINUOUS
 62
             7
100
AcDbLine
 10
167.90000000000001
 20
-36.71139990636706
 11
167.90000000000001
 21
-38.48860009363293
  0
LINE
  5
297
100
AcDbEntity
  8
0
  6
CONTINUOUS
 62
             7
100
AcDbLine
 10
167.90000000000001
 20
-34.84999999999999
 11
168.63912014162449
 21
-34.84999999999999
  0
LINE
  5
296
100
AcDbEntity
  8
0
  6
CONTINUOUS
 62
             7
100
AcDbLine
 10
168.63912014162449
 20
-40.34999999999999
 11
167.90000000000001
 21
-40.34999999999999
  0
LINE
  5
295
100
AcDbEntity
  8
0
  6
CONTINUOUS
 62
             7
100
AcDbLine
 10
167.5
 20
-34.19999999999999
 11
166.5
 21
-34.19999999999999
  0
LINE
  5
294
100
AcDbEntity
  8
0
  6
CONTINUOUS
 62
             7
100
AcDbLine
 10
167.5
 20
-41.0
 11
166.5
 21
-41.0
  0
LINE
  5
293
100
AcDbEntity
  8
0
  6
CONTINUOUS
 62
             7
100
AcDbLine
 10
167.5
 20
-34.19999999999999
 11
167.90000000000001
 21
-35.84999999999999
  0
LINE
  5
292
100
AcDbEntity
  8
0
  6
CONTINUOUS
 62
             7
100
AcDbLine
 10
166.5
 20
-34.19999999999999
 11
166.90000000000001
 21
-35.84999999999999
  0
LINE
  5
291
100
AcDbEntity
  8
0
  6
CONTINUOUS
 62
             7
100
AcDbLine
 10
167.5
 20
-37.0
 11
167.77022468831771
 21
-36.89866574188088
  0
LINE
  5
290
100
AcDbEntity
  8
0
  6
CONTINUOUS
 62
             7
100
AcDbLine
 10
167.5
 20
-37.0
 11
167.5
 21
-38.19999999999999
  0
LINE
  5
28F
100
AcDbEntity
  8
0
  6
CONTINUOUS
 62
             7
100
AcDbLine
 10
167.5
 20
-38.19999999999999
 11
167.77022468831771
 21
-38.30133425811911
  0
LINE
  5
28E
100
AcDbEntity
  8
0
  6
CONTINUOUS
 62
             7
100
AcDbLine
 10
166.5
 20
-37.0
 11
166.5
 21
-38.19999999999999
  0
LINE
  5
28D
100
AcDbEntity
  8
0
  6
CONTINUOUS
 62
             7
100
AcDbLine
 10
166.5
 20
-37.0
 11
166.77022468831771
 21
-36.89866574188088
  0
LINE
  5
28C
100
AcDbEntity
  8
0
  6
CONTINUOUS
 62
             7
100
AcDbLine
 10
166.5
 20
-38.19999999999999
 11
166.77022468831771
 21
-38.30133425811911
  0
LINE
  5
28B
100
AcDbEntity
  8
0
  6
CONTINUOUS
 62
             7
100
AcDbLine
 10
167.90000000000001
 20
-34.19999999999999
 11
167.90000000000001
 21
-36.71139990636706
  0
LINE
  5
28A
100
AcDbEntity
  8
0
  6
CONTINUOUS
 62
             7
100
AcDbLine
 10
167.90000000000001
 20
-39.34999999999999
 11
167.5
 21
-41.0
  0
LINE
  5
289
100
AcDbEntity
  8
0
  6
CONTINUOUS
 62
             7
100
AcDbLine
 10
166.90000000000001
 20
-39.34999999999999
 11
166.5
 21
-41.0
  0
LINE
  5
288
100
AcDbEntity
  8
0
  6
CONTINUOUS
 62
             7
100
AcDbLine
 10
166.90000000000001
 20
-35.84999999999999
 11
166.90000000000001
 21
-36.37049999999999
  0
LINE
  5
287
100
AcDbEntity
  8
0
  6
CONTINUOUS
 62
             7
100
AcDbLine
 10
166.90000000000001
 20
-38.8295
 11
166.90000000000001
 21
-38.48860009363293
  0
LINE
  5
286
100
AcDbEntity
  8
0
  6
CONTINUOUS
 62
             7
100
AcDbLine
 10
167.90000000000001
 20
-34.19999999999999
 11
167.5
 21
-34.19999999999999
  0
LINE
  5
285
100
AcDbEntity
  8
0
  6
CONTINUOUS
 62
             7
100
AcDbLine
 10
167.90000000000001
 20
-41.0
 11
167.5
 21
-41.0
  0
LINE
  5
284
100
AcDbEntity
  8
0
  6
CONTINUOUS
 62
             7
100
AcDbLine
 10
166.5
 20
-36.37049999999999
 11
166.90000000000001
 21
-36.37049999999999
  0
LINE
  5
283
100
AcDbEntity
  8
0
  6
CONTINUOUS
 62
             7
100
AcDbLine
 10
166.90000000000001
 20
-36.37049999999999
 11
166.90000000000001
 21
-36.71139990636706
  0
LINE
  5
282
100
AcDbEntity
  8
0
  6
CONTINUOUS
 62
             7
100
AcDbLine
 10
166.5
 20
-38.8295
 11
166.90000000000001
 21
-38.8295
  0
LINE
  5
281
100
AcDbEntity
  8
0
  6
CONTINUOUS
 62
             7
100
AcDbLine
 10
166.90000000000001
 20
-38.8295
 11
166.90000000000001
 21
-39.34999999999999
  0
LINE
  5
280
100
AcDbEntity
  8
0
  6
CONTINUOUS
 62
             7
100
AcDbLine
 10
167.90000000000001
 20
-41.0
 11
167.90000000000001
 21
-38.48860009363293
  0
LINE
  5
27F
100
AcDbEntity
  8
1
  6
CONTINUOUS
 62
             7
100
AcDbLine
 10
166.5
 20
-33.59999999999999
 11
166.5
 21
-41.59999999999999
  0
LINE
  5
27E
100
AcDbEntity
  8
0
  6
CONTINUOUS
 62
             7
100
AcDbLine
 10
167.90000000000001
 20
-27.31139990636707
 11
167.90000000000001
 21
-29.08860009363293
  0
LINE
  5
27D
100
AcDbEntity
  8
0
  6
CONTINUOUS
 62
             7
100
AcDbLine
 10
167.90000000000001
 20
-25.45
 11
168.63912014162449
 21
-25.45
  0
LINE
  5
27C
100
AcDbEntity
  8
0
  6
CONTINUOUS
 62
             7
100
AcDbLine
 10
168.63912014162449
 20
-30.95
 11
167.90000000000001
 21
-30.95
  0
LINE
  5
27B
100
AcDbEntity
  8
0
  6
CONTINUOUS
 62
             7
100
AcDbLine
 10
167.5
 20
-24.79999999999998
 11
166.5
 21
-24.79999999999998
  0
LINE
  5
27A
100
AcDbEntity
  8
0
  6
CONTINUOUS
 62
             7
100
AcDbLine
 10
167.5
 20
-31.59999999999999
 11
166.5
 21
-31.59999999999999
  0
LINE
  5
279
100
AcDbEntity
  8
0
  6
CONTINUOUS
 62
             7
100
AcDbLine
 10
167.5
 20
-24.79999999999998
 11
167.90000000000001
 21
-26.45
  0
LINE
  5
278
100
AcDbEntity
  8
0
  6
CONTINUOUS
 62
             7
100
AcDbLine
 10
166.5
 20
-24.79999999999998
 11
166.90000000000001
 21
-26.45
  0
LINE
  5
277
100
AcDbEntity
  8
0
  6
CONTINUOUS
 62
             7
100
AcDbLine
 10
167.5
 20
-27.59999999999999
 11
167.77022468831771
 21
-27.49866574188089
  0
LINE
  5
276
100
AcDbEntity
  8
0
  6
CONTINUOUS
 62
             7
100
AcDbLine
 10
167.5
 20
-27.59999999999999
 11
167.5
 21
-28.79999999999998
  0
LINE
  5
275
100
AcDbEntity
  8
0
  6
CONTINUOUS
 62
             7
100
AcDbLine
 10
167.5
 20
-28.79999999999998
 11
167.77022468831771
 21
-28.90133425811911
  0
LINE
  5
274
100
AcDbEntity
  8
0
  6
CONTINUOUS
 62
             7
100
AcDbLine
 10
166.5
 20
-27.59999999999999
 11
166.5
 21
-28.79999999999998
  0
LINE
  5
273
100
AcDbEntity
  8
0
  6
CONTINUOUS
 62
             7
100
AcDbLine
 10
166.5
 20
-27.59999999999999
 11
166.77022468831771
 21
-27.49866574188089
  0
LINE
  5
272
100
AcDbEntity
  8
0
  6
CONTINUOUS
 62
             7
100
AcDbLine
 10
166.5
 20
-28.79999999999998
 11
166.77022468831771
 21
-28.90133425811911
  0
LINE
  5
271
100
AcDbEntity
  8
0
  6
CONTINUOUS
 62
             7
100
AcDbLine
 10
167.90000000000001
 20
-24.79999999999998
 11
167.90000000000001
 21
-27.31139990636707
  0
LINE
  5
270
100
AcDbEntity
  8
0
  6
CONTINUOUS
 62
             7
100
AcDbLine
 10
167.90000000000001
 20
-29.95
 11
167.5
 21
-31.59999999999999
  0
LINE
  5
26F
100
AcDbEntity
  8
0
  6
CONTINUOUS
 62
             7
100
AcDbLine
 10
166.90000000000001
 20
-29.95
 11
166.5
 21
-31.59999999999999
  0
LINE
  5
26E
100
AcDbEntity
  8
0
  6
CONTINUOUS
 62
             7
100
AcDbLine
 10
166.90000000000001
 20
-26.45
 11
166.90000000000001
 21
-26.97049999999999
  0
LINE
  5
26D
100
AcDbEntity
  8
0
  6
CONTINUOUS
 62
             7
100
AcDbLine
 10
166.90000000000001
 20
-29.4295
 11
166.90000000000001
 21
-29.08860009363293
  0
LINE
  5
26C
100
AcDbEntity
  8
0
  6
CONTINUOUS
 62
             7
100
AcDbLine
 10
167.90000000000001
 20
-24.79999999999998
 11
167.5
 21
-24.79999999999998
  0
LINE
  5
26B
100
AcDbEntity
  8
0
  6
CONTINUOUS
 62
             7
100
AcDbLine
 10
167.90000000000001
 20
-31.59999999999999
 11
167.5
 21
-31.59999999999999
  0
LINE
  5
26A
100
AcDbEntity
  8
0
  6
CONTINUOUS
 62
             7
100
AcDbLine
 10
166.5
 20
-26.97049999999999
 11
166.90000000000001
 21
-26.97049999999999
  0
LINE
  5
269
100
AcDbEntity
  8
0
  6
CONTINUOUS
 62
             7
100
AcDbLine
 10
166.90000000000001
 20
-26.97049999999999
 11
166.90000000000001
 21
-27.31139990636707
  0
LINE
  5
268
100
AcDbEntity
  8
0
  6
CONTINUOUS
 62
             7
100
AcDbLine
 10
166.5
 20
-29.4295
 11
166.90000000000001
 21
-29.4295
  0
LINE
  5
267
100
AcDbEntity
  8
0
  6
CONTINUOUS
 62
             7
100
AcDbLine
 10
166.90000000000001
 20
-29.4295
 11
166.90000000000001
 21
-29.95
  0
LINE
  5
266
100
AcDbEntity
  8
0
  6
CONTINUOUS
 62
             7
100
AcDbLine
 10
167.90000000000001
 20
-31.59999999999999
 11
167.90000000000001
 21
-29.08860009363293
  0
LINE
  5
265
100
AcDbEntity
  8
1
  6
CONTINUOUS
 62
             7
100
AcDbLine
 10
166.5
 20
-24.2
 11
166.5
 21
-32.2
  0
LINE
  5
264
100
AcDbEntity
  8
1
  6
CONTINUOUS
 62
             7
100
AcDbLine
 10
166.5
 20
-14.8
 11
166.5
 21
-22.8
  0
LINE
  5
263
100
AcDbEntity
  8
0
  6
CONTINUOUS
 62
             7
100
AcDbLine
 10
167.90000000000001
 20
-8.51139990636706
 11
167.90000000000001
 21
-10.28860009363292
  0
LINE
  5
262
100
AcDbEntity
  8
0
  6
CONTINUOUS
 62
             7
100
AcDbLine
 10
167.90000000000001
 20
-6.64999999999999
 11
168.63912014162449
 21
-6.64999999999999
  0
LINE
  5
261
100
AcDbEntity
  8
0
  6
CONTINUOUS
 62
             7
100
AcDbLine
 10
168.63912014162449
 20
-12.14999999999999
 11
167.90000000000001
 21
-12.14999999999999
  0
LINE
  5
260
100
AcDbEntity
  8
0
  6
CONTINUOUS
 62
             7
100
AcDbLine
 10
167.5
 20
-5.99999999999999
 11
166.5
 21
-5.99999999999999
  0
LINE
  5
25F
100
AcDbEntity
  8
0
  6
CONTINUOUS
 62
             7
100
AcDbLine
 10
167.5
 20
-12.8
 11
166.5
 21
-12.8
  0
LINE
  5
25E
100
AcDbEntity
  8
0
  6
CONTINUOUS
 62
             7
100
AcDbLine
 10
167.5
 20
-5.99999999999999
 11
167.90000000000001
 21
-7.64999999999999
  0
LINE
  5
25D
100
AcDbEntity
  8
0
  6
CONTINUOUS
 62
             7
100
AcDbLine
 10
166.5
 20
-5.99999999999999
 11
166.90000000000001
 21
-7.64999999999999
  0
LINE
  5
25C
100
AcDbEntity
  8
0
  6
CONTINUOUS
 62
             7
100
AcDbLine
 10
167.5
 20
-8.8
 11
167.77022468831771
 21
-8.69866574188087
  0
LINE
  5
25B
100
AcDbEntity
  8
0
  6
CONTINUOUS
 62
             7
100
AcDbLine
 10
167.5
 20
-8.8
 11
167.5
 21
-9.99999999999999
  0
LINE
  5
25A
100
AcDbEntity
  8
0
  6
CONTINUOUS
 62
             7
100
AcDbLine
 10
167.5
 20
-9.99999999999999
 11
167.77022468831771
 21
-10.10133425811911
  0
LINE
  5
259
100
AcDbEntity
  8
0
  6
CONTINUOUS
 62
             7
100
AcDbLine
 10
166.5
 20
-8.8
 11
166.5
 21
-9.99999999999999
  0
LINE
  5
258
100
AcDbEntity
  8
0
  6
CONTINUOUS
 62
             7
100
AcDbLine
 10
166.5
 20
-8.8
 11
166.77022468831771
 21
-8.69866574188087
  0
LINE
  5
257
100
AcDbEntity
  8
0
  6
CONTINUOUS
 62
             7
100
AcDbLine
 10
166.5
 20
-9.99999999999999
 11
166.77022468831771
 21
-10.10133425811911
  0
LINE
  5
256
100
AcDbEntity
  8
0
  6
CONTINUOUS
 62
             7
100
AcDbLine
 10
167.90000000000001
 20
-5.99999999999999
 11
167.90000000000001
 21
-8.51139990636706
  0
LINE
  5
255
100
AcDbEntity
  8
0
  6
CONTINUOUS
 62
             7
100
AcDbLine
 10
167.90000000000001
 20
-11.14999999999999
 11
167.5
 21
-12.8
  0
LINE
  5
254
100
AcDbEntity
  8
0
  6
CONTINUOUS
 62
             7
100
AcDbLine
 10
166.90000000000001
 20
-11.14999999999999
 11
166.5
 21
-12.8
  0
LINE
  5
253
100
AcDbEntity
  8
0
  6
CONTINUOUS
 62
             7
100
AcDbLine
 10
166.90000000000001
 20
-7.64999999999999
 11
166.90000000000001
 21
-8.17049999999999
  0
LINE
  5
252
100
AcDbEntity
  8
0
  6
CONTINUOUS
 62
             7
100
AcDbLine
 10
166.90000000000001
 20
-10.62949999999999
 11
166.90000000000001
 21
-10.28860009363292
  0
LINE
  5
251
100
AcDbEntity
  8
0
  6
CONTINUOUS
 62
             7
100
AcDbLine
 10
167.90000000000001
 20
-5.99999999999999
 11
167.5
 21
-5.99999999999999
  0
LINE
  5
250
100
AcDbEntity
  8
0
  6
CONTINUOUS
 62
             7
100
AcDbLine
 10
167.90000000000001
 20
-12.8
 11
167.5
 21
-12.8
  0
LINE
  5
24F
100
AcDbEntity
  8
0
  6
CONTINUOUS
 62
             7
100
AcDbLine
 10
166.5
 20
-8.17049999999999
 11
166.90000000000001
 21
-8.17049999999999
  0
LINE
  5
24E
100
AcDbEntity
  8
0
  6
CONTINUOUS
 62
             7
100
AcDbLine
 10
166.90000000000001
 20
-8.17049999999999
 11
166.90000000000001
 21
-8.51139990636706
  0
LINE
  5
24D
100
AcDbEntity
  8
0
  6
CONTINUOUS
 62
             7
100
AcDbLine
 10
166.5
 20
-10.62949999999999
 11
166.90000000000001
 21
-10.62949999999999
  0
LINE
  5
24C
100
AcDbEntity
  8
0
  6
CONTINUOUS
 62
             7
100
AcDbLine
 10
166.90000000000001
 20
-10.62949999999999
 11
166.90000000000001
 21
-11.14999999999999
  0
LINE
  5
24B
100
AcDbEntity
  8
0
  6
CONTINUOUS
 62
             7
100
AcDbLine
 10
167.90000000000001
 20
-12.8
 11
167.90000000000001
 21
-10.28860009363292
  0
LINE
  5
24A
100
AcDbEntity
  8
1
  6
CONTINUOUS
 62
             7
100
AcDbLine
 10
166.5
 20
-5.40000000000001
 11
166.5
 21
-13.40000000000001
  0
LINE
  5
249
100
AcDbEntity
  8
1
  6
CONTINUOUS
 62
             7
100
AcDbLine
 10
166.5
 20
4.0
 11
166.5
 21
-4.0
  0
LINE
  5
248
100
AcDbEntity
  8
0
  6
CONTINUOUS
 62
             7
100
AcDbLine
 10
167.90000000000001
 20
10.28860009363294
 11
167.90000000000001
 21
8.51139990636707
  0
LINE
  5
247
100
AcDbEntity
  8
0
  6
CONTINUOUS
 62
             7
100
AcDbLine
 10
167.90000000000001
 20
12.15000000000001
 11
168.63912014162449
 21
12.15000000000001
  0
LINE
  5
246
100
AcDbEntity
  8
0
  6
CONTINUOUS
 62
             7
100
AcDbLine
 10
168.63912014162449
 20
6.65000000000001
 11
167.90000000000001
 21
6.65000000000001
  0
LINE
  5
245
100
AcDbEntity
  8
0
  6
CONTINUOUS
 62
             7
100
AcDbLine
 10
167.5
 20
12.80000000000001
 11
166.5
 21
12.80000000000001
  0
LINE
  5
244
100
AcDbEntity
  8
0
  6
CONTINUOUS
 62
             7
100
AcDbLine
 10
167.5
 20
6.0
 11
166.5
 21
6.0
  0
LINE
  5
243
100
AcDbEntity
  8
0
  6
CONTINUOUS
 62
             7
100
AcDbLine
 10
167.5
 20
12.80000000000001
 11
167.90000000000001
 21
11.15000000000001
  0
LINE
  5
242
100
AcDbEntity
  8
0
  6
CONTINUOUS
 62
             7
100
AcDbLine
 10
166.5
 20
12.80000000000001
 11
166.90000000000001
 21
11.15000000000001
  0
LINE
  5
241
100
AcDbEntity
  8
0
  6
CONTINUOUS
 62
             7
100
AcDbLine
 10
167.5
 20
10.0
 11
167.77022468831771
 21
10.10133425811912
  0
LINE
  5
240
100
AcDbEntity
  8
0
  6
CONTINUOUS
 62
             7
100
AcDbLine
 10
167.5
 20
10.0
 11
167.5
 21
8.80000000000001
  0
LINE
  5
23F
100
AcDbEntity
  8
0
  6
CONTINUOUS
 62
             7
100
AcDbLine
 10
167.5
 20
8.80000000000001
 11
167.77022468831771
 21
8.69866574188089
  0
LINE
  5
23E
100
AcDbEntity
  8
0
  6
CONTINUOUS
 62
             7
100
AcDbLine
 10
166.5
 20
10.0
 11
166.5
 21
8.80000000000001
  0
LINE
  5
23D
100
AcDbEntity
  8
0
  6
CONTINUOUS
 62
             7
100
AcDbLine
 10
166.5
 20
10.0
 11
166.77022468831771
 21
10.10133425811912
  0
LINE
  5
23C
100
AcDbEntity
  8
0
  6
CONTINUOUS
 62
             7
100
AcDbLine
 10
166.5
 20
8.80000000000001
 11
166.77022468831771
 21
8.69866574188089
  0
LINE
  5
23B
100
AcDbEntity
  8
0
  6
CONTINUOUS
 62
             7
100
AcDbLine
 10
167.90000000000001
 20
12.80000000000001
 11
167.90000000000001
 21
10.28860009363294
  0
LINE
  5
23A
100
AcDbEntity
  8
0
  6
CONTINUOUS
 62
             7
100
AcDbLine
 10
167.90000000000001
 20
7.65000000000001
 11
167.5
 21
6.0
  0
LINE
  5
239
100
AcDbEntity
  8
0
  6
CONTINUOUS
 62
             7
100
AcDbLine
 10
166.90000000000001
 20
7.65000000000001
 11
166.5
 21
6.0
  0
LINE
  5
238
100
AcDbEntity
  8
0
  6
CONTINUOUS
 62
             7
100
AcDbLine
 10
166.90000000000001
 20
11.15000000000001
 11
166.90000000000001
 21
10.62950000000001
  0
LINE
  5
237
100
AcDbEntity
  8
0
  6
CONTINUOUS
 62
             7
100
AcDbLine
 10
166.90000000000001
 20
8.1705
 11
166.90000000000001
 21
8.51139990636707
  0
LINE
  5
236
100
AcDbEntity
  8
0
  6
CONTINUOUS
 62
             7
100
AcDbLine
 10
167.90000000000001
 20
12.80000000000001
 11
167.5
 21
12.80000000000001
  0
LINE
  5
235
100
AcDbEntity
  8
0
  6
CONTINUOUS
 62
             7
100
AcDbLine
 10
167.90000000000001
 20
6.0
 11
167.5
 21
6.0
  0
LINE
  5
234
100
AcDbEntity
  8
0
  6
CONTINUOUS
 62
             7
100
AcDbLine
 10
166.5
 20
10.62950000000001
 11
166.90000000000001
 21
10.62950000000001
  0
LINE
  5
233
100
AcDbEntity
  8
0
  6
CONTINUOUS
 62
             7
100
AcDbLine
 10
166.90000000000001
 20
10.62950000000001
 11
166.90000000000001
 21
10.28860009363294
  0
LINE
  5
232
100
AcDbEntity
  8
0
  6
CONTINUOUS
 62
             7
100
AcDbLine
 10
166.5
 20
8.1705
 11
166.90000000000001
 21
8.1705
  0
LINE
  5
231
100
AcDbEntity
  8
0
  6
CONTINUOUS
 62
             7
100
AcDbLine
 10
166.90000000000001
 20
8.1705
 11
166.90000000000001
 21
7.65000000000001
  0
LINE
  5
230
100
AcDbEntity
  8
0
  6
CONTINUOUS
 62
             7
100
AcDbLine
 10
167.90000000000001
 20
6.0
 11
167.90000000000001
 21
8.51139990636707
  0
LINE
  5
22F
100
AcDbEntity
  8
1
  6
CONTINUOUS
 62
             7
100
AcDbLine
 10
166.5
 20
13.40000000000001
 11
166.5
 21
5.40000000000001
  0
LINE
  5
22E
100
AcDbEntity
  8
0
  6
CONTINUOUS
 62
             7
100
AcDbLine
 10
167.90000000000001
 20
19.68860009363294
 11
167.90000000000001
 21
17.91139990636707
  0
LINE
  5
22D
100
AcDbEntity
  8
0
  6
CONTINUOUS
 62
             7
100
AcDbLine
 10
167.90000000000001
 20
21.55
 11
168.63912014162449
 21
21.55
  0
LINE
  5
22C
100
AcDbEntity
  8
0
  6
CONTINUOUS
 62
             7
100
AcDbLine
 10
168.63912014162449
 20
16.05
 11
167.90000000000001
 21
16.05
  0
LINE
  5
22B
100
AcDbEntity
  8
0
  6
CONTINUOUS
 62
             7
100
AcDbLine
 10
167.5
 20
22.20000000000001
 11
166.5
 21
22.20000000000001
  0
LINE
  5
22A
100
AcDbEntity
  8
0
  6
CONTINUOUS
 62
             7
100
AcDbLine
 10
167.5
 20
15.40000000000001
 11
166.5
 21
15.40000000000001
  0
LINE
  5
229
100
AcDbEntity
  8
0
  6
CONTINUOUS
 62
             7
100
AcDbLine
 10
167.5
 20
22.20000000000001
 11
167.90000000000001
 21
20.55
  0
LINE
  5
228
100
AcDbEntity
  8
0
  6
CONTINUOUS
 62
             7
100
AcDbLine
 10
166.5
 20
22.20000000000001
 11
166.90000000000001
 21
20.55
  0
LINE
  5
227
100
AcDbEntity
  8
0
  6
CONTINUOUS
 62
             7
100
AcDbLine
 10
167.5
 20
19.4
 11
167.77022468831771
 21
19.50133425811912
  0
LINE
  5
226
100
AcDbEntity
  8
0
  6
CONTINUOUS
 62
             7
100
AcDbLine
 10
167.5
 20
19.4
 11
167.5
 21
18.20000000000002
  0
LINE
  5
225
100
AcDbEntity
  8
0
  6
CONTINUOUS
 62
             7
100
AcDbLine
 10
167.5
 20
18.20000000000002
 11
167.77022468831771
 21
18.09866574188089
  0
LINE
  5
224
100
AcDbEntity
  8
0
  6
CONTINUOUS
 62
             7
100
AcDbLine
 10
166.5
 20
19.4
 11
166.5
 21
18.20000000000002
  0
LINE
  5
223
100
AcDbEntity
  8
0
  6
CONTINUOUS
 62
             7
100
AcDbLine
 10
166.5
 20
19.4
 11
166.77022468831771
 21
19.50133425811912
  0
LINE
  5
222
100
AcDbEntity
  8
0
  6
CONTINUOUS
 62
             7
100
AcDbLine
 10
166.5
 20
18.20000000000002
 11
166.77022468831771
 21
18.09866574188089
  0
LINE
  5
221
100
AcDbEntity
  8
0
  6
CONTINUOUS
 62
             7
100
AcDbLine
 10
167.90000000000001
 20
22.20000000000001
 11
167.90000000000001
 21
19.68860009363294
  0
LINE
  5
220
100
AcDbEntity
  8
0
  6
CONTINUOUS
 62
             7
100
AcDbLine
 10
167.90000000000001
 20
17.05
 11
167.5
 21
15.40000000000001
  0
LINE
  5
21F
100
AcDbEntity
  8
0
  6
CONTINUOUS
 62
             7
100
AcDbLine
 10
166.90000000000001
 20
17.05
 11
166.5
 21
15.40000000000001
  0
LINE
  5
21E
100
AcDbEntity
  8
0
  6
CONTINUOUS
 62
             7
100
AcDbLine
 10
166.90000000000001
 20
20.55
 11
166.90000000000001
 21
20.02950000000001
  0
LINE
  5
21D
100
AcDbEntity
  8
0
  6
CONTINUOUS
 62
             7
100
AcDbLine
 10
166.90000000000001
 20
17.5705
 11
166.90000000000001
 21
17.91139990636707
  0
LINE
  5
21C
100
AcDbEntity
  8
0
  6
CONTINUOUS
 62
             7
100
AcDbLine
 10
167.90000000000001
 20
22.20000000000001
 11
167.5
 21
22.20000000000001
  0
LINE
  5
21B
100
AcDbEntity
  8
0
  6
CONTINUOUS
 62
             7
100
AcDbLine
 10
167.90000000000001
 20
15.40000000000001
 11
167.5
 21
15.40000000000001
  0
LINE
  5
21A
100
AcDbEntity
  8
0
  6
CONTINUOUS
 62
             7
100
AcDbLine
 10
166.5
 20
20.02950000000001
 11
166.90000000000001
 21
20.02950000000001
  0
LINE
  5
219
100
AcDbEntity
  8
0
  6
CONTINUOUS
 62
             7
100
AcDbLine
 10
166.90000000000001
 20
20.02950000000001
 11
166.90000000000001
 21
19.68860009363294
  0
LINE
  5
218
100
AcDbEntity
  8
0
  6
CONTINUOUS
 62
             7
100
AcDbLine
 10
166.5
 20
17.5705
 11
166.90000000000001
 21
17.5705
  0
LINE
  5
217
100
AcDbEntity
  8
0
  6
CONTINUOUS
 62
             7
100
AcDbLine
 10
166.90000000000001
 20
17.5705
 11
166.90000000000001
 21
17.05
  0
LINE
  5
216
100
AcDbEntity
  8
0
  6
CONTINUOUS
 62
             7
100
AcDbLine
 10
167.90000000000001
 20
15.40000000000001
 11
167.90000000000001
 21
17.91139990636707
  0
LINE
  5
215
100
AcDbEntity
  8
1
  6
CONTINUOUS
 62
             7
100
AcDbLine
 10
166.5
 20
22.8
 11
166.5
 21
14.8
  0
LINE
  5
214
100
AcDbEntity
  8
0
  6
CONTINUOUS
 62
             7
100
AcDbLine
 10
167.90000000000001
 20
29.08860009363293
 11
167.90000000000001
 21
27.31139990636707
  0
LINE
  5
213
100
AcDbEntity
  8
0
  6
CONTINUOUS
 62
             7
100
AcDbLine
 10
167.90000000000001
 20
30.95
 11
168.63912014162449
 21
30.95
  0
LINE
  5
212
100
AcDbEntity
  8
0
  6
CONTINUOUS
 62
             7
100
AcDbLine
 10
168.63912014162449
 20
25.45
 11
167.90000000000001
 21
25.45
  0
LINE
  5
211
100
AcDbEntity
  8
0
  6
CONTINUOUS
 62
             7
100
AcDbLine
 10
167.5
 20
31.60000000000001
 11
166.5
 21
31.60000000000001
  0
LINE
  5
210
100
AcDbEntity
  8
0
  6
CONTINUOUS
 62
             7
100
AcDbLine
 10
167.5
 20
24.8
 11
166.5
 21
24.8
  0
LINE
  5
20F
100
AcDbEntity
  8
0
  6
CONTINUOUS
 62
             7
100
AcDbLine
 10
167.5
 20
31.60000000000001
 11
167.90000000000001
 21
29.95
  0
LINE
  5
20E
100
AcDbEntity
  8
0
  6
CONTINUOUS
 62
             7
100
AcDbLine
 10
166.5
 20
31.60000000000001
 11
166.90000000000001
 21
29.95
  0
LINE
  5
20D
100
AcDbEntity
  8
0
  6
CONTINUOUS
 62
             7
100
AcDbLine
 10
167.5
 20
28.8
 11
167.77022468831771
 21
28.90133425811912
  0
LINE
  5
20C
100
AcDbEntity
  8
0
  6
CONTINUOUS
 62
             7
100
AcDbLine
 10
167.5
 20
28.8
 11
167.5
 21
27.60000000000001
  0
LINE
  5
20B
100
AcDbEntity
  8
0
  6
CONTINUOUS
 62
             7
100
AcDbLine
 10
167.5
 20
27.60000000000001
 11
167.77022468831771
 21
27.49866574188089
  0
LINE
  5
20A
100
AcDbEntity
  8
0
  6
CONTINUOUS
 62
             7
100
AcDbLine
 10
166.5
 20
28.8
 11
166.5
 21
27.60000000000001
  0
LINE
  5
209
100
AcDbEntity
  8
0
  6
CONTINUOUS
 62
             7
100
AcDbLine
 10
166.5
 20
28.8
 11
166.77022468831771
 21
28.90133425811912
  0
LINE
  5
208
100
AcDbEntity
  8
0
  6
CONTINUOUS
 62
             7
100
AcDbLine
 10
166.5
 20
27.60000000000001
 11
166.77022468831771
 21
27.49866574188089
  0
LINE
  5
207
100
AcDbEntity
  8
0
  6
CONTINUOUS
 62
             7
100
AcDbLine
 10
167.90000000000001
 20
31.60000000000001
 11
167.90000000000001
 21
29.08860009363293
  0
LINE
  5
206
100
AcDbEntity
  8
0
  6
CONTINUOUS
 62
             7
100
AcDbLine
 10
167.90000000000001
 20
26.45
 11
167.5
 21
24.8
  0
LINE
  5
205
100
AcDbEntity
  8
0
  6
CONTINUOUS
 62
             7
100
AcDbLine
 10
166.90000000000001
 20
26.45
 11
166.5
 21
24.8
  0
LINE
  5
204
100
AcDbEntity
  8
0
  6
CONTINUOUS
 62
             7
100
AcDbLine
 10
166.90000000000001
 20
29.95
 11
166.90000000000001
 21
29.4295
  0
LINE
  5
203
100
AcDbEntity
  8
0
  6
CONTINUOUS
 62
             7
100
AcDbLine
 10
166.90000000000001
 20
26.9705
 11
166.90000000000001
 21
27.31139990636707
  0
LINE
  5
202
100
AcDbEntity
  8
0
  6
CONTINUOUS
 62
             7
100
AcDbLine
 10
167.90000000000001
 20
31.60000000000001
 11
167.5
 21
31.60000000000001
  0
LINE
  5
201
100
AcDbEntity
  8
0
  6
CONTINUOUS
 62
             7
100
AcDbLine
 10
167.90000000000001
 20
24.8
 11
167.5
 21
24.8
  0
LINE
  5
200
100
AcDbEntity
  8
0
  6
CONTINUOUS
 62
             7
100
AcDbLine
 10
166.5
 20
29.4295
 11
166.90000000000001
 21
29.4295
  0
LINE
  5
1FF
100
AcDbEntity
  8
0
  6
CONTINUOUS
 62
             7
100
AcDbLine
 10
166.90000000000001
 20
29.4295
 11
166.90000000000001
 21
29.08860009363293
  0
LINE
  5
1FE
100
AcDbEntity
  8
0
  6
CONTINUOUS
 62
             7
100
AcDbLine
 10
166.5
 20
26.9705
 11
166.90000000000001
 21
26.9705
  0
LINE
  5
1FD
100
AcDbEntity
  8
0
  6
CONTINUOUS
 62
             7
100
AcDbLine
 10
166.90000000000001
 20
26.9705
 11
166.90000000000001
 21
26.45
  0
LINE
  5
1FC
100
AcDbEntity
  8
0
  6
CONTINUOUS
 62
             7
100
AcDbLine
 10
167.90000000000001
 20
24.8
 11
167.90000000000001
 21
27.31139990636707
  0
LINE
  5
1FB
100
AcDbEntity
  8
1
  6
CONTINUOUS
 62
             7
100
AcDbLine
 10
166.5
 20
32.2
 11
166.5
 21
24.2
  0
LINE
  5
1FA
100
AcDbEntity
  8
0
  6
CONTINUOUS
 62
             7
100
AcDbLine
 10
167.90000000000001
 20
38.48860009363294
 11
167.90000000000001
 21
36.71139990636708
  0
LINE
  5
1F9
100
AcDbEntity
  8
0
  6
CONTINUOUS
 62
             7
100
AcDbLine
 10
167.90000000000001
 20
40.35000000000001
 11
168.63912014162449
 21
40.35000000000001
  0
LINE
  5
1F8
100
AcDbEntity
  8
0
  6
CONTINUOUS
 62
             7
100
AcDbLine
 10
168.63912014162449
 20
34.85000000000001
 11
167.90000000000001
 21
34.85000000000001
  0
LINE
  5
1F7
100
AcDbEntity
  8
0
  6
CONTINUOUS
 62
             7
100
AcDbLine
 10
167.5
 20
41.00000000000001
 11
166.5
 21
41.00000000000001
  0
LINE
  5
1F6
100
AcDbEntity
  8
0
  6
CONTINUOUS
 62
             7
100
AcDbLine
 10
167.5
 20
34.2
 11
166.5
 21
34.2
  0
LINE
  5
1F5
100
AcDbEntity
  8
0
  6
CONTINUOUS
 62
             7
100
AcDbLine
 10
167.5
 20
41.00000000000001
 11
167.90000000000001
 21
39.35000000000001
  0
LINE
  5
1F4
100
AcDbEntity
  8
0
  6
CONTINUOUS
 62
             7
100
AcDbLine
 10
166.5
 20
41.00000000000001
 11
166.90000000000001
 21
39.35000000000001
  0
LINE
  5
1F3
100
AcDbEntity
  8
0
  6
CONTINUOUS
 62
             7
100
AcDbLine
 10
167.5
 20
38.2
 11
167.77022468831771
 21
38.30133425811913
  0
LINE
  5
1F2
100
AcDbEntity
  8
0
  6
CONTINUOUS
 62
             7
100
AcDbLine
 10
167.5
 20
38.2
 11
167.5
 21
37.00000000000001
  0
LINE
  5
1F1
100
AcDbEntity
  8
0
  6
CONTINUOUS
 62
             7
100
AcDbLine
 10
167.5
 20
37.00000000000001
 11
167.77022468831771
 21
36.89866574188089
  0
LINE
  5
1F0
100
AcDbEntity
  8
0
  6
CONTINUOUS
 62
             7
100
AcDbLine
 10
166.5
 20
38.2
 11
166.5
 21
37.00000000000001
  0
LINE
  5
1EF
100
AcDbEntity
  8
0
  6
CONTINUOUS
 62
             7
100
AcDbLine
 10
166.5
 20
38.2
 11
166.77022468831771
 21
38.30133425811913
  0
LINE
  5
1EE
100
AcDbEntity
  8
0
  6
CONTINUOUS
 62
             7
100
AcDbLine
 10
166.5
 20
37.00000000000001
 11
166.77022468831771
 21
36.89866574188089
  0
LINE
  5
1ED
100
AcDbEntity
  8
0
  6
CONTINUOUS
 62
             7
100
AcDbLine
 10
167.90000000000001
 20
41.00000000000001
 11
167.90000000000001
 21
38.48860009363294
  0
LINE
  5
1EC
100
AcDbEntity
  8
0
  6
CONTINUOUS
 62
             7
100
AcDbLine
 10
167.90000000000001
 20
35.85000000000001
 11
167.5
 21
34.2
  0
LINE
  5
1EB
100
AcDbEntity
  8
0
  6
CONTINUOUS
 62
             7
100
AcDbLine
 10
166.90000000000001
 20
35.85000000000001
 11
166.5
 21
34.2
  0
LINE
  5
1EA
100
AcDbEntity
  8
0
  6
CONTINUOUS
 62
             7
100
AcDbLine
 10
166.90000000000001
 20
39.35000000000001
 11
166.90000000000001
 21
38.82950000000001
  0
LINE
  5
1E9
100
AcDbEntity
  8
0
  6
CONTINUOUS
 62
             7
100
AcDbLine
 10
166.90000000000001
 20
36.37050000000001
 11
166.90000000000001
 21
36.71139990636708
  0
LINE
  5
1E8
100
AcDbEntity
  8
0
  6
CONTINUOUS
 62
             7
100
AcDbLine
 10
167.90000000000001
 20
41.00000000000001
 11
167.5
 21
41.00000000000001
  0
LINE
  5
1E7
100
AcDbEntity
  8
0
  6
CONTINUOUS
 62
             7
100
AcDbLine
 10
167.90000000000001
 20
34.2
 11
167.5
 21
34.2
  0
LINE
  5
1E6
100
AcDbEntity
  8
0
  6
CONTINUOUS
 62
             7
100
AcDbLine
 10
166.5
 20
38.82950000000001
 11
166.90000000000001
 21
38.82950000000001
  0
LINE
  5
1E5
100
AcDbEntity
  8
0
  6
CONTINUOUS
 62
             7
100
AcDbLine
 10
166.90000000000001
 20
38.82950000000001
 11
166.90000000000001
 21
38.48860009363294
  0
LINE
  5
1E4
100
AcDbEntity
  8
0
  6
CONTINUOUS
 62
             7
100
AcDbLine
 10
166.5
 20
36.37050000000001
 11
166.90000000000001
 21
36.37050000000001
  0
LINE
  5
1E3
100
AcDbEntity
  8
0
  6
CONTINUOUS
 62
             7
100
AcDbLine
 10
166.90000000000001
 20
36.37050000000001
 11
166.90000000000001
 21
35.85000000000001
  0
LINE
  5
1E2
100
AcDbEntity
  8
0
  6
CONTINUOUS
 62
             7
100
AcDbLine
 10
167.90000000000001
 20
34.2
 11
167.90000000000001
 21
36.71139990636708
  0
LINE
  5
1E1
100
AcDbEntity
  8
1
  6
CONTINUOUS
 62
             7
100
AcDbLine
 10
166.5
 20
41.6
 11
166.5
 21
33.6
  0
LINE
  5
1E0
100
AcDbEntity
  8
1
  6
CONTINUOUS
 62
             7
100
AcDbLine
 10
94.0
 20
57.0
 11
96.0
 21
57.0
  0
LINE
  5
1DF
100
AcDbEntity
  8
1
  6
CONTINUOUS
 62
             7
100
AcDbLine
 10
141.0
 20
57.0
 11
143.0
 21
57.0
  0
LINE
  5
1DE
100
AcDbEntity
  8
1
  6
CONTINUOUS
 62
             7
100
AcDbLine
 10
145.30000000000001
 20
49.0
 11
148.30000000000001
 21
46.0
  0
LINE
  5
1DD
100
AcDbEntity
  8
1
  6
CONTINUOUS
 62
             7
100
AcDbLine
 10
149.30000000000001
 20
57.0
 11
145.30000000000001
 21
57.0
  0
LINE
  5
1DC
100
AcDbEntity
  8
1
  6
CONTINUOUS
 62
             7
100
AcDbLine
 10
145.30000000000001
 20
57.0
 11
145.30000000000001
 21
49.0
  0
LINE
  5
1DB
100
AcDbEntity
  8
1
  6
CONTINUOUS
 62
             7
100
AcDbLine
 10
145.30000000000001
 20
49.0
 11
72.30000000000001
 21
49.0
  0
LINE
  5
1DA
100
AcDbEntity
  8
1
  6
CONTINUOUS
 62
             7
100
AcDbLine
 10
72.30000000000001
 20
49.0
 11
72.3
 21
45.0
  0
LINE
  5
1D9
100
AcDbEntity
  8
1
  6
CONTINUOUS
 62
             7
100
AcDbLine
 10
143.0
 20
57.0
 11
143.0
 21
49.0
  0
LINE
  5
1D8
100
AcDbEntity
  8
1
  6
CONTINUOUS
 62
             7
100
AcDbLine
 10
141.0
 20
57.0
 11
141.0
 21
49.0
  0
LINE
  5
1D7
100
AcDbEntity
  8
1
  6
CONTINUOUS
 62
             7
100
AcDbLine
 10
96.0
 20
57.0
 11
96.0
 21
49.0
  0
LINE
  5
1D6
100
AcDbEntity
  8
1
  6
CONTINUOUS
 62
             7
100
AcDbLine
 10
94.0
 20
57.0
 11
94.0
 21
49.0
  0
LINE
  5
1D5
100
AcDbEntity
  8
1
  6
CONTINUOUS
 62
             7
100
AcDbLine
 10
79.3
 20
54.5
 11
79.3
 21
50.5
  0
LINE
  5
1D4
100
AcDbEntity
  8
1
  6
CONTINUOUS
 62
             7
100
AcDbLine
 10
149.30000000000001
 20
49.0
 11
150.27902432574939
 21
49.0
  0
LINE
  5
1D3
100
AcDbEntity
  8
1
  6
CONTINUOUS
 62
             7
100
AcDbLine
 10
150.27902432574939
 20
56.0
 11
149.30000000000001
 21
56.0
  0
LINE
  5
1D2
100
AcDbEntity
  8
1
  6
CONTINUOUS
 62
             7
100
AcDbLine
 10
149.30000000000001
 20
57.0
 11
149.30000000000001
 21
46.0
  0
LINE
  5
1D1
100
AcDbEntity
  8
1
  6
CONTINUOUS
 62
             7
100
AcDbLine
 10
94.0
 20
54.5
 11
79.3
 21
54.5
  0
LINE
  5
1D0
100
AcDbEntity
  8
1
  6
CONTINUOUS
 62
             7
100
AcDbLine
 10
141.0
 20
54.5
 11
96.0
 21
54.5
  0
LINE
  5
1CF
100
AcDbEntity
  8
1
  6
CONTINUOUS
 62
             7
100
AcDbLine
 10
143.0
 20
54.5
 11
145.30000000000001
 21
54.5
  0
LINE
  5
1CE
100
AcDbEntity
  8
1
  6
CONTINUOUS
 62
             7
100
AcDbLine
 10
94.0
 20
54.1
 11
79.3
 21
54.1
  0
LINE
  5
1CD
100
AcDbEntity
  8
1
  6
CONTINUOUS
 62
             7
100
AcDbLine
 10
141.0
 20
54.1
 11
96.0
 21
54.1
  0
LINE
  5
1CC
100
AcDbEntity
  8
1
  6
CONTINUOUS
 62
             7
100
AcDbLine
 10
143.0
 20
54.1
 11
145.30000000000001
 21
54.10000000000001
  0
LINE
  5
1CB
100
AcDbEntity
  8
1
  6
CONTINUOUS
 62
             7
100
AcDbLine
 10
94.0
 20
50.9
 11
79.3
 21
50.9
  0
LINE
  5
1CA
100
AcDbEntity
  8
1
  6
CONTINUOUS
 62
             7
100
AcDbLine
 10
141.0
 20
50.9
 11
96.0
 21
50.9
  0
LINE
  5
1C9
100
AcDbEntity
  8
1
  6
CONTINUOUS
 62
             7
100
AcDbLine
 10
143.0
 20
50.9
 11
145.30000000000001
 21
50.89999999999999
  0
LINE
  5
1C8
100
AcDbEntity
  8
1
  6
CONTINUOUS
 62
             7
100
AcDbLine
 10
94.0
 20
50.5
 11
79.3
 21
50.5
  0
LINE
  5
1C7
100
AcDbEntity
  8
1
  6
CONTINUOUS
 62
             7
100
AcDbLine
 10
141.0
 20
50.5
 11
96.0
 21
50.5
  0
LINE
  5
1C6
100
AcDbEntity
  8
1
  6
CONTINUOUS
 62
             7
100
AcDbLine
 10
143.0
 20
50.5
 11
145.30000000000001
 21
50.5
  0
LINE
  5
1C5
100
AcDbEntity
  8
1
  6
CONTINUOUS
 62
             7
100
AcDbLine
 10
96.0
 20
-57.0
 11
94.0
 21
-57.0
  0
LINE
  5
1C4
100
AcDbEntity
  8
1
  6
CONTINUOUS
 62
             7
100
AcDbLine
 10
143.0
 20
-57.0
 11
141.0
 21
-57.0
  0
LINE
  5
1C3
100
AcDbEntity
  8
1
  6
CONTINUOUS
 62
             7
100
AcDbLine
 10
148.30000000000001
 20
-46.0
 11
145.30000000000001
 21
-49.0
  0
LINE
  5
1C2
100
AcDbEntity
  8
1
  6
CONTINUOUS
 62
             7
100
AcDbLine
 10
145.30000000000001
 20
-57.0
 11
149.30000000000001
 21
-57.0
  0
LINE
  5
1C1
100
AcDbEntity
  8
1
  6
CONTINUOUS
 62
             7
100
AcDbLine
 10
145.30000000000001
 20
-49.0
 11
145.30000000000001
 21
-57.0
  0
LINE
  5
1C0
100
AcDbEntity
  8
1
  6
CONTINUOUS
 62
             7
100
AcDbLine
 10
72.3
 20
-49.0
 11
145.30000000000001
 21
-49.0
  0
LINE
  5
1BF
100
AcDbEntity
  8
1
  6
CONTINUOUS
 62
             7
100
AcDbLine
 10
72.3
 20
-45.0
 11
72.3
 21
-49.0
  0
LINE
  5
1BE
100
AcDbEntity
  8
1
  6
CONTINUOUS
 62
             7
100
AcDbLine
 10
143.0
 20
-49.0
 11
143.0
 21
-57.0
  0
LINE
  5
1BD
100
AcDbEntity
  8
1
  6
CONTINUOUS
 62
             7
100
AcDbLine
 10
141.0
 20
-49.0
 11
141.0
 21
-57.0
  0
LINE
  5
1BC
100
AcDbEntity
  8
1
  6
CONTINUOUS
 62
             7
100
AcDbLine
 10
96.0
 20
-49.0
 11
96.0
 21
-57.0
  0
LINE
  5
1BB
100
AcDbEntity
  8
1
  6
CONTINUOUS
 62
             7
100
AcDbLine
 10
94.0
 20
-49.0
 11
94.0
 21
-57.0
  0
LINE
  5
1BA
100
AcDbEntity
  8
1
  6
CONTINUOUS
 62
             7
100
AcDbLine
 10
79.3
 20
-50.5
 11
79.3
 21
-54.5
  0
LINE
  5
1B9
100
AcDbEntity
  8
1
  6
CONTINUOUS
 62
             7
100
AcDbLine
 10
150.27902432574939
 20
-49.0
 11
149.30000000000001
 21
-49.0
  0
LINE
  5
1B8
100
AcDbEntity
  8
1
  6
CONTINUOUS
 62
             7
100
AcDbLine
 10
149.30000000000001
 20
-56.0
 11
150.27902432574939
 21
-56.0
  0
LINE
  5
1B7
100
AcDbEntity
  8
1
  6
CONTINUOUS
 62
             7
100
AcDbLine
 10
149.30000000000001
 20
-46.0
 11
149.30000000000001
 21
-57.0
  0
LINE
  5
1B6
100
AcDbEntity
  8
1
  6
CONTINUOUS
 62
             7
100
AcDbLine
 10
79.3
 20
-54.5
 11
94.0
 21
-54.5
  0
LINE
  5
1B5
100
AcDbEntity
  8
1
  6
CONTINUOUS
 62
             7
100
AcDbLine
 10
96.0
 20
-54.5
 11
141.0
 21
-54.5
  0
LINE
  5
1B4
100
AcDbEntity
  8
1
  6
CONTINUOUS
 62
             7
100
AcDbLine
 10
145.30000000000001
 20
-54.5
 11
143.0
 21
-54.5
  0
LINE
  5
1B3
100
AcDbEntity
  8
1
  6
CONTINUOUS
 62
             7
100
AcDbLine
 10
79.3
 20
-54.09999999999999
 11
94.0
 21
-54.09999999999999
  0
LINE
  5
1B2
100
AcDbEntity
  8
1
  6
CONTINUOUS
 62
             7
100
AcDbLine
 10
96.0
 20
-54.09999999999999
 11
141.0
 21
-54.09999999999999
  0
LINE
  5
1B1
100
AcDbEntity
  8
1
  6
CONTINUOUS
 62
             7
100
AcDbLine
 10
145.30000000000001
 20
-54.09999999999998
 11
143.0
 21
-54.09999999999999
  0
LINE
  5
1B0
100
AcDbEntity
  8
1
  6
CONTINUOUS
 62
             7
100
AcDbLine
 10
79.3
 20
-50.90000000000001
 11
94.0
 21
-50.90000000000001
  0
LINE
  5
1AF
100
AcDbEntity
  8
1
  6
CONTINUOUS
 62
             7
100
AcDbLine
 10
96.0
 20
-50.90000000000001
 11
141.0
 21
-50.90000000000001
  0
LINE
  5
1AE
100
AcDbEntity
  8
1
  6
CONTINUOUS
 62
             7
100
AcDbLine
 10
145.30000000000001
 20
-50.90000000000002
 11
143.0
 21
-50.90000000000001
  0
LINE
  5
1AD
100
AcDbEntity
  8
1
  6
CONTINUOUS
 62
             7
100
AcDbLine
 10
79.3
 20
-50.5
 11
94.0
 21
-50.5
  0
LINE
  5
1AC
100
AcDbEntity
  8
1
  6
CONTINUOUS
 62
             7
100
AcDbLine
 10
96.0
 20
-50.5
 11
141.0
 21
-50.5
  0
LINE
  5
1AB
100
AcDbEntity
  8
1
  6
CONTINUOUS
 62
             7
100
AcDbLine
 10
145.30000000000001
 20
-50.5
 11
143.0
 21
-50.5
  0
LINE
  5
1AA
100
AcDbEntity
  8
1
  6
CONTINUOUS
 62
             7
100
AcDbLine
 10
70.0
 20
48.0
 11
60.5
 21
48.0
  0
LINE
  5
1A9
100
AcDbEntity
  8
1
  6
CONTINUOUS
 62
             7
100
AcDbLine
 10
60.5
 20
-48.0
 11
70.0
 21
-48.0
  0
LINE
  5
1A8
100
AcDbEntity
  8
1
  6
CONTINUOUS
 62
             7
100
AcDbLine
 10
150.0
 20
26.5
 11
105.0
 21
26.5
  0
LINE
  5
1A7
100
AcDbEntity
  8
1
  6
CONTINUOUS
 62
             7
100
AcDbLine
 10
105.0
 20
26.5
 11
105.0
 21
-26.5
  0
LINE
  5
1A6
100
AcDbEntity
  8
1
  6
CONTINUOUS
 62
             7
100
AcDbLine
 10
105.0
 20
-26.5
 11
150.0
 21
-26.5
  0
LINE
  5
1A5
100
AcDbEntity
  8
1
  6
CONTINUOUS
 62
             7
100
AcDbLine
 10
150.0
 20
2.25
 11
155.0
 21
2.25
  0
LINE
  5
1A4
100
AcDbEntity
  8
1
  6
CONTINUOUS
 62
             7
100
AcDbLine
 10
150.0
 20
-2.25
 11
155.0
 21
-2.25
  0
LINE
  5
1A3
100
AcDbEntity
  8
1
  6
CONTINUOUS
 62
             7
100
AcDbLine
 10
155.0
 20
3.5
 11
165.5
 21
3.5
  0
LINE
  5
1A2
100
AcDbEntity
  8
1
  6
CONTINUOUS
 62
             7
100
AcDbLine
 10
155.0
 20
-3.5
 11
165.5
 21
-3.5
  0
LINE
  5
1A1
100
AcDbEntity
  8
1
  6
CONTINUOUS
 62
             7
100
AcDbLine
 10
155.0
 20
-3.5
 11
155.0
 21
3.5
  0
LINE
  5
1A0
100
AcDbEntity
  8
1
  6
CONTINUOUS
 62
             7
100
AcDbLine
 10
150.0
 20
26.5
 11
150.0
 21
2.25
  0
LINE
  5
19F
100
AcDbEntity
  8
1
  6
CONTINUOUS
 62
             7
100
AcDbLine
 10
150.0
 20
-2.25
 11
150.0
 21
-26.5
  0
LINE
  5
19E
100
AcDbEntity
  8
1
  6
CONTINUOUS
 62
             7
100
AcDbLine
 10
85.0
 20
31.0
 11
100.0
 21
31.0
  0
LINE
  5
19D
100
AcDbEntity
  8
1
  6
CONTINUOUS
 62
             7
100
AcDbLine
 10
100.0
 20
31.0
 11
100.0
 21
33.0
  0
LINE
  5
19C
100
AcDbEntity
  8
1
  6
CONTINUOUS
 62
             7
100
AcDbLine
 10
100.0
 20
33.0
 11
85.0
 21
33.0
  0
LINE
  5
19B
100
AcDbEntity
  8
1
  6
CONTINUOUS
 62
             7
100
AcDbLine
 10
85.0
 20
33.0
 11
85.0
 21
31.0
  0
LINE
  5
19A
100
AcDbEntity
  8
1
  6
CONTINUOUS
 62
             7
100
AcDbLine
 10
85.0
 20
34.5
 11
100.0
 21
34.5
  0
LINE
  5
199
100
AcDbEntity
  8
1
  6
CONTINUOUS
 62
             7
100
AcDbLine
 10
100.0
 20
34.5
 11
100.0
 21
36.5
  0
LINE
  5
198
100
AcDbEntity
  8
1
  6
CONTINUOUS
 62
             7
100
AcDbLine
 10
100.0
 20
36.5
 11
85.0
 21
36.5
  0
LINE
  5
197
100
AcDbEntity
  8
1
  6
CONTINUOUS
 62
             7
100
AcDbLine
 10
85.0
 20
36.5
 11
85.0
 21
34.5
  0
LINE
  5
196
100
AcDbEntity
  8
1
  6
CONTINUOUS
 62
             7
100
AcDbLine
 10
85.0
 20
38.0
 11
100.0
 21
38.0
  0
LINE
  5
195
100
AcDbEntity
  8
1
  6
CONTINUOUS
 62
             7
100
AcDbLine
 10
100.0
 20
38.0
 11
100.0
 21
40.0
  0
LINE
  5
194
100
AcDbEntity
  8
1
  6
CONTINUOUS
 62
             7
100
AcDbLine
 10
100.0
 20
40.0
 11
85.0
 21
40.0
  0
LINE
  5
193
100
AcDbEntity
  8
1
  6
CONTINUOUS
 62
             7
100
AcDbLine
 10
85.0
 20
40.0
 11
85.0
 21
38.0
  0
LINE
  5
192
100
AcDbEntity
  8
1
  6
CONTINUOUS
 62
             7
100
AcDbLine
 10
105.0
 20
31.0
 11
120.0
 21
31.0
  0
LINE
  5
191
100
AcDbEntity
  8
1
  6
CONTINUOUS
 62
             7
100
AcDbLine
 10
120.0
 20
31.0
 11
120.0
 21
33.0
  0
LINE
  5
190
100
AcDbEntity
  8
1
  6
CONTINUOUS
 62
             7
100
AcDbLine
 10
120.0
 20
33.0
 11
105.0
 21
33.0
  0
LINE
  5
18F
100
AcDbEntity
  8
1
  6
CONTINUOUS
 62
             7
100
AcDbLine
 10
105.0
 20
33.0
 11
105.0
 21
31.0
  0
LINE
  5
18E
100
AcDbEntity
  8
1
  6
CONTINUOUS
 62
             7
100
AcDbLine
 10
105.0
 20
34.5
 11
120.0
 21
34.5
  0
LINE
  5
18D
100
AcDbEntity
  8
1
  6
CONTINUOUS
 62
             7
100
AcDbLine
 10
120.0
 20
34.5
 11
120.0
 21
36.5
  0
LINE
  5
18C
100
AcDbEntity
  8
1
  6
CONTINUOUS
 62
             7
100
AcDbLine
 10
120.0
 20
36.5
 11
105.0
 21
36.5
  0
LINE
  5
18B
100
AcDbEntity
  8
1
  6
CONTINUOUS
 62
             7
100
AcDbLine
 10
105.0
 20
36.5
 11
105.0
 21
34.5
  0
LINE
  5
18A
100
AcDbEntity
  8
1
  6
CONTINUOUS
 62
             7
100
AcDbLine
 10
105.0
 20
38.0
 11
120.0
 21
38.0
  0
LINE
  5
189
100
AcDbEntity
  8
1
  6
CONTINUOUS
 62
             7
100
AcDbLine
 10
120.0
 20
38.0
 11
120.0
 21
40.0
  0
LINE
  5
188
100
AcDbEntity
  8
1
  6
CONTINUOUS
 62
             7
100
AcDbLine
 10
120.0
 20
40.0
 11
105.0
 21
40.0
  0
LINE
  5
187
100
AcDbEntity
  8
1
  6
CONTINUOUS
 62
             7
100
AcDbLine
 10
105.0
 20
40.0
 11
105.0
 21
38.0
  0
LINE
  5
186
100
AcDbEntity
  8
1
  6
CONTINUOUS
 62
             7
100
AcDbLine
 10
125.0
 20
31.0
 11
140.0
 21
31.0
  0
LINE
  5
185
100
AcDbEntity
  8
1
  6
CONTINUOUS
 62
             7
100
AcDbLine
 10
140.0
 20
31.0
 11
140.0
 21
33.0
  0
LINE
  5
184
100
AcDbEntity
  8
1
  6
CONTINUOUS
 62
             7
100
AcDbLine
 10
140.0
 20
33.0
 11
125.0
 21
33.0
  0
LINE
  5
183
100
AcDbEntity
  8
1
  6
CONTINUOUS
 62
             7
100
AcDbLine
 10
125.0
 20
33.0
 11
125.0
 21
31.0
  0
LINE
  5
182
100
AcDbEntity
  8
1
  6
CONTINUOUS
 62
             7
100
AcDbLine
 10
125.0
 20
34.5
 11
140.0
 21
34.5
  0
LINE
  5
181
100
AcDbEntity
  8
1
  6
CONTINUOUS
 62
             7
100
AcDbLine
 10
140.0
 20
34.5
 11
140.0
 21
36.5
  0
LINE
  5
180
100
AcDbEntity
  8
1
  6
CONTINUOUS
 62
             7
100
AcDbLine
 10
140.0
 20
36.5
 11
125.0
 21
36.5
  0
LINE
  5
17F
100
AcDbEntity
  8
1
  6
CONTINUOUS
 62
             7
100
AcDbLine
 10
125.0
 20
36.5
 11
125.0
 21
34.5
  0
LINE
  5
17E
100
AcDbEntity
  8
1
  6
CONTINUOUS
 62
             7
100
AcDbLine
 10
125.0
 20
38.0
 11
140.0
 21
38.0
  0
LINE
  5
17D
100
AcDbEntity
  8
1
  6
CONTINUOUS
 62
             7
100
AcDbLine
 10
140.0
 20
38.0
 11
140.0
 21
40.0
  0
LINE
  5
17C
100
AcDbEntity
  8
1
  6
CONTINUOUS
 62
             7
100
AcDbLine
 10
140.0
 20
40.0
 11
125.0
 21
40.0
  0
LINE
  5
17B
100
AcDbEntity
  8
1
  6
CONTINUOUS
 62
             7
100
AcDbLine
 10
125.0
 20
40.0
 11
125.0
 21
38.0
  0
LINE
  5
17A
100
AcDbEntity
  8
1
  6
CONTINUOUS
 62
             7
100
AcDbLine
 10
100.0
 20
-31.0
 11
85.0
 21
-31.0
  0
LINE
  5
179
100
AcDbEntity
  8
1
  6
CONTINUOUS
 62
             7
100
AcDbLine
 10
100.0
 20
-33.0
 11
100.0
 21
-31.0
  0
LINE
  5
178
100
AcDbEntity
  8
1
  6
CONTINUOUS
 62
             7
100
AcDbLine
 10
85.0
 20
-33.0
 11
100.0
 21
-33.0
  0
LINE
  5
177
100
AcDbEntity
  8
1
  6
CONTINUOUS
 62
             7
100
AcDbLine
 10
85.0
 20
-31.0
 11
85.0
 21
-33.0
  0
LINE
  5
176
100
AcDbEntity
  8
1
  6
CONTINUOUS
 62
             7
100
AcDbLine
 10
100.0
 20
-34.5
 11
85.0
 21
-34.5
  0
LINE
  5
175
100
AcDbEntity
  8
1
  6
CONTINUOUS
 62
             7
100
AcDbLine
 10
100.0
 20
-36.5
 11
100.0
 21
-34.5
  0
LINE
  5
174
100
AcDbEntity
  8
1
  6
CONTINUOUS
 62
             7
100
AcDbLine
 10
85.0
 20
-36.5
 11
100.0
 21
-36.5
  0
LINE
  5
173
100
AcDbEntity
  8
1
  6
CONTINUOUS
 62
             7
100
AcDbLine
 10
85.0
 20
-34.5
 11
85.0
 21
-36.5
  0
LINE
  5
172
100
AcDbEntity
  8
1
  6
CONTINUOUS
 62
             7
100
AcDbLine
 10
100.0
 20
-38.0
 11
85.0
 21
-38.0
  0
LINE
  5
171
100
AcDbEntity
  8
1
  6
CONTINUOUS
 62
             7
100
AcDbLine
 10
100.0
 20
-40.0
 11
100.0
 21
-38.0
  0
LINE
  5
170
100
AcDbEntity
  8
1
  6
CONTINUOUS
 62
             7
100
AcDbLine
 10
85.0
 20
-40.0
 11
100.0
 21
-40.0
  0
LINE
  5
16F
100
AcDbEntity
  8
1
  6
CONTINUOUS
 62
             7
100
AcDbLine
 10
85.0
 20
-38.0
 11
85.0
 21
-40.0
  0
LINE
  5
16E
100
AcDbEntity
  8
1
  6
CONTINUOUS
 62
             7
100
AcDbLine
 10
120.0
 20
-31.0
 11
105.0
 21
-31.0
  0
LINE
  5
16D
100
AcDbEntity
  8
1
  6
CONTINUOUS
 62
             7
100
AcDbLine
 10
120.0
 20
-33.0
 11
120.0
 21
-31.0
  0
LINE
  5
16C
100
AcDbEntity
  8
1
  6
CONTINUOUS
 62
             7
100
AcDbLine
 10
105.0
 20
-33.0
 11
120.0
 21
-33.0
  0
LINE
  5
16B
100
AcDbEntity
  8
1
  6
CONTINUOUS
 62
             7
100
AcDbLine
 10
105.0
 20
-31.0
 11
105.0
 21
-33.0
  0
LINE
  5
16A
100
AcDbEntity
  8
1
  6
CONTINUOUS
 62
             7
100
AcDbLine
 10
120.0
 20
-34.5
 11
105.0
 21
-34.5
  0
LINE
  5
169
100
AcDbEntity
  8
1
  6
CONTINUOUS
 62
             7
100
AcDbLine
 10
120.0
 20
-36.5
 11
120.0
 21
-34.5
  0
LINE
  5
168
100
AcDbEntity
  8
1
  6
CONTINUOUS
 62
             7
100
AcDbLine
 10
105.0
 20
-36.5
 11
120.0
 21
-36.5
  0
LINE
  5
167
100
AcDbEntity
  8
1
  6
CONTINUOUS
 62
             7
100
AcDbLine
 10
105.0
 20
-34.5
 11
105.0
 21
-36.5
  0
LINE
  5
166
100
AcDbEntity
  8
1
  6
CONTINUOUS
 62
             7
100
AcDbLine
 10
120.0
 20
-38.0
 11
105.0
 21
-38.0
  0
LINE
  5
165
100
AcDbEntity
  8
1
  6
CONTINUOUS
 62
             7
100
AcDbLine
 10
120.0
 20
-40.0
 11
120.0
 21
-38.0
  0
LINE
  5
164
100
AcDbEntity
  8
1
  6
CONTINUOUS
 62
             7
100
AcDbLine
 10
105.0
 20
-40.0
 11
120.0
 21
-40.0
  0
LINE
  5
163
100
AcDbEntity
  8
1
  6
CONTINUOUS
 62
             7
100
AcDbLine
 10
105.0
 20
-38.0
 11
105.0
 21
-40.0
  0
LINE
  5
162
100
AcDbEntity
  8
1
  6
CONTINUOUS
 62
             7
100
AcDbLine
 10
140.0
 20
-31.0
 11
125.0
 21
-31.0
  0
LINE
  5
161
100
AcDbEntity
  8
1
  6
CONTINUOUS
 62
             7
100
AcDbLine
 10
140.0
 20
-33.0
 11
140.0
 21
-31.0
  0
LINE
  5
160
100
AcDbEntity
  8
1
  6
CONTINUOUS
 62
             7
100
AcDbLine
 10
125.0
 20
-33.0
 11
140.0
 21
-33.0
  0
LINE
  5
15F
100
AcDbEntity
  8
1
  6
CONTINUOUS
 62
             7
100
AcDbLine
 10
125.0
 20
-31.0
 11
125.0
 21
-33.0
  0
LINE
  5
15E
100
AcDbEntity
  8
1
  6
CONTINUOUS
 62
             7
100
AcDbLine
 10
140.0
 20
-34.5
 11
125.0
 21
-34.5
  0
LINE
  5
15D
100
AcDbEntity
  8
1
  6
CONTINUOUS
 62
             7
100
AcDbLine
 10
140.0
 20
-36.5
 11
140.0
 21
-34.5
  0
LINE
  5
15C
100
AcDbEntity
  8
1
  6
CONTINUOUS
 62
             7
100
AcDbLine
 10
125.0
 20
-36.5
 11
140.0
 21
-36.5
  0
LINE
  5
15B
100
AcDbEntity
  8
1
  6
CONTINUOUS
 62
             7
100
AcDbLine
 10
125.0
 20
-34.5
 11
125.0
 21
-36.5
  0
LINE
  5
15A
100
AcDbEntity
  8
1
  6
CONTINUOUS
 62
             7
100
AcDbLine
 10
140.0
 20
-38.0
 11
125.0
 21
-38.0
  0
LINE
  5
159
100
AcDbEntity
  8
1
  6
CONTINUOUS
 62
             7
100
AcDbLine
 10
140.0
 20
-40.0
 11
140.0
 21
-38.0
  0
LINE
  5
158
100
AcDbEntity
  8
1
  6
CONTINUOUS
 62
             7
100
AcDbLine
 10
125.0
 20
-40.0
 11
140.0
 21
-40.0
  0
LINE
  5
157
100
AcDbEntity
  8
1
  6
CONTINUOUS
 62
             7
100
AcDbLine
 10
125.0
 20
-38.0
 11
125.0
 21
-40.0
  0
LINE
  5
156
100
AcDbEntity
  8
1
  6
CONTINUOUS
 62
             7
100
AcDbLine
 10
172.0
 20
43.5
 11
161.5
 21
43.5
  0
LINE
  5
155
100
AcDbEntity
  8
1
  6
CONTINUOUS
 62
             7
100
AcDbLine
 10
161.5
 20
43.5
 11
161.5
 21
45.0
  0
LINE
  5
154
100
AcDbEntity
  8
1
  6
CONTINUOUS
 62
             7
100
AcDbLine
 10
172.0
 20
-43.5
 11
161.5
 21
-43.5
  0
LINE
  5
153
100
AcDbEntity
  8
1
  6
CONTINUOUS
 62
             7
100
AcDbLine
 10
161.5
 20
-43.5
 11
161.5
 21
-45.0
  0
LINE
  5
152
100
AcDbEntity
  8
1
  6
CONTINUOUS
 62
             7
100
AcDbLine
 10
170.0
 20
5.40000000000001
 11
170.0
 21
4.0
  0
LINE
  5
151
100
AcDbEntity
  8
1
  6
CONTINUOUS
 62
             7
100
AcDbLine
 10
172.0
 20
4.0
 11
165.5
 21
4.0
  0
LINE
  5
150
100
AcDbEntity
  8
1
  6
CONTINUOUS
 62
             7
100
AcDbLine
 10
165.5
 20
4.0
 11
165.5
 21
-4.0
  0
LINE
  5
14F
100
AcDbEntity
  8
1
  6
CONTINUOUS
 62
             7
100
AcDbLine
 10
172.0
 20
4.0
 11
172.0
 21
5.40000000000001
  0
LINE
  5
14E
100
AcDbEntity
  8
1
  6
CONTINUOUS
 62
             7
100
AcDbLine
 10
165.5
 20
-4.0
 11
172.0
 21
-4.0
  0
LINE
  5
14D
100
AcDbEntity
  8
1
  6
CONTINUOUS
 62
             7
100
AcDbLine
 10
170.0
 20
14.8
 11
170.0
 21
13.40000000000001
  0
LINE
  5
14C
100
AcDbEntity
  8
1
  6
CONTINUOUS
 62
             7
100
AcDbLine
 10
172.0
 20
13.40000000000001
 11
164.0
 21
13.40000000000001
  0
LINE
  5
14B
100
AcDbEntity
  8
1
  6
CONTINUOUS
 62
             7
100
AcDbLine
 10
164.0
 20
13.40000000000001
 11
164.0
 21
5.40000000000001
  0
LINE
  5
14A
100
AcDbEntity
  8
1
  6
CONTINUOUS
 62
             7
100
AcDbLine
 10
172.0
 20
13.40000000000001
 11
172.0
 21
14.8
  0
LINE
  5
149
100
AcDbEntity
  8
1
  6
CONTINUOUS
 62
             7
100
AcDbLine
 10
164.0
 20
5.40000000000001
 11
172.0
 21
5.40000000000001
  0
LINE
  5
148
100
AcDbEntity
  8
1
  6
CONTINUOUS
 62
             7
100
AcDbLine
 10
170.0
 20
24.2
 11
170.0
 21
22.8
  0
LINE
  5
147
100
AcDbEntity
  8
1
  6
CONTINUOUS
 62
             7
100
AcDbLine
 10
172.0
 20
22.8
 11
164.0
 21
22.8
  0
LINE
  5
146
100
AcDbEntity
  8
1
  6
CONTINUOUS
 62
             7
100
AcDbLine
 10
164.0
 20
22.8
 11
164.0
 21
14.8
  0
LINE
  5
145
100
AcDbEntity
  8
1
  6
CONTINUOUS
 62
             7
100
AcDbLine
 10
172.0
 20
22.8
 11
172.0
 21
24.2
  0
LINE
  5
144
100
AcDbEntity
  8
1
  6
CONTINUOUS
 62
             7
100
AcDbLine
 10
164.0
 20
14.8
 11
172.0
 21
14.8
  0
LINE
  5
143
100
AcDbEntity
  8
1
  6
CONTINUOUS
 62
             7
100
AcDbLine
 10
170.0
 20
33.6
 11
170.0
 21
32.2
  0
LINE
  5
142
100
AcDbEntity
  8
1
  6
CONTINUOUS
 62
             7
100
AcDbLine
 10
172.0
 20
32.2
 11
164.0
 21
32.2
  0
LINE
  5
141
100
AcDbEntity
  8
1
  6
CONTINUOUS
 62
             7
100
AcDbLine
 10
164.0
 20
32.2
 11
164.0
 21
24.2
  0
LINE
  5
140
100
AcDbEntity
  8
1
  6
CONTINUOUS
 62
             7
100
AcDbLine
 10
172.0
 20
32.2
 11
172.0
 21
33.6
  0
LINE
  5
13F
100
AcDbEntity
  8
1
  6
CONTINUOUS
 62
             7
100
AcDbLine
 10
164.0
 20
24.2
 11
172.0
 21
24.2
  0
LINE
  5
13E
100
AcDbEntity
  8
1
  6
CONTINUOUS
 62
             7
100
AcDbLine
 10
170.0
 20
43.5
 11
170.0
 21
41.6
  0
LINE
  5
13D
100
AcDbEntity
  8
1
  6
CONTINUOUS
 62
             7
100
AcDbLine
 10
172.0
 20
41.6
 11
164.0
 21
41.6
  0
LINE
  5
13C
100
AcDbEntity
  8
1
  6
CONTINUOUS
 62
             7
100
AcDbLine
 10
164.0
 20
41.6
 11
164.0
 21
33.6
  0
LINE
  5
13B
100
AcDbEntity
  8
1
  6
CONTINUOUS
 62
             7
100
AcDbLine
 10
164.0
 20
33.6
 11
172.0
 21
33.6
  0
LINE
  5
13A
100
AcDbEntity
  8
1
  6
CONTINUOUS
 62
             7
100
AcDbLine
 10
170.0
 20
-4.0
 11
170.0
 21
-5.40000000000001
  0
LINE
  5
139
100
AcDbEntity
  8
1
  6
CONTINUOUS
 62
             7
100
AcDbLine
 10
172.0
 20
-5.40000000000001
 11
164.0
 21
-5.40000000000001
  0
LINE
  5
138
100
AcDbEntity
  8
1
  6
CONTINUOUS
 62
             7
100
AcDbLine
 10
164.0
 20
-5.40000000000001
 11
164.0
 21
-13.40000000000001
  0
LINE
  5
137
100
AcDbEntity
  8
1
  6
CONTINUOUS
 62
             7
100
AcDbLine
 10
172.0
 20
-5.40000000000001
 11
172.0
 21
-4.0
  0
LINE
  5
136
100
AcDbEntity
  8
1
  6
CONTINUOUS
 62
             7
100
AcDbLine
 10
164.0
 20
-13.40000000000001
 11
172.0
 21
-13.40000000000001
  0
LINE
  5
135
100
AcDbEntity
  8
1
  6
CONTINUOUS
 62
             7
100
AcDbLine
 10
165.5
 20
-4.0
 11
172.0
 21
-4.0
  0
LINE
  5
134
100
AcDbEntity
  8
1
  6
CONTINUOUS
 62
             7
100
AcDbLine
 10
170.0
 20
-13.40000000000001
 11
170.0
 21
-14.8
  0
LINE
  5
133
100
AcDbEntity
  8
1
  6
CONTINUOUS
 62
             7
100
AcDbLine
 10
172.0
 20
-14.8
 11
164.0
 21
-14.8
  0
LINE
  5
132
100
AcDbEntity
  8
1
  6
CONTINUOUS
 62
             7
100
AcDbLine
 10
164.0
 20
-14.8
 11
164.0
 21
-22.8
  0
LINE
  5
131
100
AcDbEntity
  8
1
  6
CONTINUOUS
 62
             7
100
AcDbLine
 10
172.0
 20
-14.8
 11
172.0
 21
-13.40000000000001
  0
LINE
  5
130
100
AcDbEntity
  8
1
  6
CONTINUOUS
 62
             7
100
AcDbLine
 10
164.0
 20
-22.8
 11
172.0
 21
-22.8
  0
LINE
  5
12F
100
AcDbEntity
  8
1
  6
CONTINUOUS
 62
             7
100
AcDbLine
 10
164.0
 20
-13.40000000000001
 11
172.0
 21
-13.40000000000001
  0
LINE
  5
12E
100
AcDbEntity
  8
1
  6
CONTINUOUS
 62
             7
100
AcDbLine
 10
170.0
 20
-22.8
 11
170.0
 21
-24.2
  0
LINE
  5
12D
100
AcDbEntity
  8
1
  6
CONTINUOUS
 62
             7
100
AcDbLine
 10
172.0
 20
-24.2
 11
164.0
 21
-24.2
  0
LINE
  5
12C
100
AcDbEntity
  8
1
  6
CONTINUOUS
 62
             7
100
AcDbLine
 10
164.0
 20
-24.2
 11
164.0
 21
-32.2
  0
LINE
  5
12B
100
AcDbEntity
  8
1
  6
CONTINUOUS
 62
             7
100
AcDbLine
 10
172.0
 20
-24.2
 11
172.0
 21
-22.8
  0
LINE
  5
12A
100
AcDbEntity
  8
1
  6
CONTINUOUS
 62
             7
100
AcDbLine
 10
164.0
 20
-32.2
 11
172.0
 21
-32.2
  0
LINE
  5
129
100
AcDbEntity
  8
1
  6
CONTINUOUS
 62
             7
100
AcDbLine
 10
164.0
 20
-22.8
 11
172.0
 21
-22.8
  0
LINE
  5
128
100
AcDbEntity
  8
1
  6
CONTINUOUS
 62
             7
100
AcDbLine
 10
170.0
 20
-32.2
 11
170.0
 21
-33.59999999999999
  0
LINE
  5
127
100
AcDbEntity
  8
1
  6
CONTINUOUS
 62
             7
100
AcDbLine
 10
172.0
 20
-33.59999999999999
 11
164.0
 21
-33.59999999999999
  0
LINE
  5
126
100
AcDbEntity
  8
1
  6
CONTINUOUS
 62
             7
100
AcDbLine
 10
164.0
 20
-33.59999999999999
 11
164.0
 21
-41.59999999999999
  0
LINE
  5
125
100
AcDbEntity
  8
1
  6
CONTINUOUS
 62
             7
100
AcDbLine
 10
172.0
 20
-33.59999999999999
 11
172.0
 21
-32.2
  0
LINE
  5
124
100
AcDbEntity
  8
1
  6
CONTINUOUS
 62
             7
100
AcDbLine
 10
164.0
 20
-41.59999999999999
 11
172.0
 21
-41.59999999999999
  0
LINE
  5
123
100
AcDbEntity
  8
1
  6
CONTINUOUS
 62
             7
100
AcDbLine
 10
164.0
 20
-32.2
 11
172.0
 21
-32.2
  0
LINE
  5
122
100
AcDbEntity
  8
1
  6
CONTINUOUS
 62
             7
100
AcDbLine
 10
170.0
 20
-41.59999999999999
 11
170.0
 21
-43.5
  0
LINE
  5
121
100
AcDbEntity
  8
1
  6
CONTINUOUS
 62
             7
100
AcDbLine
 10
172.0
 20
41.6
 11
172.0
 21
44.5
  0
LINE
  5
120
100
AcDbEntity
  8
1
  6
CONTINUOUS
 62
             7
100
AcDbLine
 10
171.5
 20
45.0
 11
70.0
 21
45.0
  0
LINE
  5
11F
100
AcDbEntity
  8
1
  6
CONTINUOUS
 62
             7
100
AcDbLine
 10
172.0
 20
-41.59999999999999
 11
172.0
 21
-44.5
  0
LINE
  5
11E
100
AcDbEntity
  8
1
  6
CONTINUOUS
 62
             7
100
AcDbLine
 10
171.5
 20
-45.0
 11
70.0
 21
-45.0
  0
LINE
  5
11D
100
AcDbEntity
  8
1
  6
CONTINUOUS
 62
             7
100
AcDbLine
 10
70.0
 20
-48.0
 11
70.0
 21
48.0
  0
LINE
  5
11C
100
AcDbEntity
  8
1
  6
CONTINUOUS
 62
             7
100
AcDbLine
 10
165.5
 20
-33.59999999999999
 11
165.5
 21
-41.59999999999999
  0
LINE
  5
11B
100
AcDbEntity
  8
1
  6
CONTINUOUS
 62
             7
100
AcDbLine
 10
165.5
 20
-24.2
 11
165.5
 21
-32.2
  0
LINE
  5
11A
100
AcDbEntity
  8
1
  6
CONTINUOUS
 62
             7
100
AcDbLine
 10
165.5
 20
-14.8
 11
165.5
 21
-22.8
  0
LINE
  5
119
100
AcDbEntity
  8
1
  6
CONTINUOUS
 62
             7
100
AcDbLine
 10
165.5
 20
-5.40000000000001
 11
165.5
 21
-13.40000000000001
  0
LINE
  5
118
100
AcDbEntity
  8
1
  6
CONTINUOUS
 62
             7
100
AcDbLine
 10
165.5
 20
13.40000000000001
 11
165.5
 21
5.40000000000001
  0
LINE
  5
117
100
AcDbEntity
  8
1
  6
CONTINUOUS
 62
             7
100
AcDbLine
 10
165.5
 20
22.8
 11
165.5
 21
14.8
  0
LINE
  5
116
100
AcDbEntity
  8
1
  6
CONTINUOUS
 62
             7
100
AcDbLine
 10
165.5
 20
32.2
 11
165.5
 21
24.2
  0
LINE
  5
115
100
AcDbEntity
  8
1
  6
CONTINUOUS
 62
             7
100
AcDbLine
 10
165.5
 20
41.6
 11
165.5
 21
33.6
  0
LINE
  5
114
100
AcDbEntity
  8
1
  6
CONTINUOUS
 62
             7
100
AcDbLine
 10
60.0
 20
47.5
 11
60.0
 21
-47.5
  0
LINE
  5
113
100
AcDbEntity
  8
1
  6
CONTINUOUS
 62
             7
100
AcDbLine
 10
19.0
 20
-48.0
 11
19.0
 21
-46.5
  0
LINE
  5
112
100
AcDbEntity
  8
1
  6
CONTINUOUS
 62
             7
100
AcDbLine
 10
-19.0
 20
-48.0
 11
19.0
 21
-48.0
  0
LINE
  5
111
100
AcDbEntity
  8
1
  6
CONTINUOUS
 62
             7
100
AcDbLine
 10
-19.0
 20
-46.5
 11
-19.0
 21
-48.0
  0
LINE
  5
110
100
AcDbEntity
  8
1
  6
CONTINUOUS
 62
             7
100
AcDbLine
 10
19.0
 20
48.0
 11
19.0
 21
46.5
  0
LINE
  5
10F
100
AcDbEntity
  8
1
  6
CONTINUOUS
 62
             7
100
AcDbLine
 10
-19.0
 20
48.0
 11
19.0
 21
48.0
  0
LINE
  5
10E
100
AcDbEntity
  8
1
  6
CONTINUOUS
 62
             7
100
AcDbLine
 10
-19.0
 20
46.5
 11
-19.0
 21
48.0
  0
LINE
  5
10D
100
AcDbEntity
  8
1
  6
CONTINUOUS
 62
             7
100
AcDbLine
 10
-22.5
 20
46.5
 11
-22.5
 21
-46.5
  0
LINE
  5
10C
100
AcDbEntity
  8
1
  6
CONTINUOUS
 62
             7
100
AcDbLine
 10
22.5
 20
46.5
 11
-22.5
 21
46.5
  0
LINE
  5
10B
100
AcDbEntity
  8
1
  6
CONTINUOUS
 62
             7
100
AcDbLine
 10
22.5
 20
-46.5
 11
22.5
 21
46.5
  0
LINE
  5
10A
100
AcDbEntity
  8
1
  6
CONTINUOUS
 62
             7
100
AcDbLine
 10
-22.5
 20
-46.5
 11
22.5
 21
-46.5
  0
LINE
  5
109
100
AcDbEntity
  8
1
  6
CONTINUOUS
 62
             7
100
AcDbLine
 10
-19.0
 20
-48.0
 11
-24.0
 21
-48.0
  0
LINE
  5
108
100
AcDbEntity
  8
1
  6
CONTINUOUS
 62
             7
100
AcDbLine
 10
19.0
 20
-48.0
 11
24.0
 21
-48.0
  0
LINE
  5
107
100
AcDbEntity
  8
1
  6
CONTINUOUS
 62
             7
100
AcDbLine
 10
19.0
 20
48.0
 11
24.0
 21
48.0
  0
LINE
  5
106
100
AcDbEntity
  8
1
  6
CONTINUOUS
 62
             7
100
AcDbLine
 10
-19.0
 20
48.0
 11
-24.0
 21
48.0
  0
LINE
  5
105
100
AcDbEntity
  8
1
  6
CONTINUOUS
 62
             7
100
AcDbLine
 10
-24.0
 20
-48.0
 11
-24.0
 21
48.0
  0
LINE
  5
104
100
AcDbEntity
  8
1
  6
CONTINUOUS
 62
             7
100
AcDbLine
 10
24.0
 20
48.0
 11
24.0
 21
-48.0
  0
LINE
  5
103
100
AcDbEntity
  8
0
  6
CONTINUOUS
 62
             7
100
AcDbLine
 10
3.23887819235266
 20
7.30848888922026
 11
3.49773110551966
 21
7.0
  0
LINE
  5
102
100
AcDbEntity
  8
0
  6
CONTINUOUS
 62
             7
100
AcDbLine
 10
3.23887819235266
 20
7.30848888922026
 11
2.41476734176209
 21
6.61697777844051
  0
LINE
  5
101
100
AcDbEntity
  8
0
  6
CONTINUOUS
 62
             7
100
AcDbLine
 10
2.91748438750939
 20
7.69151111077974
 11
2.65863147434239
 21
8.0
  0
LINE
  5
100
100
AcDbEntity
  8
0
  6
CONTINUOUS
 62
             7
100
AcDbLine
 10
2.0933735369188
 20
7.0
 11
2.91748438750939
 21
7.69151111077974
  0
LINE
  5
FF
100
AcDbEntity
  8
0
  6
CONTINUOUS
 62
             7
100
AcDbLine
 10
-0.74533682563312
 20
7.0
 11
2.0933735369188
 21
7.0
  0
LINE
  5
FE
100
AcDbEntity
  8
0
  6
CONTINUOUS
 62
             7
100
AcDbLine
 10
-0.74533682563312
 20
7.0
 11
-1.29972735277509
 21
7.66069690242163
  0
LINE
  5
FD
100
AcDbEntity
  8
0
  6
CONTINUOUS
 62
             7
100
AcDbLine
 10
-1.12835904719262
 20
6.67860619515673
 11
-1.62129592857399
 21
3.88302222155949
  0
LINE
  5
FC
100
AcDbEntity
  8
0
  6
CONTINUOUS
 62
             7
100
AcDbLine
 10
-1.68274957433458
 20
7.33930309757837
 11
-1.12835904719262
 21
6.67860619515673
  0
LINE
  5
FB
100
AcDbEntity
  8
0
  6
CONTINUOUS
 62
             7
100
AcDbLine
 10
1.12835904719262
 20
-0.67860619515673
 11
1.62129592857399
 21
2.11697777844051
  0
LINE
  5
FA
100
AcDbEntity
  8
0
  6
CONTINUOUS
 62
             7
100
AcDbLine
 10
1.12835904719262
 20
-0.67860619515673
 11
1.68274957433458
 21
-1.33930309757837
  0
LINE
  5
F9
100
AcDbEntity
  8
0
  6
CONTINUOUS
 62
             7
100
AcDbLine
 10
0.74533682563312
 20
-1.0
 11
1.29972735277509
 21
-1.66069690242163
  0
LINE
  5
F8
100
AcDbEntity
  8
0
  6
CONTINUOUS
 62
             7
100
AcDbLine
 10
-2.91748438750939
 20
-1.69151111077974
 11
-2.65863147434239
 21
-2.0
  0
LINE
  5
F7
100
AcDbEntity
  8
0
  6
CONTINUOUS
 62
             7
100
AcDbLine
 10
-2.0933735369188
 20
-1.0
 11
0.74533682563312
 21
-1.0
  0
LINE
  5
F6
100
AcDbEntity
  8
0
  6
CONTINUOUS
 62
             7
100
AcDbLine
 10
-2.0933735369188
 20
-1.0
 11
-2.91748438750939
 21
-1.69151111077974
  0
LINE
  5
F5
100
AcDbEntity
  8
0
  6
CONTINUOUS
 62
             7
100
AcDbLine
 10
-2.41476734176209
 20
-0.61697777844051
 11
-1.9218304603807
 21
2.17860619515673
  0
LINE
  5
F4
100
AcDbEntity
  8
0
  6
CONTINUOUS
 62
             7
100
AcDbLine
 10
-2.41476734176209
 20
-0.61697777844051
 11
-3.23887819235266
 21
-1.30848888922026
  0
LINE
  5
F3
100
AcDbEntity
  8
0
  6
CONTINUOUS
 62
             7
100
AcDbLine
 10
2.44540677916456
 20
2.80848888922026
 11
2.70425969233156
 21
2.5
  0
LINE
  5
F2
100
AcDbEntity
  8
0
  6
CONTINUOUS
 62
             7
100
AcDbLine
 10
1.62129592857399
 20
2.11697777844051
 11
2.44540677916456
 21
2.80848888922026
  0
LINE
  5
F1
100
AcDbEntity
  8
0
  6
CONTINUOUS
 62
             7
100
AcDbLine
 10
1.9218304603807
 20
3.82139380484327
 11
2.41476734176209
 21
6.61697777844051
  0
LINE
  5
F0
100
AcDbEntity
  8
0
  6
CONTINUOUS
 62
             7
100
AcDbLine
 10
1.9218304603807
 20
3.82139380484327
 11
2.47622098752267
 21
3.16069690242163
  0
LINE
  5
EF
100
AcDbEntity
  8
0
  6
CONTINUOUS
 62
             7
100
AcDbLine
 10
-2.45065248841743
 20
3.1871094380804
 11
-2.70822132078358
 21
3.47753248858406
  0
LINE
  5
EE
100
AcDbEntity
  8
0
  6
CONTINUOUS
 62
             7
100
AcDbLine
 10
-1.62129592857399
 20
3.88302222155949
 11
-2.45065248841743
 21
3.1871094380804
  0
LINE
  5
ED
100
AcDbEntity
  8
0
  6
CONTINUOUS
 62
             7
100
AcDbLine
 10
-2.47622098752267
 20
2.83930309757837
 11
-2.88058667304003
 21
2.5
  0
LINE
  5
EC
100
AcDbEntity
  8
0
  6
CONTINUOUS
 62
             7
100
AcDbLine
 10
-2.47622098752267
 20
2.83930309757837
 11
-1.9218304603807
 21
2.17860619515673
  0
LINE
  5
EB
100
AcDbEntity
  8
0
  6
CONTINUOUS
 62
             7
100
AcDbLine
 10
-2.08711525985194
 20
7.0
 11
-2.70822132078358
 21
3.47753248858406
  0
LINE
  5
EA
100
AcDbEntity
  8
0
  6
CONTINUOUS
 62
             7
100
AcDbLine
 10
-1.93250186354155
 20
2.96918579164189
 11
-1.53880823882122
 21
2.5
  0
LINE
  5
E9
100
AcDbEntity
  8
0
  6
CONTINUOUS
 62
             7
100
AcDbLine
 10
-1.29990212373072
 20
3.5
 11
-1.93250186354155
 21
2.96918579164189
  0
LINE
  5
E8
100
AcDbEntity
  8
0
  6
CONTINUOUS
 62
             7
100
AcDbLine
 10
1.53880823882122
 20
3.5
 11
-1.29990212373072
 21
3.5
  0
LINE
  5
E7
100
AcDbEntity
  8
0
  6
CONTINUOUS
 62
             7
100
AcDbLine
 10
1.29990212373072
 20
2.5
 11
-1.53880823882122
 21
2.5
  0
LINE
  5
E6
100
AcDbEntity
  8
0
  6
CONTINUOUS
 62
             7
100
AcDbLine
 10
1.93250186354155
 20
3.03081420835811
 11
1.29990212373072
 21
2.5
  0
LINE
  5
E5
100
AcDbEntity
  8
0
  6
CONTINUOUS
 62
             7
100
AcDbLine
 10
1.53880823882122
 20
3.5
 11
1.93250186354155
 21
3.03081420835811
  0
LINE
  5
E4
100
AcDbEntity
  8
0
  6
CONTINUOUS
 62
             7
100
AcDbLine
 10
-0.89536166725773
 20
8.0
 11
-1.29972735277509
 21
7.66069690242163
  0
LINE
  5
E3
100
AcDbEntity
  8
0
  6
CONTINUOUS
 62
             7
100
AcDbLine
 10
2.65863147434239
 20
8.0
 11
-0.89536166725773
 21
8.0
  0
LINE
  5
E2
100
AcDbEntity
  8
0
  6
CONTINUOUS
 62
             7
100
AcDbLine
 10
0.89536166725773
 20
-2.0
 11
1.29972735277509
 21
-1.66069690242163
  0
LINE
  5
E1
100
AcDbEntity
  8
0
  6
CONTINUOUS
 62
             7
100
AcDbLine
 10
-2.65863147434239
 20
-2.0
 11
0.89536166725773
 21
-2.0
  0
LINE
  5
E0
100
AcDbEntity
  8
0
  6
CONTINUOUS
 62
             7
100
AcDbLine
 10
2.08711525985194
 20
-1.0
 11
1.68274957433458
 21
-1.33930309757837
  0
LINE
  5
DF
100
AcDbEntity
  8
0
  6
CONTINUOUS
 62
             7
100
AcDbLine
 10
2.70425969233156
 20
2.5
 11
2.08711525985194
 21
-1.0
  0
LINE
  5
DE
100
AcDbEntity
  8
0
  6
CONTINUOUS
 62
             7
100
AcDbLine
 10
2.88058667304003
 20
3.5
 11
2.47622098752267
 21
3.16069690242163
  0
LINE
  5
DD
100
AcDbEntity
  8
0
  6
CONTINUOUS
 62
             7
100
AcDbLine
 10
3.49773110551966
 20
7.0
 11
2.88058667304003
 21
3.5
  0
LINE
  5
DC
100
AcDbEntity
  8
0
  6
CONTINUOUS
 62
             7
100
AcDbLine
 10
-3.49773110551966
 20
-1.0
 11
-3.23887819235266
 21
-1.30848888922026
  0
LINE
  5
DB
100
AcDbEntity
  8
0
  6
CONTINUOUS
 62
             7
100
AcDbLine
 10
-2.88058667304003
 20
2.5
 11
-3.49773110551966
 21
-1.0
  0
LINE
  5
DA
100
AcDbEntity
  8
0
  6
CONTINUOUS
 62
             7
100
AcDbLine
 10
-2.08711525985194
 20
7.0
 11
-1.68274957433458
 21
7.33930309757837
  0
LINE
  5
D9
100
AcDbEntity
  8
0
  6
CONTINUOUS
 62
             7
100
AcDbLine
 10
7.91288474014806
 20
7.0
 11
8.31725042566542
 21
7.33930309757837
  0
LINE
  5
D8
100
AcDbEntity
  8
0
  6
CONTINUOUS
 62
             7
100
AcDbLine
 10
7.11941332695997
 20
2.5
 11
6.50226889448034
 21
-1.0
  0
LINE
  5
D7
100
AcDbEntity
  8
0
  6
CONTINUOUS
 62
             7
100
AcDbLine
 10
6.50226889448034
 20
-1.0
 11
6.76112180764734
 21
-1.30848888922026
  0
LINE
  5
D6
100
AcDbEntity
  8
0
  6
CONTINUOUS
 62
             7
100
AcDbLine
 10
13.49773110551966
 20
7.0
 11
12.88058667304003
 21
3.5
  0
LINE
  5
D5
100
AcDbEntity
  8
0
  6
CONTINUOUS
 62
             7
100
AcDbLine
 10
12.88058667304003
 20
3.5
 11
12.47622098752267
 21
3.16069690242163
  0
LINE
  5
D4
100
AcDbEntity
  8
0
  6
CONTINUOUS
 62
             7
100
AcDbLine
 10
12.70425969233156
 20
2.5
 11
12.08711525985194
 21
-1.0
  0
LINE
  5
D3
100
AcDbEntity
  8
0
  6
CONTINUOUS
 62
             7
100
AcDbLine
 10
12.08711525985194
 20
-1.0
 11
11.68274957433458
 21
-1.33930309757837
  0
LINE
  5
D2
100
AcDbEntity
  8
0
  6
CONTINUOUS
 62
             7
100
AcDbLine
 10
7.34136852565761
 20
-2.0
 11
10.89536166725773
 21
-2.0
  0
LINE
  5
D1
100
AcDbEntity
  8
0
  6
CONTINUOUS
 62
             7
100
AcDbLine
 10
10.89536166725773
 20
-2.0
 11
11.29972735277509
 21
-1.66069690242163
  0
LINE
  5
D0
100
AcDbEntity
  8
0
  6
CONTINUOUS
 62
             7
100
AcDbLine
 10
12.65863147434239
 20
8.0
 11
9.10463833274227
 21
8.0
  0
LINE
  5
CF
100
AcDbEntity
  8
0
  6
CONTINUOUS
 62
             7
100
AcDbLine
 10
9.10463833274227
 20
8.0
 11
8.70027264722491
 21
7.66069690242163
  0
LINE
  5
CE
100
AcDbEntity
  8
0
  6
CONTINUOUS
 62
             7
100
AcDbLine
 10
11.53880823882122
 20
3.5
 11
11.93250186354155
 21
3.03081420835811
  0
LINE
  5
CD
100
AcDbEntity
  8
0
  6
CONTINUOUS
 62
             7
100
AcDbLine
 10
11.93250186354155
 20
3.03081420835811
 11
11.29990212373072
 21
2.5
  0
LINE
  5
CC
100
AcDbEntity
  8
0
  6
CONTINUOUS
 62
             7
100
AcDbLine
 10
11.29990212373072
 20
2.5
 11
8.46119176117878
 21
2.5
  0
LINE
  5
CB
100
AcDbEntity
  8
0
  6
CONTINUOUS
 62
             7
100
AcDbLine
 10
11.53880823882122
 20
3.5
 11
8.70009787626928
 21
3.5
  0
LINE
  5
CA
100
AcDbEntity
  8
0
  6
CONTINUOUS
 62
             7
100
AcDbLine
 10
8.70009787626928
 20
3.5
 11
8.06749813645845
 21
2.96918579164189
  0
LINE
  5
C9
100
AcDbEntity
  8
0
  6
CONTINUOUS
 62
             7
100
AcDbLine
 10
8.06749813645845
 20
2.96918579164189
 11
8.46119176117878
 21
2.5
  0
LINE
  5
C8
100
AcDbEntity
  8
0
  6
CONTINUOUS
 62
             7
100
AcDbLine
 10
7.91288474014806
 20
7.0
 11
7.29177867921642
 21
3.47753248858406
  0
LINE
  5
C7
100
AcDbEntity
  8
0
  6
CONTINUOUS
 62
             7
100
AcDbLine
 10
7.52377901247733
 20
2.83930309757837
 11
8.0781695396193
 21
2.17860619515673
  0
LINE
  5
C6
100
AcDbEntity
  8
0
  6
CONTINUOUS
 62
             7
100
AcDbLine
 10
7.52377901247733
 20
2.83930309757837
 11
7.11941332695997
 21
2.5
  0
LINE
  5
C5
100
AcDbEntity
  8
0
  6
CONTINUOUS
 62
             7
100
AcDbLine
 10
8.37870407142601
 20
3.88302222155949
 11
7.54934751158257
 21
3.1871094380804
  0
LINE
  5
C4
100
AcDbEntity
  8
0
  6
CONTINUOUS
 62
             7
100
AcDbLine
 10
7.54934751158257
 20
3.1871094380804
 11
7.29177867921642
 21
3.47753248858406
  0
LINE
  5
C3
100
AcDbEntity
  8
0
  6
CONTINUOUS
 62
             7
100
AcDbLine
 10
11.9218304603807
 20
3.82139380484327
 11
12.47622098752267
 21
3.16069690242163
  0
LINE
  5
C2
100
AcDbEntity
  8
0
  6
CONTINUOUS
 62
             7
100
AcDbLine
 10
11.9218304603807
 20
3.82139380484327
 11
12.41476734176209
 21
6.61697777844051
  0
LINE
  5
C1
100
AcDbEntity
  8
0
  6
CONTINUOUS
 62
             7
100
AcDbLine
 10
11.62129592857399
 20
2.11697777844051
 11
12.44540677916456
 21
2.80848888922026
  0
LINE
  5
C0
100
AcDbEntity
  8
0
  6
CONTINUOUS
 62
             7
100
AcDbLine
 10
12.44540677916456
 20
2.80848888922026
 11
12.70425969233156
 21
2.5
  0
LINE
  5
BF
100
AcDbEntity
  8
0
  6
CONTINUOUS
 62
             7
100
AcDbLine
 10
7.58523265823791
 20
-0.61697777844051
 11
6.76112180764734
 21
-1.30848888922026
  0
LINE
  5
BE
100
AcDbEntity
  8
0
  6
CONTINUOUS
 62
             7
100
AcDbLine
 10
7.58523265823791
 20
-0.61697777844051
 11
8.0781695396193
 21
2.17860619515673
  0
LINE
  5
BD
100
AcDbEntity
  8
0
  6
CONTINUOUS
 62
             7
100
AcDbLine
 10
7.9066264630812
 20
-1.0
 11
7.08251561249061
 21
-1.69151111077974
  0
LINE
  5
BC
100
AcDbEntity
  8
0
  6
CONTINUOUS
 62
             7
100
AcDbLine
 10
7.9066264630812
 20
-1.0
 11
10.74533682563312
 21
-1.0
  0
LINE
  5
BB
100
AcDbEntity
  8
0
  6
CONTINUOUS
 62
             7
100
AcDbLine
 10
7.08251561249061
 20
-1.69151111077974
 11
7.34136852565761
 21
-2.0
  0
LINE
  5
BA
100
AcDbEntity
  8
0
  6
CONTINUOUS
 62
             7
100
AcDbLine
 10
10.74533682563312
 20
-1.0
 11
11.29972735277509
 21
-1.66069690242163
  0
LINE
  5
B9
100
AcDbEntity
  8
0
  6
CONTINUOUS
 62
             7
100
AcDbLine
 10
11.12835904719262
 20
-0.67860619515673
 11
11.68274957433458
 21
-1.33930309757837
  0
LINE
  5
B8
100
AcDbEntity
  8
0
  6
CONTINUOUS
 62
             7
100
AcDbLine
 10
11.12835904719262
 20
-0.67860619515673
 11
11.62129592857399
 21
2.11697777844051
  0
LINE
  5
B7
100
AcDbEntity
  8
0
  6
CONTINUOUS
 62
             7
100
AcDbLine
 10
8.31725042566542
 20
7.33930309757837
 11
8.87164095280738
 21
6.67860619515673
  0
LINE
  5
B6
100
AcDbEntity
  8
0
  6
CONTINUOUS
 62
             7
100
AcDbLine
 10
8.87164095280738
 20
6.67860619515673
 11
8.37870407142601
 21
3.88302222155949
  0
LINE
  5
B5
100
AcDbEntity
  8
0
  6
CONTINUOUS
 62
             7
100
AcDbLine
 10
9.25466317436688
 20
7.0
 11
8.70027264722491
 21
7.66069690242163
  0
LINE
  5
B4
100
AcDbEntity
  8
0
  6
CONTINUOUS
 62
             7
100
AcDbLine
 10
9.25466317436688
 20
7.0
 11
12.0933735369188
 21
7.0
  0
LINE
  5
B3
100
AcDbEntity
  8
0
  6
CONTINUOUS
 62
             7
100
AcDbLine
 10
12.0933735369188
 20
7.0
 11
12.91748438750939
 21
7.69151111077974
  0
LINE
  5
B2
100
AcDbEntity
  8
0
  6
CONTINUOUS
 62
             7
100
AcDbLine
 10
12.91748438750939
 20
7.69151111077974
 11
12.65863147434239
 21
8.0
  0
LINE
  5
B1
100
AcDbEntity
  8
0
  6
CONTINUOUS
 62
             7
100
AcDbLine
 10
13.23887819235266
 20
7.30848888922026
 11
12.41476734176209
 21
6.61697777844051
  0
LINE
  5
B0
100
AcDbEntity
  8
0
  6
CONTINUOUS
 62
             7
100
AcDbLine
 10
13.23887819235266
 20
7.30848888922026
 11
13.49773110551966
 21
7.0
  0
LINE
  5
AF
100
AcDbEntity
  8
0
  6
CONTINUOUS
 62
             7
100
AcDbLine
 10
-12.08711525985194
 20
7.0
 11
-11.68274957433458
 21
7.33930309757837
  0
LINE
  5
AE
100
AcDbEntity
  8
0
  6
CONTINUOUS
 62
             7
100
AcDbLine
 10
-12.88058667304003
 20
2.5
 11
-13.49773110551966
 21
-1.0
  0
LINE
  5
AD
100
AcDbEntity
  8
0
  6
CONTINUOUS
 62
             7
100
AcDbLine
 10
-13.49773110551966
 20
-1.0
 11
-13.23887819235266
 21
-1.30848888922026
  0
LINE
  5
AC
100
AcDbEntity
  8
0
  6
CONTINUOUS
 62
             7
100
AcDbLine
 10
-6.50226889448034
 20
7.0
 11
-7.11941332695997
 21
3.5
  0
LINE
  5
AB
100
AcDbEntity
  8
0
  6
CONTINUOUS
 62
             7
100
AcDbLine
 10
-7.11941332695997
 20
3.5
 11
-7.52377901247733
 21
3.16069690242163
  0
LINE
  5
AA
100
AcDbEntity
  8
0
  6
CONTINUOUS
 62
             7
100
AcDbLine
 10
-7.29574030766844
 20
2.5
 11
-7.91288474014806
 21
-1.0
  0
LINE
  5
A9
100
AcDbEntity
  8
0
  6
CONTINUOUS
 62
             7
100
AcDbLine
 10
-7.91288474014806
 20
-1.0
 11
-8.31725042566542
 21
-1.33930309757837
  0
LINE
  5
A8
100
AcDbEntity
  8
0
  6
CONTINUOUS
 62
             7
100
AcDbLine
 10
-12.65863147434239
 20
-2.0
 11
-9.10463833274227
 21
-2.0
  0
LINE
  5
A7
100
AcDbEntity
  8
0
  6
CONTINUOUS
 62
             7
100
AcDbLine
 10
-9.10463833274227
 20
-2.0
 11
-8.70027264722491
 21
-1.66069690242163
  0
LINE
  5
A6
100
AcDbEntity
  8
0
  6
CONTINUOUS
 62
             7
100
AcDbLine
 10
-7.34136852565761
 20
8.0
 11
-10.89536166725773
 21
8.0
  0
LINE
  5
A5
100
AcDbEntity
  8
0
  6
CONTINUOUS
 62
             7
100
AcDbLine
 10
-10.89536166725773
 20
8.0
 11
-11.29972735277509
 21
7.66069690242163
  0
LINE
  5
A4
100
AcDbEntity
  8
0
  6
CONTINUOUS
 62
             7
100
AcDbLine
 10
-8.46119176117878
 20
3.5
 11
-8.06749813645845
 21
3.03081420835811
  0
LINE
  5
A3
100
AcDbEntity
  8
0
  6
CONTINUOUS
 62
             7
100
AcDbLine
 10
-8.06749813645845
 20
3.03081420835811
 11
-8.70009787626928
 21
2.5
  0
LINE
  5
A2
100
AcDbEntity
  8
0
  6
CONTINUOUS
 62
             7
100
AcDbLine
 10
-8.70009787626928
 20
2.5
 11
-11.53880823882122
 21
2.5
  0
LINE
  5
A1
100
AcDbEntity
  8
0
  6
CONTINUOUS
 62
             7
100
AcDbLine
 10
-8.46119176117878
 20
3.5
 11
-11.29990212373072
 21
3.5
  0
LINE
  5
A0
100
AcDbEntity
  8
0
  6
CONTINUOUS
 62
             7
100
AcDbLine
 10
-11.29990212373072
 20
3.5
 11
-11.93250186354155
 21
2.96918579164189
  0
LINE
  5
9F
100
AcDbEntity
  8
0
  6
CONTINUOUS
 62
             7
100
AcDbLine
 10
-11.93250186354155
 20
2.96918579164189
 11
-11.53880823882122
 21
2.5
  0
LINE
  5
9E
100
AcDbEntity
  8
0
  6
CONTINUOUS
 62
             7
100
AcDbLine
 10
-12.08711525985194
 20
7.0
 11
-12.70822132078358
 21
3.47753248858406
  0
LINE
  5
9D
100
AcDbEntity
  8
0
  6
CONTINUOUS
 62
             7
100
AcDbLine
 10
-12.47622098752267
 20
2.83930309757837
 11
-11.9218304603807
 21
2.17860619515673
  0
LINE
  5
9C
100
AcDbEntity
  8
0
  6
CONTINUOUS
 62
             7
100
AcDbLine
 10
-12.47622098752267
 20
2.83930309757837
 11
-12.88058667304003
 21
2.5
  0
LINE
  5
9B
100
AcDbEntity
  8
0
  6
CONTINUOUS
 62
             7
100
AcDbLine
 10
-11.62129592857399
 20
3.88302222155949
 11
-12.45065248841743
 21
3.1871094380804
  0
LINE
  5
9A
100
AcDbEntity
  8
0
  6
CONTINUOUS
 62
             7
100
AcDbLine
 10
-12.45065248841743
 20
3.1871094380804
 11
-12.70822132078358
 21
3.47753248858406
  0
LINE
  5
99
100
AcDbEntity
  8
0
  6
CONTINUOUS
 62
             7
100
AcDbLine
 10
-8.0781695396193
 20
3.82139380484327
 11
-7.52377901247733
 21
3.16069690242163
  0
LINE
  5
98
100
AcDbEntity
  8
0
  6
CONTINUOUS
 62
             7
100
AcDbLine
 10
-8.0781695396193
 20
3.82139380484327
 11
-7.58523265823791
 21
6.61697777844051
  0
LINE
  5
97
100
AcDbEntity
  8
0
  6
CONTINUOUS
 62
             7
100
AcDbLine
 10
-8.37870407142601
 20
2.11697777844051
 11
-7.55459322083544
 21
2.80848888922026
  0
LINE
  5
96
100
AcDbEntity
  8
0
  6
CONTINUOUS
 62
             7
100
AcDbLine
 10
-7.55459322083544
 20
2.80848888922026
 11
-7.29574030766844
 21
2.5
  0
LINE
  5
95
100
AcDbEntity
  8
0
  6
CONTINUOUS
 62
             7
100
AcDbLine
 10
-12.41476734176209
 20
-0.61697777844051
 11
-13.23887819235266
 21
-1.30848888922026
  0
LINE
  5
94
100
AcDbEntity
  8
0
  6
CONTINUOUS
 62
             7
100
AcDbLine
 10
-12.41476734176209
 20
-0.61697777844051
 11
-11.9218304603807
 21
2.17860619515673
  0
LINE
  5
93
100
AcDbEntity
  8
0
  6
CONTINUOUS
 62
             7
100
AcDbLine
 10
-12.0933735369188
 20
-1.0
 11
-12.91748438750939
 21
-1.69151111077974
  0
LINE
  5
92
100
AcDbEntity
  8
0
  6
CONTINUOUS
 62
             7
100
AcDbLine
 10
-12.0933735369188
 20
-1.0
 11
-9.25466317436688
 21
-1.0
  0
LINE
  5
91
100
AcDbEntity
  8
0
  6
CONTINUOUS
 62
             7
100
AcDbLine
 10
-12.91748438750939
 20
-1.69151111077974
 11
-12.65863147434239
 21
-2.0
  0
LINE
  5
90
100
AcDbEntity
  8
0
  6
CONTINUOUS
 62
             7
100
AcDbLine
 10
-9.25466317436688
 20
-1.0
 11
-8.70027264722491
 21
-1.66069690242163
  0
LINE
  5
8F
100
AcDbEntity
  8
0
  6
CONTINUOUS
 62
             7
100
AcDbLine
 10
-8.87164095280738
 20
-0.67860619515673
 11
-8.31725042566542
 21
-1.33930309757837
  0
LINE
  5
8E
100
AcDbEntity
  8
0
  6
CONTINUOUS
 62
             7
100
AcDbLine
 10
-8.87164095280738
 20
-0.67860619515673
 11
-8.37870407142601
 21
2.11697777844051
  0
LINE
  5
8D
100
AcDbEntity
  8
0
  6
CONTINUOUS
 62
             7
100
AcDbLine
 10
-11.68274957433458
 20
7.33930309757837
 11
-11.12835904719262
 21
6.67860619515673
  0
LINE
  5
8C
100
AcDbEntity
  8
0
  6
CONTINUOUS
 62
             7
100
AcDbLine
 10
-11.12835904719262
 20
6.67860619515673
 11
-11.62129592857399
 21
3.88302222155949
  0
LINE
  5
8B
100
AcDbEntity
  8
0
  6
CONTINUOUS
 62
             7
100
AcDbLine
 10
-10.74533682563312
 20
7.0
 11
-11.29972735277509
 21
7.66069690242163
  0
LINE
  5
8A
100
AcDbEntity
  8
0
  6
CONTINUOUS
 62
             7
100
AcDbLine
 10
-10.74533682563312
 20
7.0
 11
-7.9066264630812
 21
7.0
  0
LINE
  5
89
100
AcDbEntity
  8
0
  6
CONTINUOUS
 62
             7
100
AcDbLine
 10
-7.9066264630812
 20
7.0
 11
-7.08251561249061
 21
7.69151111077974
  0
LINE
  5
88
100
AcDbEntity
  8
0
  6
CONTINUOUS
 62
             7
100
AcDbLine
 10
-7.08251561249061
 20
7.69151111077974
 11
-7.34136852565761
 21
8.0
  0
LINE
  5
87
100
AcDbEntity
  8
0
  6
CONTINUOUS
 62
             7
100
AcDbLine
 10
-6.76112180764734
 20
7.30848888922026
 11
-7.58523265823791
 21
6.61697777844051
  0
LINE
  5
86
100
AcDbEntity
  8
0
  6
CONTINUOUS
 62
             7
100
AcDbLine
 10
-6.76112180764734
 20
7.30848888922026
 11
-6.50226889448034
 21
7.0
  0
LINE
  5
85
100
AcDbEntity
  8
1
  6
CONTINUOUS
 62
             7
100
AcDbLine
 10
-1.0
 20
26.25
 11
-1.0
 21
29.75
  0
LINE
  5
84
100
AcDbEntity
  8
1
  6
CONTINUOUS
 62
             7
100
AcDbLine
 10
1.0
 20
26.25
 11
1.0
 21
29.75
  0
LINE
  5
83
100
AcDbEntity
  8
1
  6
CONTINUOUS
 62
             7
100
AcDbLine
 10
3.5
 20
-5.5
 11
-3.5
 21
-5.5
  0
LINE
  5
82
100
AcDbEntity
  8
1
  6
CONTINUOUS
 62
             7
100
AcDbLine
 10
4.5
 20
-13.5
 11
4.5
 21
-6.5
  0
LINE
  5
81
100
AcDbEntity
  8
1
  6
CONTINUOUS
 62
             7
100
AcDbLine
 10
-3.5
 20
-14.5
 11
3.5
 21
-14.5
  0
LINE
  5
80
100
AcDbEntity
  8
1
  6
CONTINUOUS
 62
             7
100
AcDbLine
 10
-4.5
 20
-6.5
 11
-4.5
 21
-13.5
  0
LINE
  5
7F
100
AcDbEntity
  8
1
  6
CONTINUOUS
 62
             7
100
AcDbLine
 10
3.0
 20
-11.5
 11
-3.0
 21
-11.5
  0
LINE
  5
7E
100
AcDbEntity
  8
1
  6
CONTINUOUS
 62
             7
100
AcDbLine
 10
0.0
 20
-7.92473922221737
 11
3.0
 21
-11.5
  0
LINE
  5
7D
100
AcDbEntity
  8
1
  6
CONTINUOUS
 62
             7
100
AcDbLine
 10
-3.0
 20
-11.5
 11
0.0
 21
-7.92473922221737
  0
LINE
  5
7C
100
AcDbEntity
  8
1
  6
CONTINUOUS
 62
             7
100
AcDbLine
 10
7.0
 20
-11.5
 11
10.0
 21
-7.92473922221737
  0
LINE
  5
7B
100
AcDbEntity
  8
1
  6
CONTINUOUS
 62
             7
100
AcDbLine
 10
10.0
 20
-7.92473922221737
 11
13.0
 21
-11.5
  0
LINE
  5
7A
100
AcDbEntity
  8
1
  6
CONTINUOUS
 62
             7
100
AcDbLine
 10
13.0
 20
-11.5
 11
7.0
 21
-11.5
  0
LINE
  5
79
100
AcDbEntity
  8
1
  6
CONTINUOUS
 62
             7
100
AcDbLine
 10
5.5
 20
-6.5
 11
5.5
 21
-13.5
  0
LINE
  5
78
100
AcDbEntity
  8
1
  6
CONTINUOUS
 62
             7
100
AcDbLine
 10
6.5
 20
-14.5
 11
13.5
 21
-14.5
  0
LINE
  5
77
100
AcDbEntity
  8
1
  6
CONTINUOUS
 62
             7
100
AcDbLine
 10
14.5
 20
-13.5
 11
14.5
 21
-6.5
  0
LINE
  5
76
100
AcDbEntity
  8
1
  6
CONTINUOUS
 62
             7
100
AcDbLine
 10
13.5
 20
-5.5
 11
6.5
 21
-5.5
  0
LINE
  5
75
100
AcDbEntity
  8
1
  6
CONTINUOUS
 62
             7
100
AcDbLine
 10
-13.0
 20
-11.5
 11
-10.0
 21
-7.92473922221737
  0
LINE
  5
74
100
AcDbEntity
  8
1
  6
CONTINUOUS
 62
             7
100
AcDbLine
 10
-10.0
 20
-7.92473922221737
 11
-7.0
 21
-11.5
  0
LINE
  5
73
100
AcDbEntity
  8
1
  6
CONTINUOUS
 62
             7
100
AcDbLine
 10
-7.0
 20
-11.5
 11
-13.0
 21
-11.5
  0
LINE
  5
72
100
AcDbEntity
  8
1
  6
CONTINUOUS
 62
             7
100
AcDbLine
 10
-14.5
 20
-6.5
 11
-14.5
 21
-13.5
  0
LINE
  5
71
100
AcDbEntity
  8
1
  6
CONTINUOUS
 62
             7
100
AcDbLine
 10
-13.5
 20
-14.5
 11
-6.5
 21
-14.5
  0
LINE
  5
70
100
AcDbEntity
  8
1
  6
CONTINUOUS
 62
             7
100
AcDbLine
 10
-5.5
 20
-13.5
 11
-5.5
 21
-6.5
  0
LINE
  5
6F
100
AcDbEntity
  8
1
  6
CONTINUOUS
 62
             7
100
AcDbLine
 10
-6.5
 20
-5.5
 11
-13.5
 21
-5.5
  0
LINE
  5
6E
100
AcDbEntity
  8
1
  6
CONTINUOUS
 62
             7
100
AcDbLine
 10
-12.0
 20
26.25
 11
12.0
 21
26.25
  0
LINE
  5
6D
100
AcDbEntity
  8
1
  6
CONTINUOUS
 62
             7
100
AcDbLine
 10
12.5
 20
26.75
 11
12.5
 21
29.25
  0
LINE
  5
6C
100
AcDbEntity
  8
1
  6
CONTINUOUS
 62
             7
100
AcDbLine
 10
12.0
 20
29.75
 11
-12.0
 21
29.75
  0
LINE
  5
6B
100
AcDbEntity
  8
1
  6
CONTINUOUS
 62
             7
100
AcDbLine
 10
-12.5
 20
29.25
 11
-12.5
 21
26.75
  0
LINE
  5
6A
100
AcDbEntity
  8
1
  6
CONTINUOUS
 62
             7
100
AcDbLine
 10
-0.25
 20
30.75
 11
0.25
 21
30.75
  0
LINE
  5
69
100
AcDbEntity
  8
1
  6
CONTINUOUS
 62
             7
100
AcDbLine
 10
0.25
 20
30.75
 11
0.25
 21
32.75
  0
LINE
  5
68
100
AcDbEntity
  8
1
  6
CONTINUOUS
 62
             7
100
AcDbLine
 10
0.25
 20
32.75
 11
-0.25
 21
32.75
  0
LINE
  5
67
100
AcDbEntity
  8
1
  6
CONTINUOUS
 62
             7
100
AcDbLine
 10
-0.25
 20
32.75
 11
-0.25
 21
30.75
  0
LINE
  5
66
100
AcDbEntity
  8
1
  6
CONTINUOUS
 62
             7
100
AcDbLine
 10
-4.65
 20
32.75
 11
-4.65
 21
30.75
  0
LINE
  5
65
100
AcDbEntity
  8
1
  6
CONTINUOUS
 62
             7
100
AcDbLine
 10
-4.15
 20
32.75
 11
-4.65
 21
32.75
  0
LINE
  5
64
100
AcDbEntity
  8
1
  6
CONTINUOUS
 62
             7
100
AcDbLine
 10
-4.15
 20
30.75
 11
-4.15
 21
32.75
  0
LINE
  5
63
100
AcDbEntity
  8
1
  6
CONTINUOUS
 62
             7
100
AcDbLine
 10
-4.65
 20
30.75
 11
-4.15
 21
30.75
  0
LINE
  5
62
100
AcDbEntity
  8
1
  6
CONTINUOUS
 62
             7
100
AcDbLine
 10
-9.05
 20
30.75
 11
-8.55
 21
30.75
  0
LINE
  5
61
100
AcDbEntity
  8
1
  6
CONTINUOUS
 62
             7
100
AcDbLine
 10
-8.55
 20
30.75
 11
-8.55
 21
32.75
  0
LINE
  5
60
100
AcDbEntity
  8
1
  6
CONTINUOUS
 62
             7
100
AcDbLine
 10
-8.55
 20
32.75
 11
-9.05
 21
32.75
  0
LINE
  5
5F
100
AcDbEntity
  8
1
  6
CONTINUOUS
 62
             7
100
AcDbLine
 10
-9.05
 20
32.75
 11
-9.05
 21
30.75
  0
LINE
  5
5E
100
AcDbEntity
  8
1
  6
CONTINUOUS
 62
             7
100
AcDbLine
 10
9.05
 20
30.75
 11
9.05
 21
32.75
  0
LINE
  5
5D
100
AcDbEntity
  8
1
  6
CONTINUOUS
 62
             7
100
AcDbLine
 10
9.05
 20
32.75
 11
8.55
 21
32.75
  0
LINE
  5
5C
100
AcDbEntity
  8
1
  6
CONTINUOUS
 62
             7
100
AcDbLine
 10
8.55
 20
32.75
 11
8.55
 21
30.75
  0
LINE
  5
5B
100
AcDbEntity
  8
1
  6
CONTINUOUS
 62
             7
100
AcDbLine
 10
8.55
 20
30.75
 11
9.05
 21
30.75
  0
LINE
  5
5A
100
AcDbEntity
  8
1
  6
CONTINUOUS
 62
             7
100
AcDbLine
 10
4.15
 20
30.75
 11
4.65
 21
30.75
  0
LINE
  5
59
100
AcDbEntity
  8
1
  6
CONTINUOUS
 62
             7
100
AcDbLine
 10
4.15
 20
32.75
 11
4.15
 21
30.75
  0
LINE
  5
58
100
AcDbEntity
  8
1
  6
CONTINUOUS
 62
             7
100
AcDbLine
 10
4.65
 20
32.75
 11
4.15
 21
32.75
  0
LINE
  5
57
100
AcDbEntity
  8
1
  6
CONTINUOUS
 62
             7
100
AcDbLine
 10
4.65
 20
30.75
 11
4.65
 21
32.75
  0
LINE
  5
56
100
AcDbEntity
  8
1
  6
CONTINUOUS
 62
             7
100
AcDbLine
 10
-22.5
 20
17.0
 11
22.5
 21
17.0
  0
LINE
  5
55
100
AcDbEntity
  8
1
  6
CONTINUOUS
 62
             7
100
AcDbLine
 10
-22.5
 20
37.0
 11
22.5
 21
37.0
  0
LINE
  5
54
100
AcDbEntity
  8
1
  6
CONTINUOUS
 62
             7
100
AcDbLine
 10
-14.5
 20
-3.0
 11
14.5
 21
-3.0
  0
LINE
  5
53
100
AcDbEntity
  8
1
  6
CONTINUOUS
 62
             7
100
AcDbLine
 10
15.0
 20
-2.5
 11
15.0
 21
8.5
  0
LINE
  5
52
100
AcDbEntity
  8
1
  6
CONTINUOUS
 62
             7
100
AcDbLine
 10
14.5
 20
9.0
 11
-14.5
 21
9.0
  0
LINE
  5
51
100
AcDbEntity
  8
1
  6
CONTINUOUS
 62
             7
100
AcDbLine
 10
-15.0
 20
8.5
 11
-15.0
 21
-2.5
  0
LINE
  5
50
100
AcDbEntity
  8
1
  6
CONTINUOUS
 62
             7
100
AcDbLine
 10
-3.5
 20
-24.5
 11
3.5
 21
-24.5
  0
LINE
  5
4F
100
AcDbEntity
  8
1
  6
CONTINUOUS
 62
             7
100
AcDbLine
 10
4.5
 20
-23.5
 11
4.5
 21
-16.5
  0
LINE
  5
4E
100
AcDbEntity
  8
1
  6
CONTINUOUS
 62
             7
100
AcDbLine
 10
3.5
 20
-15.5
 11
-3.5
 21
-15.5
  0
LINE
  5
4D
100
AcDbEntity
  8
1
  6
CONTINUOUS
 62
             7
100
AcDbLine
 10
-4.5
 20
-16.5
 11
-4.5
 21
-23.5
  0
LINE
  5
4C
100
AcDbEntity
  8
1
  6
CONTINUOUS
 62
             7
100
AcDbLine
 10
-3.0
 20
-18.5
 11
3.0
 21
-18.5
  0
LINE
  5
4B
100
AcDbEntity
  8
1
  6
CONTINUOUS
 62
             7
100
AcDbLine
 10
3.0
 20
-18.5
 11
0.0
 21
-22.07526077778263
  0
LINE
  5
4A
100
AcDbEntity
  8
1
  6
CONTINUOUS
 62
             7
100
AcDbLine
 10
0.0
 20
-22.07526077778263
 11
-3.0
 21
-18.5
  0
LINE
  5
49
100
AcDbEntity
  8
1
  6
CONTINUOUS
 62
             7
100
AcDbLine
 10
10.0
 20
-22.07526077778263
 11
7.0
 21
-18.5
  0
LINE
  5
48
100
AcDbEntity
  8
1
  6
CONTINUOUS
 62
             7
100
AcDbLine
 10
13.0
 20
-18.5
 11
10.0
 21
-22.07526077778263
  0
LINE
  5
47
100
AcDbEntity
  8
1
  6
CONTINUOUS
 62
             7
100
AcDbLine
 10
7.0
 20
-18.5
 11
13.0
 21
-18.5
  0
LINE
  5
46
100
AcDbEntity
  8
1
  6
CONTINUOUS
 62
             7
100
AcDbLine
 10
5.5
 20
-16.5
 11
5.5
 21
-23.5
  0
LINE
  5
45
100
AcDbEntity
  8
1
  6
CONTINUOUS
 62
             7
100
AcDbLine
 10
13.5
 20
-15.5
 11
6.5
 21
-15.5
  0
LINE
  5
44
100
AcDbEntity
  8
1
  6
CONTINUOUS
 62
             7
100
AcDbLine
 10
14.5
 20
-23.5
 11
14.5
 21
-16.5
  0
LINE
  5
43
100
AcDbEntity
  8
1
  6
CONTINUOUS
 62
             7
100
AcDbLine
 10
6.5
 20
-24.5
 11
13.5
 21
-24.5
  0
LINE
  5
42
100
AcDbEntity
  8
1
  6
CONTINUOUS
 62
             7
100
AcDbLine
 10
-10.0
 20
-22.07526077778263
 11
-13.0
 21
-18.5
  0
LINE
  5
41
100
AcDbEntity
  8
1
  6
CONTINUOUS
 62
             7
100
AcDbLine
 10
-7.0
 20
-18.5
 11
-10.0
 21
-22.07526077778263
  0
LINE
  5
40
100
AcDbEntity
  8
1
  6
CONTINUOUS
 62
             7
100
AcDbLine
 10
-13.0
 20
-18.5
 11
-7.0
 21
-18.5
  0
LINE
  5
3F
100
AcDbEntity
  8
1
  6
CONTINUOUS
 62
             7
100
AcDbLine
 10
-14.5
 20
-16.5
 11
-14.5
 21
-23.5
  0
LINE
  5
3E
100
AcDbEntity
  8
1
  6
CONTINUOUS
 62
             7
100
AcDbLine
 10
-6.5
 20
-15.5
 11
-13.5
 21
-15.5
  0
LINE
  5
3D
100
AcDbEntity
  8
1
  6
CONTINUOUS
 62
             7
100
AcDbLine
 10
-5.5
 20
-23.5
 11
-5.5
 21
-16.5
  0
LINE
  5
3C
100
AcDbEntity
  8
1
  6
CONTINUOUS
 62
             7
100
AcDbLine
 10
-13.5
 20
-24.5
 11
-6.5
 21
-24.5
  0
LINE
  5
3B
100
AcDbEntity
  8
1
  6
CONTINUOUS
 62
             7
100
AcDbLine
 10
9.0
 20
20.5
 11
9.0
 21
19.5
  0
LINE
  5
3A
100
AcDbEntity
  8
1
  6
CONTINUOUS
 62
             7
100
AcDbLine
 10
12.5
 20
21.0
 11
9.5
 21
21.0
  0
LINE
  5
39
100
AcDbEntity
  8
1
  6
CONTINUOUS
 62
             7
100
AcDbLine
 10
13.0
 20
19.5
 11
13.0
 21
20.5
  0
LINE
  5
38
100
AcDbEntity
  8
1
  6
CONTINUOUS
 62
             7
100
AcDbLine
 10
9.5
 20
19.0
 11
12.5
 21
19.0
  0
LINE
  5
37
100
AcDbEntity
  8
1
  6
CONTINUOUS
 62
             7
100
AcDbLine
 10
-12.5
 20
19.0
 11
-9.5
 21
19.0
  0
LINE
  5
36
100
AcDbEntity
  8
1
  6
CONTINUOUS
 62
             7
100
AcDbLine
 10
-9.0
 20
19.5
 11
-9.0
 21
20.5
  0
LINE
  5
35
100
AcDbEntity
  8
1
  6
CONTINUOUS
 62
             7
100
AcDbLine
 10
-9.5
 20
21.0
 11
-12.5
 21
21.0
  0
LINE
  5
34
100
AcDbEntity
  8
1
  6
CONTINUOUS
 62
             7
100
AcDbLine
 10
-13.0
 20
20.5
 11
-13.0
 21
19.5
  0
LINE
  5
33
100
AcDbEntity
  8
1
  6
CONTINUOUS
 62
             7
100
AcDbLine
 10
-13.5
 20
-34.5
 11
-6.5
 21
-34.5
  0
LINE
  5
32
100
AcDbEntity
  8
1
  6
CONTINUOUS
 62
             7
100
AcDbLine
 10
-5.5
 20
-33.5
 11
-5.5
 21
-26.5
  0
LINE
  5
31
100
AcDbEntity
  8
1
  6
CONTINUOUS
 62
             7
100
AcDbLine
 10
-6.5
 20
-25.5
 11
-13.5
 21
-25.5
  0
LINE
  5
30
100
AcDbEntity
  8
1
  6
CONTINUOUS
 62
             7
100
AcDbLine
 10
-14.5
 20
-26.5
 11
-14.5
 21
-33.5
  0
LINE
  5
2F
100
AcDbEntity
  8
1
  6
CONTINUOUS
 62
             7
100
AcDbLine
 10
-4.5
 20
-26.5
 11
-4.5
 21
-33.5
  0
LINE
  5
2E
100
AcDbEntity
  8
1
  6
CONTINUOUS
 62
             7
100
AcDbLine
 10
3.5
 20
-25.5
 11
-3.5
 21
-25.5
  0
LINE
  5
2D
100
AcDbEntity
  8
1
  6
CONTINUOUS
 62
             7
100
AcDbLine
 10
4.5
 20
-33.5
 11
4.5
 21
-26.5
  0
LINE
  5
2C
100
AcDbEntity
  8
1
  6
CONTINUOUS
 62
             7
100
AcDbLine
 10
-3.5
 20
-34.5
 11
3.5
 21
-34.5
  0
LINE
  5
2B
100
AcDbEntity
  8
1
  6
CONTINUOUS
 62
             7
100
AcDbLine
 10
-1.5
 20
19.0
 11
1.5
 21
19.0
  0
LINE
  5
2A
100
AcDbEntity
  8
1
  6
CONTINUOUS
 62
             7
100
AcDbLine
 10
2.0
 20
19.5
 11
2.0
 21
20.5
  0
LINE
  5
29
100
AcDbEntity
  8
1
  6
CONTINUOUS
 62
             7
100
AcDbLine
 10
1.5
 20
21.0
 11
-1.5
 21
21.0
  0
LINE
  5
28
100
AcDbEntity
  8
1
  6
CONTINUOUS
 62
             7
100
AcDbLine
 10
-2.0
 20
20.5
 11
-2.0
 21
19.5
  0
ENDSEC
  0
SECTION
  2
OBJECTS
  0
DICTIONARY
  5
19
100
AcDbDictionary
  3
ACAD_GROUP
350
1A
  3
ACAD_MLINESTYLE
350
1B
  0
DICTIONARY
  5
1A
102
{ACAD_REACTORS
330
19
102
}
100
AcDbDictionary
  0
DICTIONARY
  5
1B
102
{ACAD_REACTORS
330
19
102
}
100
AcDbDictionary
  3
STANDARD
350
1C
  0
MLINESTYLE
  5
1C
102
{ACAD_REACTORS
330
1B
102
}
100
AcDbMlineStyle
  2
STANDARD
 70
             0
  3

 62
             0
 51
90.0
 52
90.0
 71
             2
 49
0.5
 62
           256
  6
BYLAYER
 49
-0.5
 62
           256
  6
BYLAYER
  0
ENDSEC
  0
EOF
