  0
SECTION
  2
HEADER
  9
$ACADVER
  1
AC1009
  9
$DWGCODEPAGE
  3
ansi_1252
  9
$INSBASE
 10
0.0
 20
0.0
 30
0.0
  9
$EXTMIN
 10
-11.30000000000004
 20
-72.5
 30
0.0
  9
$EXTMAX
 10
212.9999999999961
 20
13.96271351926252
 30
0.0
  9
$LIMMIN
 10
0.0
 20
0.0
  9
$LIMMAX
 10
12.0
 20
9.0
  9
$ORTHOMODE
 70
     0
  9
$REGENMODE
 70
     1
  9
$FILLMODE
 70
     1
  9
$QTEXTMODE
 70
     0
  9
$MIRRTEXT
 70
     1
  9
$DRAGMODE
 70
     2
  9
$LTSCALE
 40
1.0
  9
$OSMODE
 70
    37
  9
$ATTMODE
 70
     1
  9
$TEXTSIZE
 40
0.2
  9
$TRACEWID
 40
0.05
  9
$TEXTSTYLE
  7
STANDARD
  9
$CLAYER
  8
0
  9
$CELTYPE
  6
BYLAYER
  9
$CECOLOR
 62
   256
  9
$DIMSCALE
 40
1.0
  9
$DIMASZ
 40
0.18
  9
$DIMEXO
 40
0.0625
  9
$DIMDLI
 40
0.38
  9
$DIMRND
 40
0.0
  9
$DIMDLE
 40
0.0
  9
$DIMEXE
 40
0.18
  9
$DIMTP
 40
0.0
  9
$DIMTM
 40
0.0
  9
$DIMTXT
 40
0.18
  9
$DIMCEN
 40
0.09
  9
$DIMTSZ
 40
0.0
  9
$DIMTOL
 70
     0
  9
$DIMLIM
 70
     0
  9
$DIMTIH
 70
     1
  9
$DIMTOH
 70
     1
  9
$DIMSE1
 70
     0
  9
$DIMSE2
 70
     0
  9
$DIMTAD
 70
     0
  9
$DIMZIN
 70
     0
  9
$DIMBLK
  1

  9
$DIMASO
 70
     1
  9
$DIMSHO
 70
     1
  9
$DIMPOST
  1

  9
$DIMAPOST
  1

  9
$DIMALT
 70
     0
  9
$DIMALTD
 70
     2
  9
$DIMALTF
 40
25.4
  9
$DIMLFAC
 40
1.0
  9
$DIMTOFL
 70
     0
  9
$DIMTVP
 40
0.0
  9
$DIMTIX
 70
     0
  9
$DIMSOXD
 70
     0
  9
$DIMSAH
 70
     0
  9
$DIMBLK1
  1

  9
$DIMBLK2
  1

  9
$DIMSTYLE
  2
STANDARD
  9
$DIMCLRD
 70
     0
  9
$DIMCLRE
 70
     0
  9
$DIMCLRT
 70
     0
  9
$DIMTFAC
 40
1.0
  9
$DIMGAP
 40
0.09
  9
$LUNITS
 70
     2
  9
$LUPREC
 70
     4
  9
$SKETCHINC
 40
0.1
  9
$FILLETRAD
 40
0.5
  9
$AUNITS
 70
     0
  9
$AUPREC
 70
     0
  9
$MENU
  1
.
  9
$ELEVATION
 40
0.0
  9
$PELEVATION
 40
0.0
  9
$THICKNESS
 40
0.0
  9
$LIMCHECK
 70
     0
  9
$CHAMFERA
 40
0.5
  9
$CHAMFERB
 40
0.5
  9
$SKPOLY
 70
     0
  9
$TDCREATE
 40
2456632.570212662
  9
$TDUPDATE
 40
2456632.570214746
  9
$TDINDWG
 40
0.0000000116
  9
$TDUSRTIMER
 40
0.0000000116
  9
$USRTIMER
 70
     1
  9
$ANGBASE
 50
0.0
  9
$ANGDIR
 70
     0
  9
$PDMODE
 70
     0
  9
$PDSIZE
 40
0.0
  9
$PLINEWID
 40
0.0
  9
$COORDS
 70
     1
  9
$SPLFRAME
 70
     0
  9
$SPLINETYPE
 70
     6
  9
$SPLINESEGS
 70
     8
  9
$ATTDIA
 70
     0
  9
$ATTREQ
 70
     1
  9
$HANDLING
 70
     1
  9
$HANDSEED
  5
197
  9
$SURFTAB1
 70
     6
  9
$SURFTAB2
 70
     6
  9
$SURFTYPE
 70
     6
  9
$SURFU
 70
     6
  9
$SURFV
 70
     6
  9
$UCSNAME
  2

  9
$UCSORG
 10
0.0
 20
0.0
 30
0.0
  9
$UCSXDIR
 10
1.0
 20
0.0
 30
0.0
  9
$UCSYDIR
 10
0.0
 20
1.0
 30
0.0
  9
$PUCSNAME
  2

  9
$PUCSORG
 10
0.0
 20
0.0
 30
0.0
  9
$PUCSXDIR
 10
1.0
 20
0.0
 30
0.0
  9
$PUCSYDIR
 10
0.0
 20
1.0
 30
0.0
  9
$USERI1
 70
     0
  9
$USERI2
 70
     0
  9
$USERI3
 70
     0
  9
$USERI4
 70
     0
  9
$USERI5
 70
     0
  9
$USERR1
 40
18.1
  9
$USERR2
 40
0.0
  9
$USERR3
 40
0.0
  9
$USERR4
 40
0.0
  9
$USERR5
 40
0.0
  9
$WORLDVIEW
 70
     1
  9
$SHADEDGE
 70
     3
  9
$SHADEDIF
 70
    70
  9
$TILEMODE
 70
     1
  9
$MAXACTVP
 70
    64
  9
$PLIMCHECK
 70
     0
  9
$PEXTMIN
 10
1.00000000000000E+20
 20
1.00000000000000E+20
 30
1.00000000000000E+20
  9
$PEXTMAX
 10
-1.00000000000000E+20
 20
-1.00000000000000E+20
 30
-1.00000000000000E+20
  9
$PLIMMIN
 10
0.0
 20
0.0
  9
$PLIMMAX
 10
12.0
 20
9.0
  9
$UNITMODE
 70
     0
  9
$VISRETAIN
 70
     1
  9
$PLINEGEN
 70
     0
  9
$PSLTSCALE
 70
     1
  0
ENDSEC
  0
SECTION
  2
TABLES
  0
TABLE
  2
VPORT
 70
     1
  0
VPORT
  2
*ACTIVE
 70
     0
 10
0.0
 20
0.0
 11
1.0
 21
1.0
 12
100.849999999998
 22
-29.26864324036874
 13
0.0
 23
0.0
 14
0.5
 24
0.5
 15
0.5
 25
0.5
 16
0.0
 26
0.0
 36
1.0
 17
0.0
 27
0.0
 37
0.0
 40
153.9485236768776
 41
1.60267857142857
 42
50.0
 43
0.0
 44
0.0
 50
0.0
 51
0.0
 71
     0
 72
   100
 73
     1
 74
     3
 75
     0
 76
     0
 77
     0
 78
     0
  0
ENDTAB
  0
TABLE
  2
LTYPE
 70
     8
  0
LTYPE
  2
CONTINUOUS
 70
     0
  3
Solid line
 72
    65
 73
     0
 40
0.0
  0
LTYPE
  2
DASHED
 70
     0
  3
Dashed
 72
    65
 73
     2
 40
15.0
 49
7.0
 49
-8.0
  0
LTYPE
  2
DOTTED
 70
     0
  3
Dotted
 72
    65
 73
     2
 40
1.0
 49
0.0
 49
-1.0
  0
LTYPE
  2
DOT_CENTER
 70
     0
  3
Dot_Center
 72
    65
 73
     4
 40
14.0
 49
12.0
 49
-1.0
 49
0.0
 49
-1.0
  0
LTYPE
  2
LONG_DASHED
 70
     0
  3
Long_Dashed
 72
    65
 73
     2
 40
15.0
 49
10.0
 49
-5.0
  0
LTYPE
  2
DASH_CENTER
 70
     0
  3
Dash_Center
 72
    65
 73
     4
 40
14.0
 49
11.0
 49
-1.0
 49
1.0
 49
-1.0
  0
LTYPE
  2
PHANTOM
 70
     0
  3
Phantom
 72
    65
 73
     6
 40
13.0
 49
10.0
 49
-1.0
 49
0.0
 49
-1.0
 49
0.0
 49
-1.0
  0
LTYPE
  2
CENTER_DASH_DASH
 70
     0
  3
Center_Dash_Dash
 72
    65
 73
     6
 40
14.0
 49
9.0
 49
-1.0
 49
1.0
 49
-1.0
 49
1.0
 49
-1.0
  0
ENDTAB
  0
TABLE
  2
LAYER
 70
     3
  0
LAYER
  2
0
 70
     0
 62
     7
  6
CONTINUOUS
  0
LAYER
  2
1
 70
     0
 62
     7
  6
CONTINUOUS
  0
LAYER
  2
EL
 70
     0
 62
     7
  6
CONTINUOUS
  0
ENDTAB
  0
TABLE
  2
STYLE
 70
     1
  0
STYLE
  2
STANDARD
 70
     0
 40
0.0
 41
1.0
 50
0.0
 71
     0
 42
0.2
  3
txt
  4

  0
ENDTAB
  0
TABLE
  2
VIEW
 70
     0
  0
ENDTAB
  0
TABLE
  2
UCS
 70
     0
  0
ENDTAB
  0
TABLE
  2
APPID
 70
     1
  0
APPID
  2
ACAD
 70
     0
  0
ENDTAB
  0
TABLE
  2
DIMSTYLE
 70
     1
  0
DIMSTYLE
  2
STANDARD
 70
     0
  3

  4

  5

  6

  7

 40
1.0
 41
0.18
 42
0.0625
 43
0.38
 44
0.18
 45
0.0
 46
0.0
 47
0.0
 48
0.0
140
0.18
141
0.09
142
0.0
143
25.4
144
1.0
145
0.0
146
1.0
147
0.09
 71
     0
 72
     0
 73
     1
 74
     1
 75
     0
 76
     0
 77
     0
 78
     0
170
     0
171
     2
172
     0
173
     0
174
     0
175
     0
176
     0
177
     0
178
     0
  0
ENDTAB
  0
ENDSEC
  0
SECTION
  2
BLOCKS
  0
BLOCK
  8
0
  2
$MODEL_SPACE
 70
     0
 10
0.0
 20
0.0
 30
0.0
  3
$MODEL_SPACE
  1

  0
ENDBLK
  5
21
  8
0
  0
BLOCK
 67
     1
  8
0
  2
$PAPER_SPACE
 70
     0
 10
0.0
 20
0.0
 30
0.0
  3
$PAPER_SPACE
  1

  0
ENDBLK
  5
1D
 67
     1
  8
0
  0
ENDSEC
  0
SECTION
  2
ENTITIES
  0
POINT
  5
48
  8
0
 62
     7
 10
122.9999999999961
 20
-3.99900000000101
 30
0.0
  0
POINT
  5
49
  8
0
 62
     7
 10
122.986304738417
 20
-5.76132115816901
 30
0.0
  0
POINT
  5
4A
  8
0
 62
     7
 10
20.0
 20
-7.40000000000003
 30
0.0
  0
POINT
  5
4B
  8
0
 62
     7
 10
31.99999999999609
 20
-9.00000000000003
 30
0.0
  0
POINT
  5
4C
  8
0
 62
     7
 10
20.0
 20
-7.40000000000003
 30
0.0
  0
POINT
  5
4D
  8
0
 62
     7
 10
9.30000000000004
 20
0.0
 30
0.0
  0
POINT
  5
4E
  8
0
 62
     7
 10
-9.30000000000004
 20
0.0
 30
0.0
  0
LINE
  5
4F
  8
1
  6
DOT_CENTER
 62
     2
 10
54.0
 20
-60.0
 30
0.0
 11
66.0
 21
-60.0
 31
0.0
  0
LINE
  5
50
  8
1
  6
DOT_CENTER
 62
     2
 10
26.0
 20
-72.5
 30
0.0
 11
26.0
 21
-47.5
 31
0.0
  0
LINE
  5
51
  8
1
  6
DOT_CENTER
 62
     2
 10
15.0
 20
-60.0
 30
0.0
 11
37.0
 21
-60.0
 31
0.0
  0
LINE
  5
52
  8
1
  6
CONTINUOUS
 62
     7
 10
63.0
 20
-54.59167308680402
 30
0.0
 11
63.0
 21
-49.5
 31
0.0
  0
LINE
  5
53
  8
1
  6
CONTINUOUS
 62
     7
 10
57.0
 20
-54.59167308680402
 30
0.0
 11
57.0
 21
-49.5
 31
0.0
  0
LINE
  5
54
  8
1
  6
CONTINUOUS
 62
     7
 10
63.0
 20
-70.5
 30
0.0
 11
63.0
 21
-65.40832691319598
 31
0.0
  0
LINE
  5
55
  8
1
  6
CONTINUOUS
 62
     7
 10
57.0
 20
-70.5
 30
0.0
 11
57.0
 21
-65.40832691319598
 31
0.0
  0
LINE
  5
56
  8
1
  6
CONTINUOUS
 62
     7
 10
63.0
 20
-65.40832691319598
 30
0.0
 11
64.0
 21
-63.04138126514911
 31
0.0
  0
LINE
  5
57
  8
1
  6
CONTINUOUS
 62
     7
 10
57.0
 20
-65.40832691319598
 30
0.0
 11
63.0
 21
-65.40832691319598
 31
0.0
  0
LINE
  5
58
  8
1
  6
CONTINUOUS
 62
     7
 10
56.0
 20
-63.04138126514911
 30
0.0
 11
57.0
 21
-65.40832691319598
 31
0.0
  0
LINE
  5
59
  8
1
  6
CONTINUOUS
 62
     7
 10
63.0
 20
-54.59167308680402
 30
0.0
 11
64.0
 21
-56.95861873485089
 31
0.0
  0
LINE
  5
5A
  8
1
  6
CONTINUOUS
 62
     7
 10
57.0
 20
-54.59167308680402
 30
0.0
 11
63.0
 21
-54.59167308680402
 31
0.0
  0
LINE
  5
5B
  8
1
  6
CONTINUOUS
 62
     7
 10
56.0
 20
-56.95861873485089
 30
0.0
 11
57.0
 21
-54.59167308680402
 31
0.0
  0
LINE
  5
5C
  8
1
  6
CONTINUOUS
 62
     7
 10
64.0
 20
-69.5
 30
0.0
 11
63.0
 21
-70.5
 31
0.0
  0
LINE
  5
5D
  8
1
  6
CONTINUOUS
 62
     7
 10
56.0
 20
-69.5
 30
0.0
 11
57.0
 21
-70.5
 31
0.0
  0
LINE
  5
5E
  8
1
  6
CONTINUOUS
 62
     7
 10
63.0
 20
-49.5
 30
0.0
 11
64.0
 21
-50.5
 31
0.0
  0
LINE
  5
5F
  8
1
  6
CONTINUOUS
 62
     7
 10
56.0
 20
-50.5
 30
0.0
 11
57.0
 21
-49.5
 31
0.0
  0
LINE
  5
60
  8
1
  6
CONTINUOUS
 62
     7
 10
56.0
 20
-50.5
 30
0.0
 11
56.0
 21
-69.5
 31
0.0
  0
LINE
  5
61
  8
1
  6
CONTINUOUS
 62
     7
 10
63.0
 20
-49.5
 30
0.0
 11
57.0
 21
-49.5
 31
0.0
  0
LINE
  5
62
  8
1
  6
CONTINUOUS
 62
     7
 10
64.0
 20
-69.5
 30
0.0
 11
64.0
 21
-50.5
 31
0.0
  0
LINE
  5
63
  8
1
  6
CONTINUOUS
 62
     7
 10
57.0
 20
-70.5
 30
0.0
 11
63.0
 21
-70.5
 31
0.0
  0
LINE
  5
64
  8
1
  6
CONTINUOUS
 62
     7
 10
35.0
 20
-54.59167308680402
 30
0.0
 11
35.0
 21
-65.40832691319598
 31
0.0
  0
LINE
  5
65
  8
1
  6
CONTINUOUS
 62
     7
 10
17.0
 20
-65.40832691319598
 30
0.0
 11
17.0
 21
-54.59167308680402
 31
0.0
  0
LINE
  5
66
  8
1
  6
DOT_CENTER
 62
     2
 10
0.0
 20
-11.30000000000004
 30
0.0
 11
0.0
 21
11.30000000000004
 31
0.0
  0
LINE
  5
67
  8
1
  6
DOT_CENTER
 62
     2
 10
-11.30000000000004
 20
0.0
 30
0.0
 11
11.30000000000004
 21
0.0
 31
0.0
  0
LINE
  5
68
  8
1
  6
CONTINUOUS
 62
     7
 10
106.9999999999961
 20
-5.61
 30
0.0
 11
103.4999999999961
 21
-5.61
 31
0.0
  0
LINE
  5
69
  8
1
  6
CONTINUOUS
 62
     7
 10
103.4999999999961
 20
-4.36
 30
0.0
 11
106.9999999999961
 21
-4.36
 31
0.0
  0
LINE
  5
6A
  8
1
  6
CONTINUOUS
 62
     7
 10
106.9999999999961
 20
4.36
 30
0.0
 11
103.4999999999961
 21
4.36
 31
0.0
  0
LINE
  5
6B
  8
1
  6
CONTINUOUS
 62
     7
 10
103.4999999999961
 20
5.61
 30
0.0
 11
106.9999999999961
 21
5.61
 31
0.0
  0
LINE
  5
6C
  8
1
  6
DOT_CENTER
 62
     2
 10
18.0
 20
0.0
 30
0.0
 11
172.999999999996
 21
0.0
 31
0.0
  0
LINE
  5
6D
  8
1
  6
CONTINUOUS
 62
     2
 10
173.4965973896746
 20
-0.5
 30
0.0
 11
210.4850987884347
 21
-13.96271351926252
 31
0.0
  0
LINE
  5
6E
  8
1
  6
CONTINUOUS
 62
     2
 10
175.2508800297724
 20
-0.5
 30
0.0
 11
210.6903108744301
 21
-13.39889794679098
 31
0.0
  0
LINE
  5
6F
  8
1
  6
CONTINUOUS
 62
     2
 10
210.4850987884347
 20
-13.96271351926252
 30
0.0
 11
210.6903108744301
 21
-13.39889794679098
 31
0.0
  0
LINE
  5
70
  8
1
  6
CONTINUOUS
 62
     7
 10
175.8356409098049
 20
0.5
 30
0.0
 11
182.567936279518
 21
2.95035512286373
 31
0.0
  0
LINE
  5
71
  8
1
  6
CONTINUOUS
 62
     7
 10
182.2259161361923
 20
3.89004774364963
 30
0.0
 11
172.9999999999961
 21
0.53208888623796
 31
0.0
  0
LINE
  5
72
  8
1
  6
CONTINUOUS
 62
     2
 10
201.0881725805756
 20
10.54251208600584
 30
0.0
 11
210.4850987884347
 21
13.96271351926252
 31
0.0
  0
LINE
  5
73
  8
1
  6
CONTINUOUS
 62
     2
 10
201.293384666571
 20
9.97869651353429
 30
0.0
 11
210.6903108744301
 21
13.39889794679097
 31
0.0
  0
LINE
  5
74
  8
1
  6
CONTINUOUS
 62
     2
 10
210.6903108744301
 20
13.39889794679097
 30
0.0
 11
210.4850987884347
 21
13.96271351926252
 31
0.0
  0
LINE
  5
75
  8
1
  6
CONTINUOUS
 62
     7
 10
182.7389463511808
 20
2.48050881247077
 30
0.0
 11
192.1358725590399
 21
5.90071024572747
 31
0.0
  0
LINE
  5
76
  8
1
  6
CONTINUOUS
 62
     7
 10
192.1358725590399
 20
5.90071024572747
 30
0.0
 11
191.4518322723885
 21
7.78009548729928
 31
0.0
  0
LINE
  5
77
  8
1
  6
CONTINUOUS
 62
     7
 10
191.4518322723885
 20
7.78009548729928
 30
0.0
 11
182.0549060645295
 21
4.35989405404258
 31
0.0
  0
LINE
  5
78
  8
1
  6
CONTINUOUS
 62
     7
 10
182.0549060645295
 20
4.35989405404258
 30
0.0
 11
182.7389463511808
 21
2.48050881247077
 31
0.0
  0
LINE
  5
79
  8
1
  6
CONTINUOUS
 62
     7
 10
191.6228423440514
 20
7.31024917690632
 30
0.0
 11
201.0197685519105
 21
10.73045061016302
 31
0.0
  0
LINE
  5
7A
  8
1
  6
CONTINUOUS
 62
     7
 10
201.0197685519105
 20
10.73045061016302
 30
0.0
 11
201.3617886952361
 21
9.79075798937711
 31
0.0
  0
LINE
  5
7B
  8
1
  6
CONTINUOUS
 62
     7
 10
201.3617886952361
 20
9.79075798937711
 30
0.0
 11
191.9648624873771
 21
6.37055655612042
 31
0.0
  0
LINE
  5
7C
  8
1
  6
CONTINUOUS
 62
     7
 10
202.9999999999961
 20
-0.5
 30
0.0
 11
192.9999999999961
 21
-0.5
 31
0.0
  0
LINE
  5
7D
  8
1
  6
CONTINUOUS
 62
     7
 10
202.9999999999961
 20
0.5
 30
0.0
 11
202.9999999999961
 21
-0.5
 31
0.0
  0
LINE
  5
7E
  8
1
  6
CONTINUOUS
 62
     7
 10
192.9999999999961
 20
0.5
 30
0.0
 11
202.9999999999961
 21
0.5
 31
0.0
  0
LINE
  5
7F
  8
1
  6
CONTINUOUS
 62
     7
 10
172.9999999999961
 20
-0.5
 30
0.0
 11
182.9999999999961
 21
-0.5
 31
0.0
  0
LINE
  5
80
  8
1
  6
CONTINUOUS
 62
     7
 10
182.9999999999961
 20
0.5
 30
0.0
 11
172.9999999999961
 21
0.5
 31
0.0
  0
LINE
  5
81
  8
1
  6
CONTINUOUS
 62
     7
 10
182.9999999999961
 20
1.0
 30
0.0
 11
182.9999999999961
 21
-1.0
 31
0.0
  0
LINE
  5
82
  8
1
  6
CONTINUOUS
 62
     7
 10
192.9999999999961
 20
1.0
 30
0.0
 11
182.9999999999961
 21
1.0
 31
0.0
  0
LINE
  5
83
  8
1
  6
CONTINUOUS
 62
     7
 10
192.9999999999961
 20
-1.0
 30
0.0
 11
192.9999999999961
 21
1.0
 31
0.0
  0
LINE
  5
84
  8
1
  6
CONTINUOUS
 62
     7
 10
182.9999999999961
 20
-1.0
 30
0.0
 11
192.9999999999961
 21
-1.0
 31
0.0
  0
LINE
  5
85
  8
1
  6
CONTINUOUS
 62
     2
 10
212.9999999999961
 20
-0.3
 30
0.0
 11
212.9999999999961
 21
0.30000000000001
 31
0.0
  0
LINE
  5
86
  8
1
  6
CONTINUOUS
 62
     2
 10
202.9999999999961
 20
-0.3
 30
0.0
 11
212.9999999999961
 21
-0.3
 31
0.0
  0
LINE
  5
87
  8
1
  6
CONTINUOUS
 62
     2
 10
202.9999999999961
 20
0.3
 30
0.0
 11
212.9999999999961
 21
0.30000000000001
 31
0.0
  0
LINE
  5
88
  8
1
  6
CONTINUOUS
 62
     7
 10
147.4999999999961
 20
1.7
 30
0.0
 11
122.9999999999961
 21
1.7
 31
0.0
  0
LINE
  5
89
  8
1
  6
CONTINUOUS
 62
     7
 10
147.4999999999961
 20
-1.7
 30
0.0
 11
122.9999999999961
 21
-1.7
 31
0.0
  0
LINE
  5
8A
  8
1
  6
CONTINUOUS
 62
     7
 10
148.4999999999961
 20
-1.7
 30
0.0
 11
162.9999999999961
 21
-1.7
 31
0.0
  0
LINE
  5
8B
  8
1
  6
CONTINUOUS
 62
     7
 10
162.9999999999961
 20
1.7
 30
0.0
 11
148.4999999999961
 21
1.7
 31
0.0
  0
LINE
  5
8C
  8
1
  6
CONTINUOUS
 62
     7
 10
172.9999999999961
 20
-1.7
 30
0.0
 11
172.9999999999961
 21
1.7
 31
0.0
  0
LINE
  5
8D
  8
1
  6
CONTINUOUS
 62
     7
 10
168.4999999999961
 20
-1.7
 30
0.0
 11
172.9999999999961
 21
-1.7
 31
0.0
  0
LINE
  5
8E
  8
1
  6
CONTINUOUS
 62
     7
 10
167.9999999999961
 20
-2.2
 30
0.0
 11
168.4999999999961
 21
-1.7
 31
0.0
  0
LINE
  5
8F
  8
1
  6
CONTINUOUS
 62
     7
 10
162.9999999999961
 20
-2.2
 30
0.0
 11
167.9999999999961
 21
-2.2
 31
0.0
  0
LINE
  5
90
  8
1
  6
CONTINUOUS
 62
     7
 10
168.4999999999961
 20
1.7
 30
0.0
 11
172.9999999999961
 21
1.7
 31
0.0
  0
LINE
  5
91
  8
1
  6
CONTINUOUS
 62
     7
 10
167.9999999999961
 20
2.2
 30
0.0
 11
168.4999999999961
 21
1.7
 31
0.0
  0
LINE
  5
92
  8
1
  6
CONTINUOUS
 62
     7
 10
162.9999999999961
 20
2.2
 30
0.0
 11
167.9999999999961
 21
2.2
 31
0.0
  0
LINE
  5
93
  8
1
  6
CONTINUOUS
 62
     7
 10
162.9999999999961
 20
-2.2
 30
0.0
 11
162.9999999999961
 21
2.2
 31
0.0
  0
LINE
  5
94
  8
0
  6
CONTINUOUS
 62
     7
 10
116.4999999999961
 20
7.5
 30
0.0
 11
114.4999999999961
 21
7.5
 31
0.0
  0
LINE
  5
95
  8
0
  6
CONTINUOUS
 62
     7
 10
114.4999999999961
 20
-7.50000000000003
 30
0.0
 11
116.4999999999961
 21
-7.50000000000003
 31
0.0
  0
LINE
  5
96
  8
0
  6
CONTINUOUS
 62
     7
 10
120.4999999999961
 20
0.0
 30
0.0
 11
116.4999999999961
 21
0.0
 31
0.0
  0
LINE
  5
97
  8
0
  6
CONTINUOUS
 62
     8
 10
103.4999999999961
 20
-8.863960780544
 30
0.0
 11
103.4999999999961
 21
8.86396078054397
 31
0.0
  0
LINE
  5
98
  8
EL
  6
CONTINUOUS
 62
     7
 10
20.0
 20
-7.40000000000003
 30
0.0
 11
20.0
 21
7.39999999999996
 31
0.0
  0
LINE
  5
99
  8
EL
  6
CONTINUOUS
 62
     7
 10
20.60000000000006
 20
-7.99999999999999
 30
0.0
 11
20.0
 21
-7.40000000000003
 31
0.0
  0
LINE
  5
9A
  8
EL
  6
CONTINUOUS
 62
     7
 10
30.49999999999615
 20
-7.99999999999999
 30
0.0
 11
20.60000000000006
 21
-7.99999999999999
 31
0.0
  0
LINE
  5
9B
  8
EL
  6
CONTINUOUS
 62
     7
 10
30.99999999999618
 20
-7.50000000000003
 30
0.0
 11
30.49999999999615
 21
-7.99999999999999
 31
0.0
  0
LINE
  5
9C
  8
EL
  6
CONTINUOUS
 62
     7
 10
31.99999999999609
 20
-7.50000000000003
 30
0.0
 11
30.99999999999618
 21
-7.50000000000003
 31
0.0
  0
LINE
  5
9D
  8
EL
  6
CONTINUOUS
 62
     7
 10
39.59999999999612
 20
-9.00000000000003
 30
0.0
 11
39.59999999999612
 21
-7.50000000000003
 31
0.0
  0
LINE
  5
9E
  8
EL
  6
CONTINUOUS
 62
     7
 10
31.99999999999609
 20
-9.00000000000003
 30
0.0
 11
31.99999999999609
 21
-9.00000000000003
 31
0.0
  0
LINE
  5
9F
  8
EL
  6
CONTINUOUS
 62
     7
 10
39.60273905231229
 20
-9.03135853898102
 30
0.0
 11
39.59999999999612
 21
-9.00000000000003
 31
0.0
  0
LINE
  5
A0
  8
EL
  6
CONTINUOUS
 62
     7
 10
39.61092619963003
 20
-9.06237350724601
 30
0.0
 11
39.60273905231229
 21
-9.03135853898102
 31
0.0
  0
LINE
  5
A1
  8
EL
  6
CONTINUOUS
 62
     7
 10
39.62447174184932
 20
-9.09270509831302
 30
0.0
 11
39.61092619963003
 21
-9.06237350724601
 31
0.0
  0
LINE
  5
A2
  8
EL
  6
CONTINUOUS
 62
     7
 10
39.64322727117607
 20
-9.12202099292303
 30
0.0
 11
39.62447174184932
 21
-9.09270509831302
 31
0.0
  0
LINE
  5
A3
  8
EL
  6
CONTINUOUS
 62
     7
 10
39.66698729810393
 20
-9.14999999999999
 30
0.0
 11
39.64322727117607
 21
-9.12202099292303
 31
0.0
  0
LINE
  5
A4
  8
EL
  6
CONTINUOUS
 62
     7
 10
39.69549150280911
 20
-9.17633557568802
 30
0.0
 11
39.66698729810393
 21
-9.14999999999999
 31
0.0
  0
LINE
  5
A5
  8
EL
  6
CONTINUOUS
 62
     7
 10
39.72842758725793
 20
-9.20073918190803
 30
0.0
 11
39.69549150280911
 21
-9.17633557568802
 31
0.0
  0
LINE
  5
A6
  8
EL
  6
CONTINUOUS
 62
     7
 10
39.76543469681698
 20
-9.22294344764401
 30
0.0
 11
39.72842758725793
 21
-9.20073918190803
 31
0.0
  0
LINE
  5
A7
  8
EL
  6
CONTINUOUS
 62
     7
 10
39.80610737385126
 20
-9.24270509831302
 30
0.0
 11
39.76543469681698
 21
-9.22294344764401
 31
0.0
  0
LINE
  5
A8
  8
EL
  6
CONTINUOUS
 62
     7
 10
39.84999999999607
 20
-9.25980762113601
 30
0.0
 11
39.80610737385126
 21
-9.24270509831302
 31
0.0
  0
LINE
  5
A9
  8
EL
  6
CONTINUOUS
 62
     7
 10
39.89663167845905
 20
-9.27406363729302
 30
0.0
 11
39.84999999999607
 21
-9.25980762113601
 31
0.0
  0
LINE
  5
AA
  8
EL
  6
CONTINUOUS
 62
     7
 10
39.94549150280906
 20
-9.285316954889
 30
0.0
 11
39.89663167845905
 21
-9.27406363729302
 31
0.0
  0
LINE
  5
AB
  8
EL
  6
CONTINUOUS
 62
     7
 10
39.99604415458711
 20
-9.29344428021998
 30
0.0
 11
39.94549150280906
 21
-9.285316954889
 31
0.0
  0
LINE
  5
AC
  8
EL
  6
CONTINUOUS
 62
     7
 10
40.0477357683631
 20
-9.29835656861101
 30
0.0
 11
39.99604415458711
 21
-9.29344428021998
 31
0.0
  0
LINE
  5
AD
  8
EL
  6
CONTINUOUS
 62
     7
 10
40.09999999999615
 20
-9.30000000000002
 30
0.0
 11
40.0477357683631
 21
-9.29835656861101
 31
0.0
  0
LINE
  5
AE
  8
EL
  6
CONTINUOUS
 62
     7
 10
40.15226423163121
 20
-9.29835656861101
 30
0.0
 11
40.09999999999615
 21
-9.30000000000002
 31
0.0
  0
LINE
  5
AF
  8
EL
  6
CONTINUOUS
 62
     7
 10
40.20395584540518
 20
-9.29344428021998
 30
0.0
 11
40.15226423163121
 21
-9.29835656861101
 31
0.0
  0
LINE
  5
B0
  8
EL
  6
CONTINUOUS
 62
     7
 10
40.25450849718396
 20
-9.285316954889
 30
0.0
 11
40.20395584540518
 21
-9.29344428021998
 31
0.0
  0
LINE
  5
B1
  8
EL
  6
CONTINUOUS
 62
     7
 10
40.30336832153512
 20
-9.27406363729302
 30
0.0
 11
40.25450849718396
 21
-9.285316954889
 31
0.0
  0
LINE
  5
B2
  8
EL
  6
CONTINUOUS
 62
     7
 10
40.34999999999609
 20
-9.25980762113601
 30
0.0
 11
40.30336832153512
 21
-9.27406363729302
 31
0.0
  0
LINE
  5
B3
  8
EL
  6
CONTINUOUS
 62
     7
 10
40.39389262614219
 20
-9.24270509831302
 30
0.0
 11
40.34999999999609
 21
-9.25980762113601
 31
0.0
  0
LINE
  5
B4
  8
EL
  6
CONTINUOUS
 62
     7
 10
40.43456530317604
 20
-9.22294344764401
 30
0.0
 11
40.39389262614219
 21
-9.24270509831302
 31
0.0
  0
LINE
  5
B5
  8
EL
  6
CONTINUOUS
 62
     7
 10
40.47157241273509
 20
-9.20073918190803
 30
0.0
 11
40.43456530317604
 21
-9.22294344764401
 31
0.0
  0
LINE
  5
B6
  8
EL
  6
CONTINUOUS
 62
     7
 10
40.50450849718433
 20
-9.17633557568802
 30
0.0
 11
40.47157241273509
 21
-9.20073918190803
 31
0.0
  0
LINE
  5
B7
  8
EL
  6
CONTINUOUS
 62
     7
 10
40.53301270188823
 20
-9.14999999999999
 30
0.0
 11
40.50450849718433
 21
-9.17633557568802
 31
0.0
  0
LINE
  5
B8
  8
EL
  6
CONTINUOUS
 62
     7
 10
40.5567727288181
 20
-9.12202099292303
 30
0.0
 11
40.53301270188823
 21
-9.14999999999999
 31
0.0
  0
LINE
  5
B9
  8
EL
  6
CONTINUOUS
 62
     7
 10
40.57552825814412
 20
-9.09270509831302
 30
0.0
 11
40.5567727288181
 21
-9.12202099292303
 31
0.0
  0
LINE
  5
BA
  8
EL
  6
CONTINUOUS
 62
     7
 10
40.58907380036428
 20
-9.06237350724601
 30
0.0
 11
40.57552825814412
 21
-9.09270509831302
 31
0.0
  0
LINE
  5
BB
  8
EL
  6
CONTINUOUS
 62
     7
 10
40.59726094768001
 20
-9.03135853898102
 30
0.0
 11
40.58907380036428
 21
-9.06237350724601
 31
0.0
  0
LINE
  5
BC
  8
EL
  6
CONTINUOUS
 62
     7
 10
40.59999999999604
 20
-9.00000000000003
 30
0.0
 11
40.59726094768001
 21
-9.03135853898102
 31
0.0
  0
LINE
  5
BD
  8
EL
  6
CONTINUOUS
 62
     7
 10
103.4999999999961
 20
9.0
 30
0.0
 11
103.4999999999961
 21
-9.00000000000003
 31
0.0
  0
LINE
  5
BE
  8
EL
  6
CONTINUOUS
 62
     7
 10
40.59726094768001
 20
9.03135853898
 30
0.0
 11
40.59999999999604
 21
9.0
 31
0.0
  0
LINE
  5
BF
  8
EL
  6
CONTINUOUS
 62
     7
 10
40.58907380036428
 20
9.062373507245
 30
0.0
 11
40.59726094768001
 21
9.03135853898
 31
0.0
  0
LINE
  5
C0
  8
EL
  6
CONTINUOUS
 62
     7
 10
40.57552825814412
 20
9.09270509831197
 30
0.0
 11
40.58907380036428
 21
9.062373507245
 31
0.0
  0
LINE
  5
C1
  8
EL
  6
CONTINUOUS
 62
     7
 10
40.5567727288181
 20
9.12202099292299
 30
0.0
 11
40.57552825814412
 21
9.09270509831197
 31
0.0
  0
LINE
  5
C2
  8
EL
  6
CONTINUOUS
 62
     7
 10
40.53301270188823
 20
9.14999999999996
 30
0.0
 11
40.5567727288181
 21
9.12202099292299
 31
0.0
  0
LINE
  5
C3
  8
EL
  6
CONTINUOUS
 62
     7
 10
40.50450849718433
 20
9.17633557568799
 30
0.0
 11
40.53301270188823
 21
9.14999999999996
 31
0.0
  0
LINE
  5
C4
  8
EL
  6
CONTINUOUS
 62
     7
 10
40.47157241273509
 20
9.20073918190696
 30
0.0
 11
40.50450849718433
 21
9.17633557568799
 31
0.0
  0
LINE
  5
C5
  8
EL
  6
CONTINUOUS
 62
     7
 10
40.43456530317604
 20
9.22294344764197
 30
0.0
 11
40.47157241273509
 21
9.20073918190696
 31
0.0
  0
LINE
  5
C6
  8
EL
  6
CONTINUOUS
 62
     7
 10
40.39389262614219
 20
9.24270509831197
 30
0.0
 11
40.43456530317604
 21
9.22294344764197
 31
0.0
  0
LINE
  5
C7
  8
EL
  6
CONTINUOUS
 62
     7
 10
40.34999999999609
 20
9.259807621135
 30
0.0
 11
40.39389262614219
 21
9.24270509831197
 31
0.0
  0
LINE
  5
C8
  8
EL
  6
CONTINUOUS
 62
     7
 10
40.30336832153512
 20
9.274063637293
 30
0.0
 11
40.34999999999609
 21
9.259807621135
 31
0.0
  0
LINE
  5
C9
  8
EL
  6
CONTINUOUS
 62
     7
 10
40.25450849718396
 20
9.28531695488795
 30
0.0
 11
40.30336832153512
 21
9.274063637293
 31
0.0
  0
LINE
  5
CA
  8
EL
  6
CONTINUOUS
 62
     7
 10
40.20395584540518
 20
9.29344428022
 30
0.0
 11
40.25450849718396
 21
9.28531695488795
 31
0.0
  0
LINE
  5
CB
  8
EL
  6
CONTINUOUS
 62
     7
 10
40.15226423163121
 20
9.29835656860898
 30
0.0
 11
40.20395584540518
 21
9.29344428022
 31
0.0
  0
LINE
  5
CC
  8
EL
  6
CONTINUOUS
 62
     7
 10
40.09999999999615
 20
9.29999999999996
 30
0.0
 11
40.15226423163121
 21
9.29835656860898
 31
0.0
  0
LINE
  5
CD
  8
EL
  6
CONTINUOUS
 62
     7
 10
40.0477357683631
 20
9.29835656860898
 30
0.0
 11
40.09999999999615
 21
9.29999999999996
 31
0.0
  0
LINE
  5
CE
  8
EL
  6
CONTINUOUS
 62
     7
 10
39.99604415458711
 20
9.29344428022
 30
0.0
 11
40.0477357683631
 21
9.29835656860898
 31
0.0
  0
LINE
  5
CF
  8
EL
  6
CONTINUOUS
 62
     7
 10
39.94549150280906
 20
9.28531695488795
 30
0.0
 11
39.99604415458711
 21
9.29344428022
 31
0.0
  0
LINE
  5
D0
  8
EL
  6
CONTINUOUS
 62
     7
 10
39.89663167845905
 20
9.274063637293
 30
0.0
 11
39.94549150280906
 21
9.28531695488795
 31
0.0
  0
LINE
  5
D1
  8
EL
  6
CONTINUOUS
 62
     7
 10
39.84999999999607
 20
9.259807621135
 30
0.0
 11
39.89663167845905
 21
9.274063637293
 31
0.0
  0
LINE
  5
D2
  8
EL
  6
CONTINUOUS
 62
     7
 10
39.80610737385126
 20
9.24270509831197
 30
0.0
 11
39.84999999999607
 21
9.259807621135
 31
0.0
  0
LINE
  5
D3
  8
EL
  6
CONTINUOUS
 62
     7
 10
39.76543469681698
 20
9.22294344764197
 30
0.0
 11
39.80610737385126
 21
9.24270509831197
 31
0.0
  0
LINE
  5
D4
  8
EL
  6
CONTINUOUS
 62
     7
 10
39.72842758725793
 20
9.20073918190696
 30
0.0
 11
39.76543469681698
 21
9.22294344764197
 31
0.0
  0
LINE
  5
D5
  8
EL
  6
CONTINUOUS
 62
     7
 10
39.69549150280911
 20
9.17633557568799
 30
0.0
 11
39.72842758725793
 21
9.20073918190696
 31
0.0
  0
LINE
  5
D6
  8
EL
  6
CONTINUOUS
 62
     7
 10
39.66698729810393
 20
9.14999999999996
 30
0.0
 11
39.69549150280911
 21
9.17633557568799
 31
0.0
  0
LINE
  5
D7
  8
EL
  6
CONTINUOUS
 62
     7
 10
39.64322727117607
 20
9.12202099292299
 30
0.0
 11
39.66698729810393
 21
9.14999999999996
 31
0.0
  0
LINE
  5
D8
  8
EL
  6
CONTINUOUS
 62
     7
 10
39.62447174184932
 20
9.09270509831197
 30
0.0
 11
39.64322727117607
 21
9.12202099292299
 31
0.0
  0
LINE
  5
D9
  8
EL
  6
CONTINUOUS
 62
     7
 10
39.61092619963003
 20
9.062373507245
 30
0.0
 11
39.62447174184932
 21
9.09270509831197
 31
0.0
  0
LINE
  5
DA
  8
EL
  6
CONTINUOUS
 62
     7
 10
39.60273905231229
 20
9.03135853898
 30
0.0
 11
39.61092619963003
 21
9.062373507245
 31
0.0
  0
LINE
  5
DB
  8
EL
  6
CONTINUOUS
 62
     7
 10
39.59999999999612
 20
9.0
 30
0.0
 11
39.60273905231229
 21
9.03135853898
 31
0.0
  0
LINE
  5
DC
  8
EL
  6
CONTINUOUS
 62
     7
 10
31.99999999999609
 20
9.0
 30
0.0
 11
31.99999999999609
 21
9.0
 31
0.0
  0
LINE
  5
DD
  8
EL
  6
CONTINUOUS
 62
     7
 10
39.59999999999612
 20
7.5
 30
0.0
 11
39.59999999999612
 21
9.0
 31
0.0
  0
LINE
  5
DE
  8
EL
  6
CONTINUOUS
 62
     7
 10
30.99999999999618
 20
7.5
 30
0.0
 11
31.99999999999609
 21
7.5
 31
0.0
  0
LINE
  5
DF
  8
EL
  6
CONTINUOUS
 62
     7
 10
30.49999999999615
 20
8.0
 30
0.0
 11
30.99999999999618
 21
7.5
 31
0.0
  0
LINE
  5
E0
  8
EL
  6
CONTINUOUS
 62
     7
 10
20.60000000000006
 20
8.0
 30
0.0
 11
30.49999999999615
 21
8.0
 31
0.0
  0
LINE
  5
E1
  8
EL
  6
CONTINUOUS
 62
     7
 10
20.0
 20
7.39999999999996
 30
0.0
 11
20.60000000000006
 21
8.0
 31
0.0
  0
LINE
  5
E2
  8
EL
  6
CONTINUOUS
 62
     7
 10
20.0
 20
7.39999999999996
 30
0.0
 11
20.0
 21
7.39999999999996
 31
0.0
  0
LINE
  5
E3
  8
EL
  6
CONTINUOUS
 62
     7
 10
20.60000000000006
 20
-7.99999999999999
 30
0.0
 11
20.60000000000006
 21
8.0
 31
0.0
  0
LINE
  5
E4
  8
EL
  6
CONTINUOUS
 62
     7
 10
30.49999999999615
 20
8.0
 30
0.0
 11
30.49999999999615
 21
-7.99999999999999
 31
0.0
  0
LINE
  5
E5
  8
EL
  6
CONTINUOUS
 62
     7
 10
30.99999999999618
 20
-7.50000000000003
 30
0.0
 11
30.99999999999618
 21
7.5
 31
0.0
  0
LINE
  5
E6
  8
EL
  6
CONTINUOUS
 62
     7
 10
39.59999999999612
 20
7.5
 30
0.0
 11
39.59999999999612
 21
-7.50000000000003
 31
0.0
  0
LINE
  5
E7
  8
EL
  6
CONTINUOUS
 62
     7
 10
40.59999999999604
 20
-9.00000000000003
 30
0.0
 11
40.59999999999604
 21
9.0
 31
0.0
  0
LINE
  5
E8
  8
EL
  6
CONTINUOUS
 62
     2
 10
20.10000000000003
 20
7.5
 30
0.0
 11
30.99999999999618
 21
7.5
 31
0.0
  0
LINE
  5
E9
  8
EL
  6
CONTINUOUS
 62
     2
 10
20.10000000000003
 20
-7.50000000000003
 30
0.0
 11
30.99999999999618
 21
-7.50000000000003
 31
0.0
  0
LINE
  5
EA
  8
EL
  6
CONTINUOUS
 62
     7
 10
40.59999999999604
 20
9.0
 30
0.0
 11
103.4999999999961
 21
9.0
 31
0.0
  0
LINE
  5
EB
  8
EL
  6
CONTINUOUS
 62
     7
 10
32.99999999999615
 20
9.0
 30
0.0
 11
39.59999999999612
 21
9.0
 31
0.0
  0
LINE
  5
EC
  8
EL
  6
CONTINUOUS
 62
     7
 10
39.59999999999612
 20
-9.00000000000003
 30
0.0
 11
32.99999999999615
 21
-9.00000000000003
 31
0.0
  0
LINE
  5
ED
  8
EL
  6
CONTINUOUS
 62
     7
 10
103.4999999999961
 20
-9.00000000000003
 30
0.0
 11
40.59999999999604
 21
-9.00000000000003
 31
0.0
  0
LINE
  5
EE
  8
EL
  6
CONTINUOUS
 62
     7
 10
31.99999999999609
 20
-9.00000000000003
 30
0.0
 11
32.99999999999615
 21
-9.00000000000003
 31
0.0
  0
LINE
  5
EF
  8
EL
  6
CONTINUOUS
 62
     7
 10
31.99999999999609
 20
9.0
 30
0.0
 11
31.99999999999609
 21
-9.00000000000003
 31
0.0
  0
LINE
  5
F0
  8
EL
  6
CONTINUOUS
 62
     7
 10
32.99999999999615
 20
9.0
 30
0.0
 11
31.99999999999609
 21
9.0
 31
0.0
  0
ARC
  5
101
  8
1
  6
CONTINUOUS
 62
     7
 10
26.0
 20
-60.0
 30
0.0
 40
9.5
 50
198.6717180640079
 51
341.3282819359921
  0
ARC
  5
102
  8
1
  6
CONTINUOUS
 62
     7
 10
26.0
 20
-60.0
 30
0.0
 40
9.5
 50
18.67171806400789
 51
161.3282819359921
  0
ARC
  5
103
  8
1
  6
CONTINUOUS
 62
     7
 10
26.0
 20
-60.0
 30
0.0
 40
10.5
 50
211.0027191338739
 51
328.9972808661261
  0
ARC
  5
104
  8
1
  6
CONTINUOUS
 62
     7
 10
26.0
 20
-60.0
 30
0.0
 40
10.5
 50
31.00271913387396
 51
148.997280866126
  0
CIRCLE
  5
107
  8
1
  6
CONTINUOUS
 62
     7
 10
26.0
 20
-60.0
 30
0.0
 40
7.5
  0
CIRCLE
  5
108
  8
1
  6
CONTINUOUS
 62
     2
 10
26.0
 20
-60.0
 30
0.0
 40
8.0
  0
CIRCLE
  5
109
  8
0
  6
CONTINUOUS
 62
     2
 10
0.0
 20
0.0
 30
0.0
 40
7.499999999999996
  0
CIRCLE
  5
10A
  8
0
  6
CONTINUOUS
 62
     7
 10
0.0
 20
0.0
 30
0.0
 40
8.000000000000025
  0
CIRCLE
  5
10B
  8
0
  6
CONTINUOUS
 62
     7
 10
0.0
 20
0.0
 30
0.0
 40
9.300000000000042
  0
CIRCLE
  5
10C
  8
0
  6
CONTINUOUS
 62
     7
 10
0.0
 20
0.0
 30
0.0
 40
5.950000000000037
  0
CIRCLE
  5
10D
  8
0
  6
CONTINUOUS
 62
     7
 10
0.0
 20
0.0
 30
0.0
 40
6.350000000000031
  0
POLYLINE
  5
10E
  8
1
  6
CONTINUOUS
 62
     2
 66
     1
 10
0.0
 20
0.0
 30
0.0
  0
VERTEX
  5
119
  8
1
  6
CONTINUOUS
 62
     2
 10
148.4999999999961
 20
1.7
 30
0.0
  0
VERTEX
  5
11A
  8
1
  6
CONTINUOUS
 62
     2
 10
148.4376446763685
 20
1.62916666698063
 30
0.0
  0
VERTEX
  5
11B
  8
1
  6
CONTINUOUS
 62
     2
 10
148.3761574085169
 20
1.55833333386805
 30
0.0
  0
VERTEX
  5
11C
  8
1
  6
CONTINUOUS
 62
     2
 10
148.3164062519516
 20
1.48750000067309
 30
0.0
  0
VERTEX
  5
11D
  8
1
  6
CONTINUOUS
 62
     2
 10
148.2592592621833
 20
1.4166666674066
 30
0.0
  0
VERTEX
  5
11E
  8
1
  6
CONTINUOUS
 62
     2
 10
148.2055844947227
 20
1.34583333407941
 30
0.0
  0
VERTEX
  5
11F
  8
1
  6
CONTINUOUS
 62
     2
 10
148.1562500050801
 20
1.27500000070236
 30
0.0
  0
VERTEX
  5
120
  8
1
  6
CONTINUOUS
 62
     2
 10
148.1121238487661
 20
1.20416666728629
 30
0.0
  0
VERTEX
  5
121
  8
1
  6
CONTINUOUS
 62
     2
 10
148.0740740812915
 20
1.13333333384204
 30
0.0
  0
VERTEX
  5
122
  8
1
  6
CONTINUOUS
 62
     2
 10
148.0429687581666
 20
1.06250000038045
 30
0.0
  0
VERTEX
  5
123
  8
1
  6
CONTINUOUS
 62
     2
 10
148.019675934902
 20
0.99166666691235
 30
0.0
  0
VERTEX
  5
124
  8
1
  6
CONTINUOUS
 62
     2
 10
148.0050636670083
 20
0.9208333334486
 30
0.0
  0
VERTEX
  5
125
  8
1
  6
CONTINUOUS
 62
     2
 10
148.000000009996
 20
0.85000000000001
 30
0.0
  0
VERTEX
  5
126
  8
1
  6
CONTINUOUS
 62
     2
 10
148.0050636675352
 20
0.77916666657527
 30
0.0
  0
VERTEX
  5
127
  8
1
  6
CONTINUOUS
 62
     2
 10
148.0196759359338
 20
0.70833333317438
 30
0.0
  0
VERTEX
  5
128
  8
1
  6
CONTINUOUS
 62
     2
 10
148.0429687596591
 20
0.63749999979517
 30
0.0
  0
VERTEX
  5
129
  8
1
  6
CONTINUOUS
 62
     2
 10
148.0740740831783
 20
0.56666666643546
 30
0.0
  0
VERTEX
  5
12A
  8
1
  6
CONTINUOUS
 62
     2
 10
148.1121238509588
 20
0.4958333330931
 30
0.0
  0
VERTEX
  5
12B
  8
1
  6
CONTINUOUS
 62
     2
 10
148.1562500074681
 20
0.42499999976591
 30
0.0
  0
VERTEX
  5
12C
  8
1
  6
CONTINUOUS
 62
     2
 10
148.2055844971733
 20
0.35416666645173
 30
0.0
  0
VERTEX
  5
12D
  8
1
  6
CONTINUOUS
 62
     2
 10
148.2592592645418
 20
0.28333333314839
 30
0.0
  0
VERTEX
  5
12E
  8
1
  6
CONTINUOUS
 62
     2
 10
148.3164062540411
 20
0.21249999985372
 30
0.0
  0
VERTEX
  5
12F
  8
1
  6
CONTINUOUS
 62
     2
 10
148.3761574101383
 20
0.14166666656555
 30
0.0
  0
VERTEX
  5
130
  8
1
  6
CONTINUOUS
 62
     2
 10
148.4376446773009
 20
0.07083333328171
 30
0.0
  0
VERTEX
  5
131
  8
1
  6
CONTINUOUS
 62
     2
 10
148.4999999999961
 20
0.00000000000004
 30
0.0
  0
VERTEX
  5
132
  8
1
  6
CONTINUOUS
 62
     2
 10
148.5623553226913
 20
-0.07083333328163
 30
0.0
  0
VERTEX
  5
133
  8
1
  6
CONTINUOUS
 62
     2
 10
148.6238425898539
 20
-0.14166666656546
 30
0.0
  0
VERTEX
  5
134
  8
1
  6
CONTINUOUS
 62
     2
 10
148.6835937459511
 20
-0.21249999985364
 30
0.0
  0
VERTEX
  5
135
  8
1
  6
CONTINUOUS
 62
     2
 10
148.7407407354503
 20
-0.28333333314832
 30
0.0
  0
VERTEX
  5
136
  8
1
  6
CONTINUOUS
 62
     2
 10
148.7944155028189
 20
-0.35416666645166
 30
0.0
  0
VERTEX
  5
137
  8
1
  6
CONTINUOUS
 62
     2
 10
148.8437499925241
 20
-0.42499999976585
 30
0.0
  0
VERTEX
  5
138
  8
1
  6
CONTINUOUS
 62
     2
 10
148.8878761490333
 20
-0.49583333309305
 30
0.0
  0
VERTEX
  5
139
  8
1
  6
CONTINUOUS
 62
     2
 10
148.9259259168139
 20
-0.56666666643542
 30
0.0
  0
VERTEX
  5
13A
  8
1
  6
CONTINUOUS
 62
     2
 10
148.9570312403331
 20
-0.63749999979513
 30
0.0
  0
VERTEX
  5
13B
  8
1
  6
CONTINUOUS
 62
     2
 10
148.9803240640583
 20
-0.70833333317435
 30
0.0
  0
VERTEX
  5
13C
  8
1
  6
CONTINUOUS
 62
     2
 10
148.9949363324569
 20
-0.77916666657525
 30
0.0
  0
VERTEX
  5
13D
  8
1
  6
CONTINUOUS
 62
     2
 10
148.9999999899961
 20
-0.84999999999999
 30
0.0
  0
VERTEX
  5
13E
  8
1
  6
CONTINUOUS
 62
     2
 10
148.9949363329839
 20
-0.92083333344858
 30
0.0
  0
VERTEX
  5
13F
  8
1
  6
CONTINUOUS
 62
     2
 10
148.9803240650902
 20
-0.99166666691234
 30
0.0
  0
VERTEX
  5
140
  8
1
  6
CONTINUOUS
 62
     2
 10
148.9570312418256
 20
-1.06250000038043
 30
0.0
  0
VERTEX
  5
141
  8
1
  6
CONTINUOUS
 62
     2
 10
148.9259259187007
 20
-1.13333333384203
 30
0.0
  0
VERTEX
  5
142
  8
1
  6
CONTINUOUS
 62
     2
 10
148.887876151226
 20
-1.20416666728628
 30
0.0
  0
VERTEX
  5
143
  8
1
  6
CONTINUOUS
 62
     2
 10
148.8437499949121
 20
-1.27500000070235
 30
0.0
  0
VERTEX
  5
144
  8
1
  6
CONTINUOUS
 62
     2
 10
148.7944155052695
 20
-1.3458333340794
 30
0.0
  0
VERTEX
  5
145
  8
1
  6
CONTINUOUS
 62
     2
 10
148.7407407378088
 20
-1.41666666740659
 30
0.0
  0
VERTEX
  5
146
  8
1
  6
CONTINUOUS
 62
     2
 10
148.6835937480406
 20
-1.48750000067309
 30
0.0
  0
VERTEX
  5
147
  8
1
  6
CONTINUOUS
 62
     2
 10
148.6238425914754
 20
-1.55833333386805
 30
0.0
  0
VERTEX
  5
148
  8
1
  6
CONTINUOUS
 62
     2
 10
148.5623553236237
 20
-1.62916666698063
 30
0.0
  0
VERTEX
  5
149
  8
1
  6
CONTINUOUS
 62
     2
 10
148.4999999999961
 20
-1.7
 30
0.0
  0
SEQEND
  5
196
  8
1
  6
CONTINUOUS
 62
     2
  0
POLYLINE
  5
10F
  8
1
  6
CONTINUOUS
 62
     2
 66
     1
 10
0.0
 20
0.0
 30
0.0
  0
VERTEX
  5
14A
  8
1
  6
CONTINUOUS
 62
     2
 10
147.4999999999961
 20
1.7
 30
0.0
  0
VERTEX
  5
14B
  8
1
  6
CONTINUOUS
 62
     2
 10
147.4376446763685
 20
1.62916666698063
 30
0.0
  0
VERTEX
  5
14C
  8
1
  6
CONTINUOUS
 62
     2
 10
147.3761574085169
 20
1.55833333386805
 30
0.0
  0
VERTEX
  5
14D
  8
1
  6
CONTINUOUS
 62
     2
 10
147.3164062519517
 20
1.48750000067309
 30
0.0
  0
VERTEX
  5
14E
  8
1
  6
CONTINUOUS
 62
     2
 10
147.2592592621834
 20
1.41666666740659
 30
0.0
  0
VERTEX
  5
14F
  8
1
  6
CONTINUOUS
 62
     2
 10
147.2055844947227
 20
1.3458333340794
 30
0.0
  0
VERTEX
  5
150
  8
1
  6
CONTINUOUS
 62
     2
 10
147.1562500050802
 20
1.27500000070235
 30
0.0
  0
VERTEX
  5
151
  8
1
  6
CONTINUOUS
 62
     2
 10
147.1121238487662
 20
1.20416666728628
 30
0.0
  0
VERTEX
  5
152
  8
1
  6
CONTINUOUS
 62
     2
 10
147.0740740812915
 20
1.13333333384203
 30
0.0
  0
VERTEX
  5
153
  8
1
  6
CONTINUOUS
 62
     2
 10
147.0429687581666
 20
1.06250000038044
 30
0.0
  0
VERTEX
  5
154
  8
1
  6
CONTINUOUS
 62
     2
 10
147.019675934902
 20
0.99166666691234
 30
0.0
  0
VERTEX
  5
155
  8
1
  6
CONTINUOUS
 62
     2
 10
147.0050636670084
 20
0.92083333344858
 30
0.0
  0
VERTEX
  5
156
  8
1
  6
CONTINUOUS
 62
     2
 10
147.0000000099961
 20
0.85
 30
0.0
  0
VERTEX
  5
157
  8
1
  6
CONTINUOUS
 62
     2
 10
147.0050636675353
 20
0.77916666657526
 30
0.0
  0
VERTEX
  5
158
  8
1
  6
CONTINUOUS
 62
     2
 10
147.0196759359339
 20
0.70833333317437
 30
0.0
  0
VERTEX
  5
159
  8
1
  6
CONTINUOUS
 62
     2
 10
147.0429687596591
 20
0.63749999979515
 30
0.0
  0
VERTEX
  5
15A
  8
1
  6
CONTINUOUS
 62
     2
 10
147.0740740831783
 20
0.56666666643545
 30
0.0
  0
VERTEX
  5
15B
  8
1
  6
CONTINUOUS
 62
     2
 10
147.1121238509589
 20
0.49583333309308
 30
0.0
  0
VERTEX
  5
15C
  8
1
  6
CONTINUOUS
 62
     2
 10
147.1562500074681
 20
0.42499999976589
 30
0.0
  0
VERTEX
  5
15D
  8
1
  6
CONTINUOUS
 62
     2
 10
147.2055844971733
 20
0.35416666645171
 30
0.0
  0
VERTEX
  5
15E
  8
1
  6
CONTINUOUS
 62
     2
 10
147.2592592645419
 20
0.28333333314837
 30
0.0
  0
VERTEX
  5
15F
  8
1
  6
CONTINUOUS
 62
     2
 10
147.3164062540411
 20
0.21249999985369
 30
0.0
  0
VERTEX
  5
160
  8
1
  6
CONTINUOUS
 62
     2
 10
147.3761574101383
 20
0.14166666656552
 30
0.0
  0
VERTEX
  5
161
  8
1
  6
CONTINUOUS
 62
     2
 10
147.4376446773009
 20
0.07083333328168
 30
0.0
  0
VERTEX
  5
162
  8
1
  6
CONTINUOUS
 62
     2
 10
147.4999999999961
 20
0.00000000000002
 30
0.0
  0
VERTEX
  5
163
  8
1
  6
CONTINUOUS
 62
     2
 10
147.5623553226914
 20
-0.07083333328165
 30
0.0
  0
VERTEX
  5
164
  8
1
  6
CONTINUOUS
 62
     2
 10
147.6238425898539
 20
-0.14166666656549
 30
0.0
  0
VERTEX
  5
165
  8
1
  6
CONTINUOUS
 62
     2
 10
147.6835937459511
 20
-0.21249999985366
 30
0.0
  0
VERTEX
  5
166
  8
1
  6
CONTINUOUS
 62
     2
 10
147.7407407354504
 20
-0.28333333314834
 30
0.0
  0
VERTEX
  5
167
  8
1
  6
CONTINUOUS
 62
     2
 10
147.7944155028189
 20
-0.35416666645169
 30
0.0
  0
VERTEX
  5
168
  8
1
  6
CONTINUOUS
 62
     2
 10
147.8437499925242
 20
-0.42499999976587
 30
0.0
  0
VERTEX
  5
169
  8
1
  6
CONTINUOUS
 62
     2
 10
147.8878761490334
 20
-0.49583333309307
 30
0.0
  0
VERTEX
  5
16A
  8
1
  6
CONTINUOUS
 62
     2
 10
147.9259259168139
 20
-0.56666666643543
 30
0.0
  0
VERTEX
  5
16B
  8
1
  6
CONTINUOUS
 62
     2
 10
147.9570312403332
 20
-0.63749999979514
 30
0.0
  0
VERTEX
  5
16C
  8
1
  6
CONTINUOUS
 62
     2
 10
147.9803240640584
 20
-0.70833333317436
 30
0.0
  0
VERTEX
  5
16D
  8
1
  6
CONTINUOUS
 62
     2
 10
147.9949363324569
 20
-0.77916666657526
 30
0.0
  0
VERTEX
  5
16E
  8
1
  6
CONTINUOUS
 62
     2
 10
147.9999999899962
 20
-0.85
 30
0.0
  0
VERTEX
  5
16F
  8
1
  6
CONTINUOUS
 62
     2
 10
147.9949363329839
 20
-0.92083333344859
 30
0.0
  0
VERTEX
  5
170
  8
1
  6
CONTINUOUS
 62
     2
 10
147.9803240650902
 20
-0.99166666691235
 30
0.0
  0
VERTEX
  5
171
  8
1
  6
CONTINUOUS
 62
     2
 10
147.9570312418256
 20
-1.06250000038044
 30
0.0
  0
VERTEX
  5
172
  8
1
  6
CONTINUOUS
 62
     2
 10
147.9259259187007
 20
-1.13333333384203
 30
0.0
  0
VERTEX
  5
173
  8
1
  6
CONTINUOUS
 62
     2
 10
147.887876151226
 20
-1.20416666728628
 30
0.0
  0
VERTEX
  5
174
  8
1
  6
CONTINUOUS
 62
     2
 10
147.8437499949121
 20
-1.27500000070235
 30
0.0
  0
VERTEX
  5
175
  8
1
  6
CONTINUOUS
 62
     2
 10
147.7944155052695
 20
-1.3458333340794
 30
0.0
  0
VERTEX
  5
176
  8
1
  6
CONTINUOUS
 62
     2
 10
147.7407407378088
 20
-1.41666666740659
 30
0.0
  0
VERTEX
  5
177
  8
1
  6
CONTINUOUS
 62
     2
 10
147.6835937480406
 20
-1.48750000067309
 30
0.0
  0
VERTEX
  5
178
  8
1
  6
CONTINUOUS
 62
     2
 10
147.6238425914754
 20
-1.55833333386805
 30
0.0
  0
VERTEX
  5
179
  8
1
  6
CONTINUOUS
 62
     2
 10
147.5623553236237
 20
-1.62916666698063
 30
0.0
  0
VERTEX
  5
17A
  8
1
  6
CONTINUOUS
 62
     2
 10
147.4999999999961
 20
-1.7
 30
0.0
  0
SEQEND
  5
195
  8
1
  6
CONTINUOUS
 62
     2
  0
POLYLINE
  5
110
  8
0
  6
CONTINUOUS
 62
     7
 66
     1
 10
0.0
 20
0.0
 30
0.0
 70
     1
  0
VERTEX
  5
17B
  8
0
  6
CONTINUOUS
 62
     7
 10
103.4999999999961
 20
-10.0
 30
0.0
  0
VERTEX
  5
17C
  8
0
  6
CONTINUOUS
 62
     7
 10
106.9999999999961
 20
-10.0
 30
0.0
  0
VERTEX
  5
17D
  8
0
  6
CONTINUOUS
 62
     7
 10
106.9999999999961
 20
10.0
 30
0.0
  0
VERTEX
  5
17E
  8
0
  6
CONTINUOUS
 62
     7
 10
103.4999999999961
 20
10.0
 30
0.0
  0
VERTEX
  5
17F
  8
0
  6
CONTINUOUS
 62
     7
 10
103.4999999999961
 20
-10.0
 30
0.0
  0
SEQEND
  5
194
  8
0
  6
CONTINUOUS
 62
     7
  0
POLYLINE
  5
111
  8
0
  6
CONTINUOUS
 62
     7
 66
     1
 10
0.0
 20
0.0
 30
0.0
 70
     1
  0
VERTEX
  5
180
  8
0
  6
CONTINUOUS
 62
     7
 10
106.9999999999961
 20
-8.5
 30
0.0
  0
VERTEX
  5
181
  8
0
  6
CONTINUOUS
 62
     7
 10
114.4999999999961
 20
-8.5
 30
0.0
  0
VERTEX
  5
182
  8
0
  6
CONTINUOUS
 62
     7
 10
114.4999999999961
 20
8.49999999999996
 30
0.0
  0
VERTEX
  5
183
  8
0
  6
CONTINUOUS
 62
     7
 10
106.9999999999961
 20
8.49999999999996
 30
0.0
  0
VERTEX
  5
184
  8
0
  6
CONTINUOUS
 62
     7
 10
106.9999999999961
 20
-8.5
 30
0.0
  0
SEQEND
  5
193
  8
0
  6
CONTINUOUS
 62
     7
  0
POLYLINE
  5
112
  8
0
  6
CONTINUOUS
 62
     7
 66
     1
 10
0.0
 20
0.0
 30
0.0
 70
     1
  0
VERTEX
  5
185
  8
0
  6
CONTINUOUS
 62
     7
 10
116.4999999999961
 20
-9.00000000004101
 30
0.0
  0
VERTEX
  5
186
  8
0
  6
CONTINUOUS
 62
     7
 10
120.4999999999961
 20
-9.00000000004101
 30
0.0
  0
VERTEX
  5
187
  8
0
  6
CONTINUOUS
 62
     7
 10
120.4999999999961
 20
9.00000004947897
 30
0.0
  0
VERTEX
  5
188
  8
0
  6
CONTINUOUS
 62
     7
 10
116.4999999999961
 20
9.00000004947897
 30
0.0
  0
VERTEX
  5
189
  8
0
  6
CONTINUOUS
 62
     7
 10
116.4999999999961
 20
-9.00000000004101
 30
0.0
  0
SEQEND
  5
192
  8
0
  6
CONTINUOUS
 62
     7
  0
POLYLINE
  5
113
  8
0
  6
CONTINUOUS
 62
     7
 66
     1
 10
0.0
 20
0.0
 30
0.0
 70
     1
  0
VERTEX
  5
18A
  8
0
  6
CONTINUOUS
 62
     7
 10
120.4999999999961
 20
8.0
 30
0.0
  0
VERTEX
  5
18B
  8
0
  6
CONTINUOUS
 62
     7
 10
120.4999999999961
 20
8.0
 30
0.0
 42
-0.41421356237312
  0
VERTEX
  5
18C
  8
0
  6
CONTINUOUS
 62
     7
 10
122.9999999999961
 20
5.5
 30
0.0
  0
VERTEX
  5
18D
  8
0
  6
CONTINUOUS
 62
     7
 10
122.9999999999961
 20
-5.49999999999999
 30
0.0
 42
-0.41421356237305
  0
VERTEX
  5
18E
  8
0
  6
CONTINUOUS
 62
     7
 10
120.4999999999961
 20
-7.99999999999999
 30
0.0
  0
VERTEX
  5
18F
  8
0
  6
CONTINUOUS
 62
     7
 10
120.4999999999961
 20
-7.99999999999999
 30
0.0
  0
VERTEX
  5
190
  8
0
  6
CONTINUOUS
 62
     7
 10
120.4999999999961
 20
8.0
 30
0.0
  0
SEQEND
  5
191
  8
0
  6
CONTINUOUS
 62
     7
  0
ENDSEC
  0
EOF
