  0
SECTION
  2
HEADER
  9
$ACADVER
  1
AC1014
  9
$ACADMAINTVER
 70
             0
  9
$DWGCODEPAGE
  3
ANSI_1252
  9
$INSBASE
 10
0.0
 20
0.0
 30
0.0
  9
$EXTMIN
 10
1.00000000000000E+20
 20
1.00000000000000E+20
 30
1.00000000000000E+20
  9
$EXTMAX
 10
-1.00000000000000E+20
 20
-1.00000000000000E+20
 30
-1.00000000000000E+20
  9
$LIMMIN
 10
0.0
 20
0.0
  9
$LIMMAX
 10
0.0
 20
0.0
  9
$ORTHOMODE
 70
             0
  9
$REGENMODE
 70
             1
  9
$FILLMODE
 70
             1
  9
$QTEXTMODE
 70
             0
  9
$MIRRTEXT
 70
             1
  9
$DRAGMODE
 70
             2
  9
$LTSCALE
 40
1.0
  9
$OSMODE
 70
             0
  9
$ATTMODE
 70
             1
  9
$TEXTSIZE
 40
0.2
  9
$TRACEWID
 40
0.05
  9
$TEXTSTYLE
  7
STANDARD
  9
$CLAYER
  8
0
  9
$CELTYPE
  6
CONTINUOUS
  9
$CECOLOR
 62
           256
  9
$CELTSCALE
 40
1.0
  9
$DELOBJ
 70
             1
  9
$DISPSILH
 70
             0
  9
$DIMSCALE
 40
1.0
  9
$DIMASZ
 40
0.18
  9
$DIMEXO
 40
0.0625
  9
$DIMDLI
 40
0.38
  9
$DIMRND
 40
0.0
  9
$DIMDLE
 40
0.0
  9
$DIMEXE
 40
0.18
  9
$DIMTP
 40
0.0
  9
$DIMTM
 40
0.0
  9
$DIMTXT
 40
0.18
  9
$DIMCEN
 40
0.09
  9
$DIMTSZ
 40
0.0
  9
$DIMTOL
 70
             0
  9
$DIMLIM
 70
             0
  9
$DIMTIH
 70
             1
  9
$DIMTOH
 70
             1
  9
$DIMSE1
 70
             0
  9
$DIMSE2
 70
             0
  9
$DIMTAD
 70
             0
  9
$DIMZIN
 70
             0
  9
$DIMBLK
  1

  9
$DIMASO
 70
             1
  9
$DIMSHO
 70
             1
  9
$DIMPOST
  1

  9
$DIMAPOST
  1

  9
$DIMALT
 70
             0
  9
$DIMALTD
 70
             2
  9
$DIMALTF
 40
25.4
  9
$DIMLFAC
 40
1.0
  9
$DIMTOFL
 70
             0
  9
$DIMTVP
 40
0.0
  9
$DIMTIX
 70
             0
  9
$DIMSOXD
 70
             0
  9
$DIMSAH
 70
             0
  9
$DIMBLK1
  1

  9
$DIMBLK2
  1

  9
$DIMSTYLE
  2
STANDARD
  9
$DIMCLRD
 70
             0
  9
$DIMCLRE
 70
             0
  9
$DIMCLRT
 70
             0
  9
$DIMTFAC
 40
1.0
  9
$DIMGAP
 40
0.09
  9
$DIMJUST
 70
             0
  9
$DIMSD1
 70
             0
  9
$DIMSD2
 70
             0
  9
$DIMTOLJ
 70
             1
  9
$DIMTZIN
 70
             0
  9
$DIMALTZ
 70
             0
  9
$DIMALTTZ
 70
             0
  9
$DIMFIT
 70
             3
  9
$DIMUPT
 70
             0
  9
$DIMUNIT
 70
             2
  9
$DIMDEC
 70
             4
  9
$DIMTDEC
 70
             4
  9
$DIMALTU
 70
             2
  9
$DIMALTTD
 70
             2
  9
$DIMTXSTY
  7
STANDARD
  9
$DIMAUNIT
 70
             0
  9
$LUNITS
 70
             2
  9
$LUPREC
 70
             4
  9
$SKETCHINC
 40
0.1
  9
$FILLETRAD
 40
0.0
  9
$AUNITS
 70
             0
  9
$AUPREC
 70
             0
  9
$MENU
  1
acad
  9
$ELEVATION
 40
0.0
  9
$PELEVATION
 40
0.0
  9
$THICKNESS
 40
0.0
  9
$LIMCHECK
 70
             0
  9
$BLIPMODE
 70
             1
  9
$CHAMFERA
 40
0.0
  9
$CHAMFERB
 40
0.0
  9
$CHAMFERC
 40
0.0
  9
$CHAMFERD
 40
0.0
  9
$SKPOLY
 70
             0
  9
$TDCREATE
 40
0.000000000
  9
$TDUPDATE
 40
0.000000000
  9
$TDINDWG
 40
0.0000000000
  9
$TDUSRTIMER
 40
0.0000000000
  9
$USRTIMER
 70
             1
  9
$ANGBASE
 50
0.0
  9
$ANGDIR
 70
             0
  9
$PDMODE
 70
             0
  9
$PDSIZE
 40
0.0
  9
$PLINEWID
 40
0.0
  9
$COORDS
 70
             0
  9
$SPLFRAME
 70
             0
  9
$SPLINETYPE
 70
             6
  9
$SPLINESEGS
 70
             8
  9
$ATTDIA
 70
             0
  9
$ATTREQ
 70
             1
  9
$HANDLING
 70
             1
  9
$HANDSEED
  5
440
  9
$SURFTAB1
 70
             6
  9
$SURFTAB2
 70
             6
  9
$SURFTYPE
 70
             6
  9
$SURFU
 70
             6
  9
$SURFV
 70
             6
  9
$UCSNAME
  2

  9
$UCSORG
 10
0.0
 20
0.0
 30
0.0
  9
$UCSXDIR
 10
1.0
 20
0.0
 30
0.0
  9
$UCSYDIR
 10
0.0
 20
1.0
 30
0.0
  9
$PUCSNAME
  2

  9
$PUCSORG
 10
0.0
 20
0.0
 30
0.0
  9
$PUCSXDIR
 10
1.0
 20
0.0
 30
0.0
  9
$PUCSYDIR
 10
0.0
 20
1.0
 30
0.0
  9
$USERI1
 70
             0
  9
$USERI2
 70
             0
  9
$USERI3
 70
             0
  9
$USERI4
 70
             0
  9
$USERI5
 70
             0
  9
$USERR1
 40
11.6
  9
$USERR2
 40
0.0
  9
$USERR3
 40
0.0
  9
$USERR4
 40
0.0
  9
$USERR5
 40
0.0
  9
$WORLDVIEW
 70
             1
  9
$SHADEDGE
 70
             3
  9
$SHADEDIF
 70
            70
  9
$TILEMODE
 70
             1
  9
$MAXACTVP
 70
            16
  9
$PINSBASE
 10
0.0
 20
0.0
 30
0.0
  9
$PLIMCHECK
 70
             0
  9
$PEXTMIN
 10
1.00000000000000E+20
 20
1.00000000000000E+20
 30
1.00000000000000E+20
  9
$PEXTMAX
 10
-1.00000000000000E+20
 20
-1.00000000000000E+20
 30
-1.00000000000000E+20
  9
$PLIMMIN
 10
0.0
 20
0.0
  9
$PLIMMAX
 10
12.0
 20
9.0
  9
$UNITMODE
 70
             0
  9
$VISRETAIN
 70
             0
  9
$PLINEGEN
 70
             1
  9
$PSLTSCALE
 70
             0
  9
$TREEDEPTH
 70
          3020
  9
$PICKSTYLE
 70
             1
  9
$CMLSTYLE
  2
STANDARD
  9
$CMLJUST
 70
             0
  9
$CMLSCALE
 40
1.0
  9
$PROXYGRAPHICS
 70
             0
  9
$MEASUREMENT
 70
             1
  0
ENDSEC
  0
SECTION
  2
CLASSES
  0
CLASS
  1
LWPOLYLINE
  2
AcDbPolyline
  3
"AutoCAD"
 90
        0
280
             0
281
             1
  0
CLASS
  1
IMAGE
  2
AcDbRasterImage
  3
ISM
 90
      127
280
             0
281
             1
  0
CLASS
  1
OLE2FRAME
  2
AcDbOle2Frame
  3
""
 90
        0
280
             0
281
             1
  0
CLASS
  1
HATCH
  2
AcDbHatch
  3
"ACAD_SEDONA"
 90
        0
280
             0
281
             1
  0
CLASS
  1
DICTIONARYVAR
  2
AcDbDictionaryVar
  3
"AutoCAD"
 90
        0
280
             0
281
             0
  0
CLASS
  1
RASTERVARIABLES
  2
AcDbRasterVariables
  3
ISM
 90
        0
280
             0
281
             0
  0
CLASS
  1
IMAGEDEF
  2
AcDbRasterImageDef
  3
ISM
 90
        0
280
             0
281
             0
  0
CLASS
  1
IMAGEDEF_REACTOR
  2
AcDbRasterImageDefReactor
  3
ISM
 90
        1
280
             0
281
             0
  0
CLASS
  1
IDBUFFER
  2
AcDbIdBuffer
  3
"Acad"
 90
        0
280
             0
281
             0
  0
CLASS
  1
SPATIAL_FILTER
  2
AcDbSpatialFilter
  3
"Acad"
 90
        0
280
             0
281
             0
  0
CLASS
  1
XRECORD
  2
AcDbXrecord
  3
"<Built In>"
 90
        0
280
             0
281
             0
  0
CLASS
  1
SORTENTSTABLE
  2
AcDbSortentsTable
  3
"AutoCAD"
 90
        0
280
             0
281
             0
  0
CLASS
  1
LAYER_INDEX
  2
AcDbLayerIndex
  3
"Acad"
 90
        0
280
             0
281
             0
  0
CLASS
  1
SPATIAL_INDEX
  2
AcDbSpatialIndex
  3
"Acad"
 90
        0
280
             0
281
             0
  0
CLASS
  1
OBJECT_PTR
  2
CAseDLPNTableRecord
  3
"ASE-LPNTableRecord"
 90
        1
280
             0
281
             0
  0
CLASS
  1
LAYOUT
  2
AcDbLayout
  3
"AutoCAD 2000"
 90
        1
280
             0
281
             0
  0
CLASS
  1
PLOTSETTINGS
  2
AcDbPlotSettings
  3
"AutoCAD 2000"
 90
        1
280
             0
281
             0
  0
CLASS
  1
ACDBDICTIONARYWDFLT
  2
AcDbDictionaryWithDefault
  3
"AutoCAD 2000"
 90
        1
280
             0
281
             0
  0
CLASS
  1
ACDBPLACEHOLDER
  2
AcDbPlaceHolder
  3
"AutoCAD 2000"
 90
        1
280
             0
281
             0
  0
ENDSEC
  0
SECTION
  2
TABLES
  0
TABLE
  2
VPORT
  5
7
100
AcDbSymbolTable
 70
             1
  0
VPORT
  5
15
100
AcDbSymbolTableRecord
100
AcDbViewportTableRecord
  2
*ACTIVE
 70
             0
 10
0.0
 20
0.0
 11
1.0
 21
1.0
 12
69.5
 22
-9.0
 13
0.0
 23
0.0
 14
1.0
 24
1.0
 15
0.0
 25
0.0
 16
0.0
 26
0.0
 36
1.0
 17
0.0
 27
0.0
 37
0.0
 40
129.7203342618385
 41
1.60267857142857
 42
50.0
 43
0.0
 44
0.0
 50
0.0
 51
0.0
 71
             0
 72
           100
 73
             1
 74
             1
 75
             0
 76
             0
 77
             0
 78
             0
  0
ENDTAB
  0
TABLE
  2
LTYPE
  5
4
100
AcDbSymbolTable
 70
            10
  0
LTYPE
  5
11
100
AcDbSymbolTableRecord
100
AcDbLinetypeTableRecord
  2
BYBLOCK
 70
            64
  3

 72
            65
 73
             0
 40
0.0
  0
LTYPE
  5
12
100
AcDbSymbolTableRecord
100
AcDbLinetypeTableRecord
  2
BYLAYER
 70
            64
  3

 72
            65
 73
             0
 40
0.0
  0
LTYPE
  5
13
100
AcDbSymbolTableRecord
100
AcDbLinetypeTableRecord
  2
CONTINUOUS
 70
            64
  3
Solid line
 72
            65
 73
             0
 40
0.0
  0
LTYPE
  5
1D
100
AcDbSymbolTableRecord
100
AcDbLinetypeTableRecord
  2
DASHED
 70
            64
  3
Dashed
 72
            65
 73
             2
 40
15.0
 49
12.0
 74
             0
 49
-3.0
 74
             0
  0
LTYPE
  5
1E
100
AcDbSymbolTableRecord
100
AcDbLinetypeTableRecord
  2
DOTTED
 70
            64
  3
Dotted
 72
            65
 73
             2
 40
3.5
 49
0.5
 74
             0
 49
-3.0
 74
             0
  0
LTYPE
  5
1F
100
AcDbSymbolTableRecord
100
AcDbLinetypeTableRecord
  2
DOT_CENTER
 70
            64
  3
Dot_Center
 72
            65
 73
             4
 40
2.0
 49
1.25
 74
             0
 49
-0.25
 74
             0
 49
0.25
 74
             0
 49
-0.25
 74
             0
  0
LTYPE
  5
20
100
AcDbSymbolTableRecord
100
AcDbLinetypeTableRecord
  2
LONG_DASHED
 70
            64
  3
Long_Dashed
 72
            65
 73
             2
 40
2.0
 49
1.5
 74
             0
 49
-0.5
 74
             0
  0
LTYPE
  5
21
100
AcDbSymbolTableRecord
100
AcDbLinetypeTableRecord
  2
DASH_CENTER
 70
            64
  3
Dash_Center
 72
            65
 73
             4
 40
36.0
 49
24.0
 74
             0
 49
-3.0
 74
             0
 49
6.0
 74
             0
 49
-3.0
 74
             0
  0
LTYPE
  5
22
100
AcDbSymbolTableRecord
100
AcDbLinetypeTableRecord
  2
PHANTOM
 70
            64
  3
Phantom
 72
            65
 73
             6
 40
2.5
 49
1.25
 74
             0
 49
-0.25
 74
             0
 49
0.25
 74
             0
 49
-0.25
 74
             0
 49
0.25
 74
             0
 49
-0.25
 74
             0
  0
LTYPE
  5
23
100
AcDbSymbolTableRecord
100
AcDbLinetypeTableRecord
  2
CENTER_DASH_DASH
 70
            64
  3
Center_Dash_Dash
 72
            65
 73
             6
 40
22.0
 49
12.0
 74
             0
 49
-3.0
 74
             0
 49
0.5
 74
             0
 49
-3.0
 74
             0
 49
0.5
 74
             0
 49
-3.0
 74
             0
  0
ENDTAB
  0
TABLE
  2
LAYER
  5
2
100
AcDbSymbolTable
 70
             2
  0
LAYER
  5
14
100
AcDbSymbolTableRecord
100
AcDbLayerTableRecord
  2
0
 70
             0
 62
             7
  6
CONTINUOUS
  0
LAYER
  5
24
100
AcDbSymbolTableRecord
100
AcDbLayerTableRecord
  2
1
 70
             0
 62
             7
  6
CONTINUOUS
  0
ENDTAB
  0
TABLE
  2
STYLE
  5
3
100
AcDbSymbolTable
 70
             1
  0
STYLE
  5
17
100
AcDbSymbolTableRecord
100
AcDbTextStyleTableRecord
  2
STANDARD
 70
             0
 40
0.0
 41
1.0
 50
0.0
 71
             0
 42
0.0
  3
txt
  4

  0
ENDTAB
  0
TABLE
  2
VIEW
  5
5
100
AcDbSymbolTable
 70
             0
  0
ENDTAB
  0
TABLE
  2
UCS
  5
6
100
AcDbSymbolTable
 70
             0
  0
ENDTAB
  0
TABLE
  2
APPID
  5
8
100
AcDbSymbolTable
 70
             1
  0
APPID
  5
16
100
AcDbSymbolTableRecord
100
AcDbRegAppTableRecord
  2
ACAD
 70
             0
  0
ENDTAB
  0
TABLE
  2
DIMSTYLE
  5
9
100
AcDbSymbolTable
 70
             1
  0
DIMSTYLE
105
18
100
AcDbSymbolTableRecord
100
AcDbDimStyleTableRecord
  2
STANDARD
 70
             0
  3

  4

  5

  6

  7

 40
1.0
 41
0.18
 42
0.0625
 43
0.38
 44
0.18
 45
0.0
 46
0.0
 47
0.0
 48
0.0
 71
             0
 72
             0
 73
             1
 74
             1
 75
             0
 76
             0
 77
             0
 78
             0
140
0.18
141
0.09
142
0.0
143
25.4
144
1.0
145
0.0
146
1.0
147
0.09
170
             0
171
             2
172
             0
173
             0
174
             0
175
             0
176
             0
177
             0
178
             0
270
             2
271
             4
272
             4
273
             2
274
             2
275
             0
280
             0
281
             0
282
             0
283
             1
284
             0
285
             0
286
             0
287
             0
288
             0
340
17
  0
ENDTAB
  0
TABLE
  2
BLOCK_RECORD
  5
1
100
AcDbSymbolTable
 70
             0
  0
BLOCK_RECORD
  5
A
100
AcDbSymbolTableRecord
100
AcDbBlockTableRecord
  2
*MODEL_SPACE
  0
BLOCK_RECORD
  5
B
100
AcDbSymbolTableRecord
100
AcDbBlockTableRecord
  2
*PAPER_SPACE
  0
ENDTAB
  0
ENDSEC
  0
SECTION
  2
BLOCKS
  0
BLOCK
  5
D
100
AcDbEntity
  8
0
100
AcDbBlockBegin
  2
*MODEL_SPACE
 70
             0
 10
0.0
 20
0.0
 30
0.0
  3
*MODEL_SPACE
  1

  0
ENDBLK
  5
E
100
AcDbEntity
  8
0
100
AcDbBlockEnd
  0
BLOCK
  5
F
100
AcDbEntity
 67
             1
  8
0
100
AcDbBlockBegin
  2
*PAPER_SPACE
 70
             0
 10
0.0
 20
0.0
 30
0.0
  3
*PAPER_SPACE
  1

  0
ENDBLK
  5
10
100
AcDbEntity
 67
             1
  8
0
100
AcDbBlockEnd
  0
ENDSEC
  0
SECTION
  2
ENTITIES
  0
ARC
  5
43E
100
AcDbEntity
  8
1
  6
CONTINUOUS
 62
             7
100
AcDbCircle
 10
96.0284053380684
 20
-40.50000000000001
 40
0.49999999999997
100
AcDbArc
 50
-35.537677791983
 51
90.0
  0
ARC
  5
43D
100
AcDbEntity
  8
1
  6
CONTINUOUS
 62
             7
100
AcDbCircle
 10
92.5
 20
-32.50000000000001
 40
0.5
100
AcDbArc
 50
90.0
 51
180.0
  0
ARC
  5
43C
100
AcDbEntity
  8
1
  6
CONTINUOUS
 62
             7
100
AcDbCircle
 10
98.5
 20
-32.50000000000001
 40
0.5
100
AcDbArc
 50
0.0
 51
90.0
  0
ARC
  5
43B
100
AcDbEntity
  8
1
  6
CONTINUOUS
 62
             7
100
AcDbCircle
 10
92.5
 20
14.49999999999999
 40
0.5
100
AcDbArc
 50
180.0
 51
-90.0
  0
ARC
  5
43A
100
AcDbEntity
  8
1
  6
CONTINUOUS
 62
             7
100
AcDbCircle
 10
98.5
 20
14.49999999999999
 40
0.5
100
AcDbArc
 50
-90.0
 51
0.0
  0
ARC
  5
439
100
AcDbEntity
  8
1
  6
CONTINUOUS
 62
             7
100
AcDbCircle
 10
96.0284053380684
 20
22.49999999999999
 40
0.5
100
AcDbArc
 50
-90.0
 51
35.53767779197438
  0
ARC
  5
438
100
AcDbEntity
  8
1
  6
CONTINUOUS
 62
             7
100
AcDbCircle
 10
-23.99999999999999
 20
-56.0
 40
1.0
100
AcDbArc
 50
180.0
 51
-90.0
  0
ARC
  5
437
100
AcDbEntity
  8
1
  6
CONTINUOUS
 62
             7
100
AcDbCircle
 10
-23.99999999999999
 20
38.0
 40
1.0
100
AcDbArc
 50
90.0
 51
180.0
  0
ARC
  5
436
100
AcDbEntity
  8
1
  6
CONTINUOUS
 62
             7
100
AcDbCircle
 10
22.00000000000001
 20
38.0
 40
1.0
100
AcDbArc
 50
0.0
 51
90.0
  0
ARC
  5
435
100
AcDbEntity
  8
1
  6
CONTINUOUS
 62
             7
100
AcDbCircle
 10
22.00000000000001
 20
-56.0
 40
1.0
100
AcDbArc
 50
-90.0
 51
0.0
  0
ARC
  5
434
100
AcDbEntity
  8
1
  6
CONTINUOUS
 62
             7
100
AcDbCircle
 10
55.50000000000001
 20
-55.04181287524542
 40
1.5
100
AcDbArc
 50
180.0
 51
-94.00000000000003
  0
ARC
  5
433
100
AcDbEntity
  8
1
  6
CONTINUOUS
 62
             7
100
AcDbCircle
 10
55.50000000000001
 20
37.04181287524542
 40
1.5
100
AcDbArc
 50
94.00000000000003
 51
179.99999999999918
  0
ARC
  5
432
100
AcDbEntity
  8
1
  6
CONTINUOUS
 62
             7
100
AcDbCircle
 10
-4.99999999999991
 20
-6.24999999999999
 40
0.49999999999999
100
AcDbArc
 50
90.00000000000978
 51
180.0
  0
ARC
  5
431
100
AcDbEntity
  8
1
  6
CONTINUOUS
 62
             7
100
AcDbCircle
 10
-5.0
 20
-6.75
 40
0.5
100
AcDbArc
 50
180.0
 51
-89.99999999999022
  0
ARC
  5
430
100
AcDbEntity
  8
1
  6
CONTINUOUS
 62
             7
100
AcDbCircle
 10
16.75
 20
-6.75
 40
0.5
100
AcDbArc
 50
-90.0
 51
0.0
  0
ARC
  5
42F
100
AcDbEntity
  8
1
  6
CONTINUOUS
 62
             7
100
AcDbCircle
 10
16.75
 20
-6.25
 40
0.5
100
AcDbArc
 50
0.0
 51
90.0
  0
ARC
  5
42E
100
AcDbEntity
  8
1
  6
CONTINUOUS
 62
             7
100
AcDbCircle
 10
-4.99999999999991
 20
-0.24999999999999
 40
0.49999999999999
100
AcDbArc
 50
90.00000000000978
 51
180.0
  0
ARC
  5
42D
100
AcDbEntity
  8
1
  6
CONTINUOUS
 62
             7
100
AcDbCircle
 10
-5.0
 20
-0.75
 40
0.5
100
AcDbArc
 50
180.0
 51
-89.99999999999022
  0
ARC
  5
42C
100
AcDbEntity
  8
1
  6
CONTINUOUS
 62
             7
100
AcDbCircle
 10
16.75
 20
-0.75
 40
0.5
100
AcDbArc
 50
-90.0
 51
0.0
  0
ARC
  5
42B
100
AcDbEntity
  8
1
  6
CONTINUOUS
 62
             7
100
AcDbCircle
 10
16.75
 20
-0.25
 40
0.5
100
AcDbArc
 50
0.0
 51
90.0
  0
ARC
  5
42A
100
AcDbEntity
  8
1
  6
CONTINUOUS
 62
             7
100
AcDbCircle
 10
16.75
 20
-18.25
 40
0.5
100
AcDbArc
 50
0.0
 51
90.00000000000122
  0
ARC
  5
429
100
AcDbEntity
  8
1
  6
CONTINUOUS
 62
             7
100
AcDbCircle
 10
16.75
 20
-18.75
 40
0.5
100
AcDbArc
 50
-90.00000000000122
 51
0.0
  0
ARC
  5
428
100
AcDbEntity
  8
1
  6
CONTINUOUS
 62
             7
100
AcDbCircle
 10
-18.75
 20
-18.74999999999999
 40
0.5
100
AcDbArc
 50
180.0
 51
-90.0
  0
ARC
  5
427
100
AcDbEntity
  8
1
  6
CONTINUOUS
 62
             7
100
AcDbCircle
 10
-18.75
 20
-18.24999999999999
 40
0.49999999999999
100
AcDbArc
 50
90.0
 51
180.0
  0
ARC
  5
426
100
AcDbEntity
  8
1
  6
CONTINUOUS
 62
             7
100
AcDbCircle
 10
-18.75
 20
-12.24999999999999
 40
0.49999999999999
100
AcDbArc
 50
90.0
 51
180.0
  0
ARC
  5
425
100
AcDbEntity
  8
1
  6
CONTINUOUS
 62
             7
100
AcDbCircle
 10
-18.75000000000009
 20
-12.75
 40
0.5
100
AcDbArc
 50
180.0
 51
-89.99999999998983
  0
ARC
  5
424
100
AcDbEntity
  8
1
  6
CONTINUOUS
 62
             7
100
AcDbCircle
 10
16.75
 20
-12.75
 40
0.5
100
AcDbArc
 50
-90.0
 51
0.0
  0
ARC
  5
423
100
AcDbEntity
  8
1
  6
CONTINUOUS
 62
             7
100
AcDbCircle
 10
16.75
 20
-12.25
 40
0.5
100
AcDbArc
 50
0.0
 51
90.00000000000122
  0
ARC
  5
422
100
AcDbEntity
  8
1
  6
CONTINUOUS
 62
             7
100
AcDbCircle
 10
14.5
 20
20.25
 40
0.5
100
AcDbArc
 50
-90.0
 51
0.0
  0
ARC
  5
421
100
AcDbEntity
  8
1
  6
CONTINUOUS
 62
             7
100
AcDbCircle
 10
14.5
 20
29.25
 40
0.5
100
AcDbArc
 50
0.0
 51
90.0
  0
ARC
  5
420
100
AcDbEntity
  8
1
  6
CONTINUOUS
 62
             7
100
AcDbCircle
 10
-16.5
 20
29.25
 40
0.5
100
AcDbArc
 50
90.0
 51
180.0
  0
ARC
  5
41F
100
AcDbEntity
  8
1
  6
CONTINUOUS
 62
             7
100
AcDbCircle
 10
-16.5
 20
20.25
 40
0.5
100
AcDbArc
 50
180.0
 51
-90.0
  0
ARC
  5
41E
100
AcDbEntity
  8
1
  6
CONTINUOUS
 62
             7
100
AcDbCircle
 10
-16.5
 20
6.25
 40
0.5
100
AcDbArc
 50
180.0
 51
-90.0
  0
ARC
  5
41D
100
AcDbEntity
  8
1
  6
CONTINUOUS
 62
             7
100
AcDbCircle
 10
-16.5
 20
15.25
 40
0.5
100
AcDbArc
 50
90.0
 51
180.0
  0
ARC
  5
41C
100
AcDbEntity
  8
1
  6
CONTINUOUS
 62
             7
100
AcDbCircle
 10
14.5
 20
15.25
 40
0.5
100
AcDbArc
 50
0.0
 51
90.0
  0
ARC
  5
41B
100
AcDbEntity
  8
1
  6
CONTINUOUS
 62
             7
100
AcDbCircle
 10
14.5
 20
6.25
 40
0.5
100
AcDbArc
 50
-90.0
 51
0.0
  0
ARC
  5
41A
100
AcDbEntity
  8
1
  6
CONTINUOUS
 62
             7
100
AcDbCircle
 10
-8.5
 20
1.5
 40
0.5
100
AcDbArc
 50
0.0
 51
90.0
  0
ARC
  5
419
100
AcDbEntity
  8
1
  6
CONTINUOUS
 62
             7
100
AcDbCircle
 10
-8.5
 20
-7.5
 40
0.5
100
AcDbArc
 50
-90.0
 51
0.0
  0
ARC
  5
418
100
AcDbEntity
  8
1
  6
CONTINUOUS
 62
             7
100
AcDbCircle
 10
-16.5
 20
-7.5
 40
0.5
100
AcDbArc
 50
180.0
 51
-90.0
  0
ARC
  5
417
100
AcDbEntity
  8
1
  6
CONTINUOUS
 62
             7
100
AcDbCircle
 10
-16.5
 20
1.5
 40
0.5
100
AcDbArc
 50
90.0
 51
180.0
  0
ARC
  5
416
100
AcDbEntity
  8
1
  6
CONTINUOUS
 62
             7
100
AcDbCircle
 10
-18.75
 20
-27.5
 40
0.5
100
AcDbArc
 50
90.0
 51
180.0
  0
ARC
  5
415
100
AcDbEntity
  8
1
  6
CONTINUOUS
 62
             7
100
AcDbCircle
 10
-18.75
 20
-34.5
 40
0.5
100
AcDbArc
 50
180.0
 51
-90.0
  0
ARC
  5
414
100
AcDbEntity
  8
1
  6
CONTINUOUS
 62
             7
100
AcDbCircle
 10
7.25
 20
-34.5
 40
0.5
100
AcDbArc
 50
-90.0
 51
0.0
  0
ARC
  5
413
100
AcDbEntity
  8
1
  6
CONTINUOUS
 62
             7
100
AcDbCircle
 10
7.25
 20
-27.5
 40
0.5
100
AcDbArc
 50
0.0
 51
90.0
  0
ARC
  5
412
100
AcDbEntity
  8
1
  6
CONTINUOUS
 62
             7
100
AcDbCircle
 10
-11.75
 20
-27.5
 40
0.5
100
AcDbArc
 50
0.0
 51
90.0
  0
ARC
  5
411
100
AcDbEntity
  8
1
  6
CONTINUOUS
 62
             7
100
AcDbCircle
 10
-11.75
 20
-34.5
 40
0.5
100
AcDbArc
 50
-90.0
 51
0.0
  0
ARC
  5
410
100
AcDbEntity
  8
1
  6
CONTINUOUS
 62
             7
100
AcDbCircle
 10
0.64038820320221
 20
-34.5
 40
0.50000000000004
100
AcDbArc
 50
-165.96375653207431
 51
-90.0
  0
ARC
  5
40F
100
AcDbEntity
  8
1
  6
CONTINUOUS
 62
             7
100
AcDbCircle
 10
0.64038820320221
 20
-27.5
 40
0.5
100
AcDbArc
 50
90.0
 51
165.96375653207431
  0
ARC
  5
40E
100
AcDbEntity
  8
1
  6
CONTINUOUS
 62
             7
100
AcDbCircle
 10
-2.25
 20
-34.5
 40
0.5
100
AcDbArc
 50
-90.0
 51
0.0
  0
ARC
  5
40D
100
AcDbEntity
  8
1
  6
CONTINUOUS
 62
             7
100
AcDbCircle
 10
-2.25
 20
-27.5
 40
0.5
100
AcDbArc
 50
0.0
 51
90.0
  0
ARC
  5
40C
100
AcDbEntity
  8
1
  6
CONTINUOUS
 62
             7
100
AcDbCircle
 10
-9.25
 20
-34.5
 40
0.5
100
AcDbArc
 50
180.0
 51
-90.0
  0
ARC
  5
40B
100
AcDbEntity
  8
1
  6
CONTINUOUS
 62
             7
100
AcDbCircle
 10
-9.25
 20
-27.5
 40
0.5
100
AcDbArc
 50
90.0
 51
180.0
  0
ARC
  5
40A
100
AcDbEntity
  8
1
  6
CONTINUOUS
 62
             7
100
AcDbCircle
 10
-2.25
 20
-45.50000000000001
 40
0.5
100
AcDbArc
 50
-90.0
 51
0.0
  0
ARC
  5
409
100
AcDbEntity
  8
1
  6
CONTINUOUS
 62
             7
100
AcDbCircle
 10
-2.25
 20
-38.5
 40
0.5
100
AcDbArc
 50
0.0
 51
90.0
  0
ARC
  5
408
100
AcDbEntity
  8
1
  6
CONTINUOUS
 62
             7
100
AcDbCircle
 10
-9.25
 20
-45.50000000000001
 40
0.5
100
AcDbArc
 50
180.0
 51
-90.0
  0
ARC
  5
407
100
AcDbEntity
  8
1
  6
CONTINUOUS
 62
             7
100
AcDbCircle
 10
-9.25
 20
-38.5
 40
0.5
100
AcDbArc
 50
90.0
 51
180.0
  0
ARC
  5
406
100
AcDbEntity
  8
1
  6
CONTINUOUS
 62
             7
100
AcDbCircle
 10
7.25
 20
-45.50000000000001
 40
0.5
100
AcDbArc
 50
-90.0
 51
0.0
  0
ARC
  5
405
100
AcDbEntity
  8
1
  6
CONTINUOUS
 62
             7
100
AcDbCircle
 10
7.25
 20
-38.5
 40
0.5
100
AcDbArc
 50
0.0
 51
90.0
  0
ARC
  5
404
100
AcDbEntity
  8
1
  6
CONTINUOUS
 62
             7
100
AcDbCircle
 10
0.25
 20
-45.50000000000001
 40
0.5
100
AcDbArc
 50
180.0
 51
-90.0
  0
ARC
  5
403
100
AcDbEntity
  8
1
  6
CONTINUOUS
 62
             7
100
AcDbCircle
 10
0.25
 20
-38.5
 40
0.5
100
AcDbArc
 50
90.0
 51
180.0
  0
ARC
  5
402
100
AcDbEntity
  8
1
  6
CONTINUOUS
 62
             7
100
AcDbCircle
 10
7.25
 20
-40.62128560860607
 40
0.49999999999999
100
AcDbArc
 50
-79.99999999999911
 51
0.0
  0
ARC
  5
401
100
AcDbEntity
  8
1
  6
CONTINUOUS
 62
             7
100
AcDbCircle
 10
7.25
 20
-42.14442552643469
 40
0.5
100
AcDbArc
 50
0.0
 51
100.00000000000091
  0
ARC
  5
400
100
AcDbEntity
  8
1
  6
CONTINUOUS
 62
             7
100
AcDbCircle
 10
16.75
 20
-45.50000000000001
 40
0.5
100
AcDbArc
 50
-90.0
 51
0.0
  0
ARC
  5
3FF
100
AcDbEntity
  8
1
  6
CONTINUOUS
 62
             7
100
AcDbCircle
 10
16.75
 20
-38.5
 40
0.5
100
AcDbArc
 50
0.0
 51
90.0
  0
ARC
  5
3FE
100
AcDbEntity
  8
1
  6
CONTINUOUS
 62
             7
100
AcDbCircle
 10
9.75
 20
-45.50000000000001
 40
0.5
100
AcDbArc
 50
180.0
 51
-90.0
  0
ARC
  5
3FD
100
AcDbEntity
  8
1
  6
CONTINUOUS
 62
             7
100
AcDbCircle
 10
9.75
 20
-38.5
 40
0.5
100
AcDbArc
 50
90.0
 51
180.0
  0
ARC
  5
3FC
100
AcDbEntity
  8
1
  6
CONTINUOUS
 62
             7
100
AcDbCircle
 10
16.75
 20
-40.62128560860607
 40
0.49999999999999
100
AcDbArc
 50
-79.99999999999911
 51
0.0
  0
ARC
  5
3FB
100
AcDbEntity
  8
1
  6
CONTINUOUS
 62
             7
100
AcDbCircle
 10
16.75
 20
-42.14442552643469
 40
0.5
100
AcDbArc
 50
0.0
 51
100.00000000000091
  0
ARC
  5
3FA
100
AcDbEntity
  8
0
  6
CONTINUOUS
 62
             7
100
AcDbCircle
 10
158.56463480680461
 20
29.68860009363283
 40
0.19999999999999
100
AcDbArc
 50
-69.44395478041022
 51
0.0
  0
ARC
  5
3F9
100
AcDbEntity
  8
0
  6
CONTINUOUS
 62
             7
100
AcDbCircle
 10
158.56463480680461
 20
27.91139990636697
 40
0.19999999999999
100
AcDbArc
 50
0.0
 51
69.44395478041237
  0
ARC
  5
3F8
100
AcDbEntity
  8
0
  6
CONTINUOUS
 62
             7
100
AcDbCircle
 10
159.56463480680461
 20
29.68860009363283
 40
0.19999999999999
100
AcDbArc
 50
-69.44395478041022
 51
0.0
  0
ARC
  5
3F7
100
AcDbEntity
  8
0
  6
CONTINUOUS
 62
             7
100
AcDbCircle
 10
159.56463480680461
 20
27.91139990636697
 40
0.19999999999999
100
AcDbArc
 50
0.0
 51
69.44395478041237
  0
ARC
  5
3F6
100
AcDbEntity
  8
0
  6
CONTINUOUS
 62
             7
100
AcDbCircle
 10
158.56463480680461
 20
21.28860009363285
 40
0.19999999999998
100
AcDbArc
 50
-69.44395478040951
 51
0.0
  0
ARC
  5
3F5
100
AcDbEntity
  8
0
  6
CONTINUOUS
 62
             7
100
AcDbCircle
 10
158.56463480680461
 20
19.51139990636699
 40
0.19999999999999
100
AcDbArc
 50
0.0
 51
69.44395478041237
  0
ARC
  5
3F4
100
AcDbEntity
  8
0
  6
CONTINUOUS
 62
             7
100
AcDbCircle
 10
159.56463480680461
 20
21.28860009363285
 40
0.19999999999998
100
AcDbArc
 50
-69.44395478040951
 51
0.0
  0
ARC
  5
3F3
100
AcDbEntity
  8
0
  6
CONTINUOUS
 62
             7
100
AcDbCircle
 10
159.56463480680461
 20
19.51139990636699
 40
0.19999999999999
100
AcDbArc
 50
0.0
 51
69.44395478041237
  0
ARC
  5
3F2
100
AcDbEntity
  8
0
  6
CONTINUOUS
 62
             7
100
AcDbCircle
 10
158.56463480680461
 20
12.88860009363285
 40
0.19999999999996
100
AcDbArc
 50
-69.44395478040737
 51
0.0
  0
ARC
  5
3F1
100
AcDbEntity
  8
0
  6
CONTINUOUS
 62
             7
100
AcDbCircle
 10
158.56463480680461
 20
11.11139990636701
 40
0.19999999999999
100
AcDbArc
 50
0.0
 51
69.44395478041237
  0
ARC
  5
3F0
100
AcDbEntity
  8
0
  6
CONTINUOUS
 62
             7
100
AcDbCircle
 10
159.56463480680461
 20
12.88860009363285
 40
0.19999999999996
100
AcDbArc
 50
-69.44395478040737
 51
0.0
  0
ARC
  5
3EF
100
AcDbEntity
  8
0
  6
CONTINUOUS
 62
             7
100
AcDbCircle
 10
159.56463480680461
 20
11.11139990636701
 40
0.19999999999999
100
AcDbArc
 50
0.0
 51
69.44395478041237
  0
ARC
  5
3EE
100
AcDbEntity
  8
0
  6
CONTINUOUS
 62
             7
100
AcDbCircle
 10
158.56463480680461
 20
4.48860009363287
 40
0.19999999999995
100
AcDbArc
 50
-69.44395478040683
 51
0.0
  0
ARC
  5
3ED
100
AcDbEntity
  8
0
  6
CONTINUOUS
 62
             7
100
AcDbCircle
 10
158.56463480680461
 20
2.71139990636703
 40
0.19999999999999
100
AcDbArc
 50
0.0
 51
69.44395478040983
  0
ARC
  5
3EC
100
AcDbEntity
  8
0
  6
CONTINUOUS
 62
             7
100
AcDbCircle
 10
159.56463480680461
 20
4.48860009363287
 40
0.19999999999995
100
AcDbArc
 50
-69.44395478040683
 51
0.0
  0
ARC
  5
3EB
100
AcDbEntity
  8
0
  6
CONTINUOUS
 62
             7
100
AcDbCircle
 10
159.56463480680461
 20
2.71139990636703
 40
0.19999999999999
100
AcDbArc
 50
0.0
 51
69.44395478040983
  0
ARC
  5
3EA
100
AcDbEntity
  8
0
  6
CONTINUOUS
 62
             7
100
AcDbCircle
 10
158.56463480680461
 20
-3.91139990636711
 40
0.19999999999996
100
AcDbArc
 50
-69.44395478040697
 51
0.0
  0
ARC
  5
3E9
100
AcDbEntity
  8
0
  6
CONTINUOUS
 62
             7
100
AcDbCircle
 10
158.56463480680461
 20
-5.68860009363297
 40
0.19999999999999
100
AcDbArc
 50
0.0
 51
69.44395478041274
  0
ARC
  5
3E8
100
AcDbEntity
  8
0
  6
CONTINUOUS
 62
             7
100
AcDbCircle
 10
159.56463480680461
 20
-3.91139990636711
 40
0.19999999999996
100
AcDbArc
 50
-69.44395478040697
 51
0.0
  0
ARC
  5
3E7
100
AcDbEntity
  8
0
  6
CONTINUOUS
 62
             7
100
AcDbCircle
 10
159.56463480680461
 20
-5.68860009363297
 40
0.19999999999999
100
AcDbArc
 50
0.0
 51
69.44395478041274
  0
ARC
  5
3E6
100
AcDbEntity
  8
0
  6
CONTINUOUS
 62
             7
100
AcDbCircle
 10
158.56463480680461
 20
-12.31139990636709
 40
0.19999999999995
100
AcDbArc
 50
-69.44395478040647
 51
0.0
  0
ARC
  5
3E5
100
AcDbEntity
  8
0
  6
CONTINUOUS
 62
             7
100
AcDbCircle
 10
158.56463480680461
 20
-14.08860009363295
 40
0.19999999999999
100
AcDbArc
 50
0.0
 51
69.44395478041237
  0
ARC
  5
3E4
100
AcDbEntity
  8
0
  6
CONTINUOUS
 62
             7
100
AcDbCircle
 10
159.56463480680461
 20
-12.31139990636709
 40
0.19999999999995
100
AcDbArc
 50
-69.44395478040647
 51
0.0
  0
ARC
  5
3E3
100
AcDbEntity
  8
0
  6
CONTINUOUS
 62
             7
100
AcDbCircle
 10
159.56463480680461
 20
-14.08860009363295
 40
0.19999999999999
100
AcDbArc
 50
0.0
 51
69.44395478041237
  0
ARC
  5
3E2
100
AcDbEntity
  8
0
  6
CONTINUOUS
 62
             7
100
AcDbCircle
 10
158.56463480680461
 20
-20.71139990636703
 40
0.19999999999999
100
AcDbArc
 50
-69.44395478041022
 51
0.0
  0
ARC
  5
3E1
100
AcDbEntity
  8
0
  6
CONTINUOUS
 62
             7
100
AcDbCircle
 10
158.56463480680461
 20
-22.48860009363293
 40
0.19999999999999
100
AcDbArc
 50
0.0
 51
69.44395478041629
  0
ARC
  5
3E0
100
AcDbEntity
  8
0
  6
CONTINUOUS
 62
             7
100
AcDbCircle
 10
159.56463480680461
 20
-20.71139990636703
 40
0.19999999999999
100
AcDbArc
 50
-69.44395478041022
 51
0.0
  0
ARC
  5
3DF
100
AcDbEntity
  8
0
  6
CONTINUOUS
 62
             7
100
AcDbCircle
 10
159.56463480680461
 20
-22.48860009363293
 40
0.19999999999999
100
AcDbArc
 50
0.0
 51
69.44395478041629
  0
ARC
  5
3DE
100
AcDbEntity
  8
0
  6
CONTINUOUS
 62
             7
100
AcDbCircle
 10
158.56463480680461
 20
-29.11139990636701
 40
0.20000000000001
100
AcDbArc
 50
-69.44395478041274
 51
0.0
  0
ARC
  5
3DD
100
AcDbEntity
  8
0
  6
CONTINUOUS
 62
             7
100
AcDbCircle
 10
158.56463480680461
 20
-30.88860009363287
 40
0.19999999999999
100
AcDbArc
 50
0.0
 51
69.44395478041237
  0
ARC
  5
3DC
100
AcDbEntity
  8
0
  6
CONTINUOUS
 62
             7
100
AcDbCircle
 10
159.56463480680461
 20
-29.11139990636701
 40
0.20000000000001
100
AcDbArc
 50
-69.44395478041274
 51
0.0
  0
ARC
  5
3DB
100
AcDbEntity
  8
0
  6
CONTINUOUS
 62
             7
100
AcDbCircle
 10
159.56463480680461
 20
-30.88860009363287
 40
0.19999999999999
100
AcDbArc
 50
0.0
 51
69.44395478041237
  0
ARC
  5
3DA
100
AcDbEntity
  8
0
  6
CONTINUOUS
 62
             7
100
AcDbCircle
 10
158.56463480680461
 20
-37.51139990636699
 40
0.20000000000001
100
AcDbArc
 50
-69.44395478041274
 51
0.0
  0
ARC
  5
3D9
100
AcDbEntity
  8
0
  6
CONTINUOUS
 62
             7
100
AcDbCircle
 10
158.56463480680461
 20
-39.28860009363285
 40
0.19999999999999
100
AcDbArc
 50
0.0
 51
69.44395478041274
  0
ARC
  5
3D8
100
AcDbEntity
  8
0
  6
CONTINUOUS
 62
             7
100
AcDbCircle
 10
159.56463480680461
 20
-37.51139990636699
 40
0.20000000000001
100
AcDbArc
 50
-69.44395478041274
 51
0.0
  0
ARC
  5
3D7
100
AcDbEntity
  8
0
  6
CONTINUOUS
 62
             7
100
AcDbCircle
 10
159.56463480680461
 20
-39.28860009363285
 40
0.19999999999999
100
AcDbArc
 50
0.0
 51
69.44395478041274
  0
ARC
  5
3D6
100
AcDbEntity
  8
0
  6
CONTINUOUS
 62
             7
100
AcDbCircle
 10
158.56463480680461
 20
-45.911399906367
 40
0.19999999999998
100
AcDbArc
 50
-69.44395478040916
 51
0.0
  0
ARC
  5
3D5
100
AcDbEntity
  8
0
  6
CONTINUOUS
 62
             7
100
AcDbCircle
 10
158.56463480680461
 20
-47.68860009363283
 40
0.19999999999999
100
AcDbArc
 50
0.0
 51
69.44395478041058
  0
ARC
  5
3D4
100
AcDbEntity
  8
0
  6
CONTINUOUS
 62
             7
100
AcDbCircle
 10
159.56463480680461
 20
-45.911399906367
 40
0.19999999999998
100
AcDbArc
 50
-69.44395478040916
 51
0.0
  0
ARC
  5
3D3
100
AcDbEntity
  8
0
  6
CONTINUOUS
 62
             7
100
AcDbCircle
 10
159.56463480680461
 20
-47.68860009363283
 40
0.19999999999999
100
AcDbArc
 50
0.0
 51
69.44395478041058
  0
CIRCLE
  5
3D2
100
AcDbEntity
  8
0
  6
CONTINUOUS
 62
             7
100
AcDbCircle
 10
-10.09999999999999
 20
-6.59999999999999
 40
0.54999999999998
  0
CIRCLE
  5
3D1
100
AcDbEntity
  8
0
  6
CONTINUOUS
 62
             7
100
AcDbCircle
 10
12.90000000000001
 20
21.15000000000001
 40
0.54999999999998
  0
CIRCLE
  5
3D0
100
AcDbEntity
  8
0
  6
CONTINUOUS
 62
             7
100
AcDbCircle
 10
5.29999999999998
 20
21.15000000000001
 40
0.55000000000001
  0
CIRCLE
  5
3CF
100
AcDbEntity
  8
0
  6
CONTINUOUS
 62
             7
100
AcDbCircle
 10
-2.30000000000001
 20
21.15000000000001
 40
0.55000000000001
  0
CIRCLE
  5
3CE
100
AcDbEntity
  8
0
  6
CONTINUOUS
 62
             7
100
AcDbCircle
 10
-9.90000000000001
 20
21.15000000000001
 40
0.55000000000001
  0
CIRCLE
  5
3CD
100
AcDbEntity
  8
0
  6
CONTINUOUS
 62
             7
100
AcDbCircle
 10
12.90000000000001
 20
7.15000000000001
 40
0.54999999999998
  0
CIRCLE
  5
3CC
100
AcDbEntity
  8
0
  6
CONTINUOUS
 62
             7
100
AcDbCircle
 10
5.29999999999998
 20
7.15000000000001
 40
0.55000000000001
  0
CIRCLE
  5
3CB
100
AcDbEntity
  8
0
  6
CONTINUOUS
 62
             7
100
AcDbCircle
 10
-2.30000000000001
 20
7.15000000000001
 40
0.55000000000001
  0
CIRCLE
  5
3CA
100
AcDbEntity
  8
0
  6
CONTINUOUS
 62
             7
100
AcDbCircle
 10
-9.90000000000001
 20
7.15000000000001
 40
0.55000000000001
  0
ARC
  5
3C9
100
AcDbEntity
  8
1
  6
CONTINUOUS
 62
             7
100
AcDbCircle
 10
92.0
 20
71.0
 40
34.99999999999999
100
AcDbArc
 50
-132.17741860089939
 51
-90.0
  0
ARC
  5
3C8
100
AcDbEntity
  8
1
  6
CONTINUOUS
 62
             7
100
AcDbCircle
 10
92.0
 20
-89.0
 40
35.0
100
AcDbArc
 50
90.0
 51
132.17741860089939
  0
ARC
  5
3C7
100
AcDbEntity
  8
1
  6
CONTINUOUS
 62
             7
100
AcDbCircle
 10
0.50259553208404
 20
-42.57524059731693
 40
0.25259553208404
100
AcDbArc
 50
100.00000000000172
 51
-91.63588918515028
  0
ARC
  5
3C6
100
AcDbEntity
  8
1
  6
CONTINUOUS
 62
             7
100
AcDbCircle
 10
10.00259553208403
 20
-42.57524059731693
 40
0.25259553208404
100
AcDbArc
 50
99.99999999999935
 51
-91.63588918514627
  0
ARC
  5
3C5
100
AcDbEntity
  8
0
  6
CONTINUOUS
 62
             7
100
AcDbCircle
 10
160.5037549484291
 20
30.5499999999999
 40
1.00000000000001
100
AcDbArc
 50
16.95776330000297
 51
90.0
  0
ARC
  5
3C4
100
AcDbEntity
  8
0
  6
CONTINUOUS
 62
             7
100
AcDbCircle
 10
154.76463480680459
 20
28.7999999999999
 40
7.00000000000003
100
AcDbArc
 50
-16.95776330000403
 51
16.95776330000394
  0
ARC
  5
3C3
100
AcDbEntity
  8
0
  6
CONTINUOUS
 62
             7
100
AcDbCircle
 10
160.5037549484291
 20
27.0499999999999
 40
1.0
100
AcDbArc
 50
-90.0
 51
-16.95776330000355
  0
ARC
  5
3C2
100
AcDbEntity
  8
0
  6
CONTINUOUS
 62
             7
100
AcDbCircle
 10
160.5037549484291
 20
22.14999999999992
 40
1.00000000000001
100
AcDbArc
 50
16.95776330000355
 51
90.0
  0
ARC
  5
3C1
100
AcDbEntity
  8
0
  6
CONTINUOUS
 62
             7
100
AcDbCircle
 10
154.76463480680459
 20
20.39999999999992
 40
7.00000000000003
100
AcDbArc
 50
-16.95776330000403
 51
16.95776330000403
  0
ARC
  5
3C0
100
AcDbEntity
  8
0
  6
CONTINUOUS
 62
             7
100
AcDbCircle
 10
160.5037549484291
 20
18.64999999999992
 40
1.0
100
AcDbArc
 50
-90.0
 51
-16.95776330000355
  0
ARC
  5
3BF
100
AcDbEntity
  8
0
  6
CONTINUOUS
 62
             7
100
AcDbCircle
 10
160.5037549484291
 20
13.74999999999991
 40
1.00000000000002
100
AcDbArc
 50
16.95776330000521
 51
90.0
  0
ARC
  5
3BE
100
AcDbEntity
  8
0
  6
CONTINUOUS
 62
             7
100
AcDbCircle
 10
154.76463480680459
 20
11.99999999999991
 40
7.00000000000002
100
AcDbArc
 50
-16.95776330000374
 51
16.95776330000427
  0
ARC
  5
3BD
100
AcDbEntity
  8
0
  6
CONTINUOUS
 62
             7
100
AcDbCircle
 10
160.5037549484291
 20
10.24999999999991
 40
0.99999999999997
100
AcDbArc
 50
-90.0
 51
-16.9577633000015
  0
ARC
  5
3BC
100
AcDbEntity
  8
0
  6
CONTINUOUS
 62
             7
100
AcDbCircle
 10
160.5037549484291
 20
5.34999999999994
 40
1.00000000000002
100
AcDbArc
 50
16.95776330000496
 51
90.0
  0
ARC
  5
3BB
100
AcDbEntity
  8
0
  6
CONTINUOUS
 62
             7
100
AcDbCircle
 10
154.76463480680459
 20
3.59999999999997
 40
7.00000000000003
100
AcDbArc
 50
-16.95776330000422
 51
16.957763300004
  0
ARC
  5
3BA
100
AcDbEntity
  8
0
  6
CONTINUOUS
 62
             7
100
AcDbCircle
 10
160.5037549484291
 20
1.84999999999997
 40
1.00000000000003
100
AcDbArc
 50
-90.0
 51
-16.95776330000492
  0
ARC
  5
3B9
100
AcDbEntity
  8
0
  6
CONTINUOUS
 62
             7
100
AcDbCircle
 10
160.5037549484291
 20
-3.05000000000004
 40
1.00000000000002
100
AcDbArc
 50
16.95776330000491
 51
90.0
  0
ARC
  5
3B8
100
AcDbEntity
  8
0
  6
CONTINUOUS
 62
             7
100
AcDbCircle
 10
154.76463480680459
 20
-4.80000000000004
 40
7.00000000000002
100
AcDbArc
 50
-16.95776330000378
 51
16.95776330000422
  0
ARC
  5
3B7
100
AcDbEntity
  8
0
  6
CONTINUOUS
 62
             7
100
AcDbCircle
 10
160.5037549484291
 20
-6.55000000000004
 40
1.0
100
AcDbArc
 50
-90.0
 51
-16.95776330000179
  0
ARC
  5
3B6
100
AcDbEntity
  8
0
  6
CONTINUOUS
 62
             7
100
AcDbCircle
 10
160.5037549484291
 20
-11.45000000000002
 40
1.00000000000002
100
AcDbArc
 50
16.95776330000521
 51
90.0
  0
ARC
  5
3B5
100
AcDbEntity
  8
0
  6
CONTINUOUS
 62
             7
100
AcDbCircle
 10
154.76463480680459
 20
-13.20000000000002
 40
7.00000000000002
100
AcDbArc
 50
-16.95776330000394
 51
16.95776330000427
  0
ARC
  5
3B4
100
AcDbEntity
  8
0
  6
CONTINUOUS
 62
             7
100
AcDbCircle
 10
160.5037549484291
 20
-14.95000000000002
 40
1.0
100
AcDbArc
 50
-90.0
 51
-16.95776330000297
  0
ARC
  5
3B3
100
AcDbEntity
  8
0
  6
CONTINUOUS
 62
             7
100
AcDbCircle
 10
160.5037549484291
 20
-19.84999999999999
 40
1.00000000000001
100
AcDbArc
 50
16.95776330000297
 51
90.0
  0
ARC
  5
3B2
100
AcDbEntity
  8
0
  6
CONTINUOUS
 62
             7
100
AcDbCircle
 10
154.76463480680459
 20
-21.59999999999999
 40
7.00000000000002
100
AcDbArc
 50
-16.95776330000378
 51
16.95776330000394
  0
ARC
  5
3B1
100
AcDbEntity
  8
0
  6
CONTINUOUS
 62
             7
100
AcDbCircle
 10
160.5037549484291
 20
-23.34999999999999
 40
1.0
100
AcDbArc
 50
-90.0
 51
-16.95776330000179
  0
ARC
  5
3B0
100
AcDbEntity
  8
0
  6
CONTINUOUS
 62
             7
100
AcDbCircle
 10
160.5037549484291
 20
-28.24999999999994
 40
1.0
100
AcDbArc
 50
16.95776330000179
 51
90.0
  0
ARC
  5
3AF
100
AcDbEntity
  8
0
  6
CONTINUOUS
 62
             7
100
AcDbCircle
 10
154.76463480680459
 20
-29.99999999999994
 40
7.00000000000003
100
AcDbArc
 50
-16.95776330000425
 51
16.95776330000378
  0
ARC
  5
3AE
100
AcDbEntity
  8
0
  6
CONTINUOUS
 62
             7
100
AcDbCircle
 10
160.5037549484291
 20
-31.74999999999994
 40
1.0
100
AcDbArc
 50
-90.0
 51
-16.95776330000511
  0
ARC
  5
3AD
100
AcDbEntity
  8
0
  6
CONTINUOUS
 62
             7
100
AcDbCircle
 10
160.5037549484291
 20
-36.64999999999992
 40
1.0
100
AcDbArc
 50
16.95776330000179
 51
90.0
  0
ARC
  5
3AC
100
AcDbEntity
  8
0
  6
CONTINUOUS
 62
             7
100
AcDbCircle
 10
154.76463480680459
 20
-38.39999999999992
 40
7.00000000000004
100
AcDbArc
 50
-16.95776330000428
 51
16.95776330000378
  0
ARC
  5
3AB
100
AcDbEntity
  8
0
  6
CONTINUOUS
 62
             7
100
AcDbCircle
 10
160.5037549484291
 20
-40.14999999999992
 40
1.0
100
AcDbArc
 50
-90.0
 51
-16.9577633000053
  0
ARC
  5
3AA
100
AcDbEntity
  8
0
  6
CONTINUOUS
 62
             7
100
AcDbCircle
 10
160.5037549484291
 20
-45.0499999999999
 40
1.0
100
AcDbArc
 50
16.95776330000179
 51
90.0
  0
ARC
  5
3A9
100
AcDbEntity
  8
0
  6
CONTINUOUS
 62
             7
100
AcDbCircle
 10
154.76463480680459
 20
-46.7999999999999
 40
7.00000000000002
100
AcDbArc
 50
-16.95776330000394
 51
16.95776330000378
  0
ARC
  5
3A8
100
AcDbEntity
  8
0
  6
CONTINUOUS
 62
             7
100
AcDbCircle
 10
160.5037549484291
 20
-48.5499999999999
 40
1.0
100
AcDbArc
 50
-90.0
 51
-16.95776330000297
  0
LINE
  5
3A7
100
AcDbEntity
  8
1
  6
CONTINUOUS
 62
             7
100
AcDbLine
 10
162.0
 20
35.0
 11
163.5
 21
35.0
  0
LINE
  5
3A6
100
AcDbEntity
  8
1
  6
CONTINUOUS
 62
             7
100
AcDbLine
 10
162.0
 20
32.3329052440122
 11
164.0
 21
32.35035897959371
  0
LINE
  5
3A5
100
AcDbEntity
  8
1
  6
CONTINUOUS
 62
             7
100
AcDbLine
 10
162.0
 20
32.3329052440122
 11
162.0
 21
35.0
  0
LINE
  5
3A4
100
AcDbEntity
  8
1
  6
CONTINUOUS
 62
             7
100
AcDbLine
 10
156.5
 20
-50.30236120674455
 11
157.36463480680459
 21
-50.2924530248093
  0
LINE
  5
3A3
100
AcDbEntity
  8
1
  6
CONTINUOUS
 62
             7
100
AcDbLine
 10
99.0
 20
-54.5
 11
154.0
 21
-54.5
  0
LINE
  5
3A2
100
AcDbEntity
  8
1
  6
CONTINUOUS
 62
             7
100
AcDbLine
 10
154.0
 20
36.49999999999999
 11
99.0
 21
36.49999999999999
  0
LINE
  5
3A1
100
AcDbEntity
  8
1
  6
CONTINUOUS
 62
             7
100
AcDbLine
 10
164.0
 20
-34.86709475598785
 11
162.0
 21
-34.88454849156935
  0
LINE
  5
3A0
100
AcDbEntity
  8
1
  6
CONTINUOUS
 62
             7
100
AcDbLine
 10
162.0
 20
-34.88454849156935
 11
156.5
 21
-34.93254626441855
  0
LINE
  5
39F
100
AcDbEntity
  8
1
  6
CONTINUOUS
 62
             7
100
AcDbLine
 10
156.5
 20
25.31509252883698
 11
156.5
 21
32.28490747116298
  0
LINE
  5
39E
100
AcDbEntity
  8
1
  6
CONTINUOUS
 62
             7
100
AcDbLine
 10
156.5
 20
16.91509252883701
 11
156.5
 21
23.884907471163
  0
LINE
  5
39D
100
AcDbEntity
  8
1
  6
CONTINUOUS
 62
             7
100
AcDbLine
 10
156.5
 20
8.515092528837
 11
156.5
 21
15.484907471163
  0
LINE
  5
39C
100
AcDbEntity
  8
1
  6
CONTINUOUS
 62
             7
100
AcDbLine
 10
156.5
 20
0.11509252883696
 11
156.5
 21
7.08490747116299
  0
LINE
  5
39B
100
AcDbEntity
  8
1
  6
CONTINUOUS
 62
             7
100
AcDbLine
 10
156.5
 20
-8.28490747116302
 11
156.5
 21
-1.31509252883701
  0
LINE
  5
39A
100
AcDbEntity
  8
1
  6
CONTINUOUS
 62
             7
100
AcDbLine
 10
156.5
 20
-16.68490747116303
 11
156.5
 21
-9.71509252883699
  0
LINE
  5
399
100
AcDbEntity
  8
1
  6
CONTINUOUS
 62
             7
100
AcDbLine
 10
156.5
 20
-25.08490747116304
 11
156.5
 21
-18.115092528837
  0
LINE
  5
398
100
AcDbEntity
  8
1
  6
CONTINUOUS
 62
             7
100
AcDbLine
 10
162.0
 20
-33.55035897959374
 11
162.0
 21
-34.88454849156935
  0
LINE
  5
397
100
AcDbEntity
  8
1
  6
CONTINUOUS
 62
             7
100
AcDbLine
 10
156.5
 20
-33.48490747116304
 11
156.5
 21
-26.515092528837
  0
LINE
  5
396
100
AcDbEntity
  8
1
  6
CONTINUOUS
 62
             7
100
AcDbLine
 10
156.5
 20
-41.88490747116302
 11
156.5
 21
-34.93254626441855
  0
LINE
  5
395
100
AcDbEntity
  8
1
  6
CONTINUOUS
 62
             7
100
AcDbLine
 10
162.0
 20
-41.93290524401222
 11
156.5
 21
-41.88490747116302
  0
LINE
  5
394
100
AcDbEntity
  8
1
  6
CONTINUOUS
 62
             7
100
AcDbLine
 10
157.36463480680459
 20
-50.2924530248093
 11
162.0
 21
-50.33290524401221
  0
LINE
  5
393
100
AcDbEntity
  8
1
  6
CONTINUOUS
 62
             7
100
AcDbLine
 10
156.5
 20
-50.30236120674455
 11
156.5
 21
-43.31509252883701
  0
LINE
  5
392
100
AcDbEntity
  8
1
  6
CONTINUOUS
 62
             7
100
AcDbLine
 10
162.0
 20
-43.2670947559878
 11
156.5
 21
-43.31509252883701
  0
LINE
  5
391
100
AcDbEntity
  8
1
  6
CONTINUOUS
 62
             7
100
AcDbLine
 10
162.0
 20
32.3329052440122
 11
156.5
 21
32.28490747116298
  0
LINE
  5
390
100
AcDbEntity
  8
1
  6
CONTINUOUS
 62
             7
100
AcDbLine
 10
164.0
 20
-33.5503589795937
 11
156.5
 21
-33.48490747116304
  0
LINE
  5
38F
100
AcDbEntity
  8
1
  6
CONTINUOUS
 62
             7
100
AcDbLine
 10
162.0
 20
-25.13290524401221
 11
156.5
 21
-25.08490747116304
  0
LINE
  5
38E
100
AcDbEntity
  8
1
  6
CONTINUOUS
 62
             7
100
AcDbLine
 10
162.0
 20
-16.7329052440122
 11
156.5
 21
-16.68490747116303
  0
LINE
  5
38D
100
AcDbEntity
  8
1
  6
CONTINUOUS
 62
             7
100
AcDbLine
 10
162.0
 20
-26.46709475598782
 11
156.5
 21
-26.515092528837
  0
LINE
  5
38C
100
AcDbEntity
  8
1
  6
CONTINUOUS
 62
             7
100
AcDbLine
 10
162.0
 20
-18.06709475598781
 11
156.5
 21
-18.115092528837
  0
LINE
  5
38B
100
AcDbEntity
  8
1
  6
CONTINUOUS
 62
             7
100
AcDbLine
 10
162.0
 20
23.93290524401219
 11
156.5
 21
23.884907471163
  0
LINE
  5
38A
100
AcDbEntity
  8
1
  6
CONTINUOUS
 62
             7
100
AcDbLine
 10
162.0
 20
15.53290524401218
 11
156.5
 21
15.484907471163
  0
LINE
  5
389
100
AcDbEntity
  8
1
  6
CONTINUOUS
 62
             7
100
AcDbLine
 10
162.0
 20
7.13290524401221
 11
156.5
 21
7.08490747116299
  0
LINE
  5
388
100
AcDbEntity
  8
1
  6
CONTINUOUS
 62
             7
100
AcDbLine
 10
162.0
 20
-1.2670947559878
 11
156.5
 21
-1.31509252883701
  0
LINE
  5
387
100
AcDbEntity
  8
1
  6
CONTINUOUS
 62
             7
100
AcDbLine
 10
162.0
 20
25.2670947559878
 11
156.5
 21
25.31509252883698
  0
LINE
  5
386
100
AcDbEntity
  8
1
  6
CONTINUOUS
 62
             7
100
AcDbLine
 10
162.0
 20
16.86709475598779
 11
156.5
 21
16.91509252883701
  0
LINE
  5
385
100
AcDbEntity
  8
1
  6
CONTINUOUS
 62
             7
100
AcDbLine
 10
162.0
 20
8.46709475598779
 11
156.5
 21
8.515092528837
  0
LINE
  5
384
100
AcDbEntity
  8
1
  6
CONTINUOUS
 62
             7
100
AcDbLine
 10
162.0
 20
0.06709475598778
 11
156.5
 21
0.11509252883696
  0
LINE
  5
383
100
AcDbEntity
  8
1
  6
CONTINUOUS
 62
             7
100
AcDbLine
 10
164.0
 20
-9.64964102040629
 11
164.0
 21
-8.35035897959371
  0
LINE
  5
382
100
AcDbEntity
  8
1
  6
CONTINUOUS
 62
             7
100
AcDbLine
 10
164.0
 20
-52.5
 11
164.0
 21
-50.35035897959371
  0
LINE
  5
381
100
AcDbEntity
  8
1
  6
CONTINUOUS
 62
             7
100
AcDbLine
 10
164.0
 20
-43.24964102040632
 11
164.0
 21
-41.9503589795937
  0
LINE
  5
380
100
AcDbEntity
  8
1
  6
CONTINUOUS
 62
             7
100
AcDbLine
 10
164.0
 20
-34.84964102040631
 11
164.0
 21
-33.5503589795937
  0
LINE
  5
37F
100
AcDbEntity
  8
1
  6
CONTINUOUS
 62
             7
100
AcDbLine
 10
164.0
 20
-26.4496410204063
 11
164.0
 21
-25.15035897959372
  0
LINE
  5
37E
100
AcDbEntity
  8
1
  6
CONTINUOUS
 62
             7
100
AcDbLine
 10
164.0
 20
-18.0496410204063
 11
164.0
 21
-16.75035897959371
  0
LINE
  5
37D
100
AcDbEntity
  8
1
  6
CONTINUOUS
 62
             7
100
AcDbLine
 10
164.0
 20
-1.24964102040632
 11
164.0
 21
0.0496410204063
  0
LINE
  5
37C
100
AcDbEntity
  8
1
  6
CONTINUOUS
 62
             7
100
AcDbLine
 10
164.0
 20
7.15035897959369
 11
164.0
 21
8.4496410204063
  0
LINE
  5
37B
100
AcDbEntity
  8
1
  6
CONTINUOUS
 62
             7
100
AcDbLine
 10
164.0
 20
15.5503589795937
 11
164.0
 21
16.84964102040628
  0
LINE
  5
37A
100
AcDbEntity
  8
1
  6
CONTINUOUS
 62
             7
100
AcDbLine
 10
164.0
 20
23.9503589795937
 11
164.0
 21
25.24964102040629
  0
LINE
  5
379
100
AcDbEntity
  8
1
  6
CONTINUOUS
 62
             7
100
AcDbLine
 10
164.0
 20
-9.64964102040629
 11
156.5
 21
-9.71509252883699
  0
LINE
  5
378
100
AcDbEntity
  8
1
  6
CONTINUOUS
 62
             7
100
AcDbLine
 10
164.0
 20
-8.35035897959371
 11
156.5
 21
-8.28490747116302
  0
LINE
  5
377
100
AcDbEntity
  8
1
  6
CONTINUOUS
 62
             7
100
AcDbLine
 10
164.0
 20
-50.35035897959371
 11
162.0
 21
-50.33290524401221
  0
LINE
  5
376
100
AcDbEntity
  8
1
  6
CONTINUOUS
 62
             7
100
AcDbLine
 10
162.0
 20
-41.93290524401222
 11
162.0
 21
-43.2670947559878
  0
LINE
  5
375
100
AcDbEntity
  8
1
  6
CONTINUOUS
 62
             7
100
AcDbLine
 10
164.0
 20
-43.24964102040632
 11
162.0
 21
-43.2670947559878
  0
LINE
  5
374
100
AcDbEntity
  8
1
  6
CONTINUOUS
 62
             7
100
AcDbLine
 10
164.0
 20
-41.9503589795937
 11
162.0
 21
-41.93290524401222
  0
LINE
  5
373
100
AcDbEntity
  8
1
  6
CONTINUOUS
 62
             7
100
AcDbLine
 10
162.0
 20
-25.13290524401221
 11
162.0
 21
-26.46709475598782
  0
LINE
  5
372
100
AcDbEntity
  8
1
  6
CONTINUOUS
 62
             7
100
AcDbLine
 10
164.0
 20
-26.4496410204063
 11
162.0
 21
-26.46709475598782
  0
LINE
  5
371
100
AcDbEntity
  8
1
  6
CONTINUOUS
 62
             7
100
AcDbLine
 10
164.0
 20
-25.15035897959372
 11
162.0
 21
-25.13290524401221
  0
LINE
  5
370
100
AcDbEntity
  8
1
  6
CONTINUOUS
 62
             7
100
AcDbLine
 10
162.0
 20
-16.7329052440122
 11
162.0
 21
-18.06709475598781
  0
LINE
  5
36F
100
AcDbEntity
  8
1
  6
CONTINUOUS
 62
             7
100
AcDbLine
 10
164.0
 20
-18.0496410204063
 11
162.0
 21
-18.06709475598781
  0
LINE
  5
36E
100
AcDbEntity
  8
1
  6
CONTINUOUS
 62
             7
100
AcDbLine
 10
164.0
 20
-16.75035897959371
 11
162.0
 21
-16.7329052440122
  0
LINE
  5
36D
100
AcDbEntity
  8
1
  6
CONTINUOUS
 62
             7
100
AcDbLine
 10
162.0
 20
-8.33290524401222
 11
162.0
 21
-9.6670947559878
  0
LINE
  5
36C
100
AcDbEntity
  8
1
  6
CONTINUOUS
 62
             7
100
AcDbLine
 10
164.0
 20
-1.24964102040632
 11
162.0
 21
-1.2670947559878
  0
LINE
  5
36B
100
AcDbEntity
  8
1
  6
CONTINUOUS
 62
             7
100
AcDbLine
 10
164.0
 20
0.0496410204063
 11
162.0
 21
0.06709475598778
  0
LINE
  5
36A
100
AcDbEntity
  8
1
  6
CONTINUOUS
 62
             7
100
AcDbLine
 10
162.0
 20
8.46709475598779
 11
162.0
 21
7.13290524401221
  0
LINE
  5
369
100
AcDbEntity
  8
1
  6
CONTINUOUS
 62
             7
100
AcDbLine
 10
164.0
 20
7.15035897959369
 11
162.0
 21
7.13290524401221
  0
LINE
  5
368
100
AcDbEntity
  8
1
  6
CONTINUOUS
 62
             7
100
AcDbLine
 10
164.0
 20
8.4496410204063
 11
162.0
 21
8.46709475598779
  0
LINE
  5
367
100
AcDbEntity
  8
1
  6
CONTINUOUS
 62
             7
100
AcDbLine
 10
162.0
 20
16.86709475598779
 11
162.0
 21
15.53290524401218
  0
LINE
  5
366
100
AcDbEntity
  8
1
  6
CONTINUOUS
 62
             7
100
AcDbLine
 10
164.0
 20
15.5503589795937
 11
162.0
 21
15.53290524401218
  0
LINE
  5
365
100
AcDbEntity
  8
1
  6
CONTINUOUS
 62
             7
100
AcDbLine
 10
164.0
 20
16.84964102040628
 11
162.0
 21
16.86709475598779
  0
LINE
  5
364
100
AcDbEntity
  8
1
  6
CONTINUOUS
 62
             7
100
AcDbLine
 10
162.0
 20
25.2670947559878
 11
162.0
 21
23.93290524401219
  0
LINE
  5
363
100
AcDbEntity
  8
1
  6
CONTINUOUS
 62
             7
100
AcDbLine
 10
164.0
 20
23.9503589795937
 11
162.0
 21
23.93290524401219
  0
LINE
  5
362
100
AcDbEntity
  8
1
  6
CONTINUOUS
 62
             7
100
AcDbLine
 10
164.0
 20
25.24964102040629
 11
162.0
 21
25.2670947559878
  0
LINE
  5
361
100
AcDbEntity
  8
1
  6
CONTINUOUS
 62
             7
100
AcDbLine
 10
66.00000000000001
 20
-54.0
 11
99.0
 21
-53.9629624108061
  0
LINE
  5
360
100
AcDbEntity
  8
1
  6
CONTINUOUS
 62
             7
100
AcDbLine
 10
64.0
 20
-54.5
 11
66.00000000000001
 21
-54.5
  0
LINE
  5
35F
100
AcDbEntity
  8
1
  6
CONTINUOUS
 62
             7
100
AcDbLine
 10
66.00000000000001
 20
-54.5
 11
66.00000000000001
 21
-54.0
  0
LINE
  5
35E
100
AcDbEntity
  8
1
  6
CONTINUOUS
 62
             7
100
AcDbLine
 10
99.0
 20
-54.0
 11
99.0
 21
-54.5
  0
LINE
  5
35D
100
AcDbEntity
  8
1
  6
CONTINUOUS
 62
             7
100
AcDbLine
 10
136.0
 20
-50.5
 11
121.0
 21
-50.5
  0
LINE
  5
35C
100
AcDbEntity
  8
1
  6
CONTINUOUS
 62
             7
100
AcDbLine
 10
121.0
 20
-50.5
 11
121.0
 21
-48.5
  0
LINE
  5
35B
100
AcDbEntity
  8
1
  6
CONTINUOUS
 62
             7
100
AcDbLine
 10
121.0
 20
-48.5
 11
136.00000000000011
 21
-48.5
  0
LINE
  5
35A
100
AcDbEntity
  8
1
  6
CONTINUOUS
 62
             7
100
AcDbLine
 10
136.00000000000011
 20
-48.5
 11
136.0
 21
-50.5
  0
LINE
  5
359
100
AcDbEntity
  8
1
  6
CONTINUOUS
 62
             7
100
AcDbLine
 10
101.0
 20
-48.5
 11
116.0000000000001
 21
-48.5
  0
LINE
  5
358
100
AcDbEntity
  8
1
  6
CONTINUOUS
 62
             7
100
AcDbLine
 10
116.0000000000001
 20
-48.5
 11
116.0
 21
-50.5
  0
LINE
  5
357
100
AcDbEntity
  8
1
  6
CONTINUOUS
 62
             7
100
AcDbLine
 10
116.0
 20
-50.5
 11
101.0
 21
-50.5
  0
LINE
  5
356
100
AcDbEntity
  8
1
  6
CONTINUOUS
 62
             7
100
AcDbLine
 10
101.0
 20
-50.5
 11
101.0
 21
-48.5
  0
LINE
  5
355
100
AcDbEntity
  8
1
  6
CONTINUOUS
 62
             7
100
AcDbLine
 10
121.0
 20
-47.0
 11
121.0
 21
-45.0
  0
LINE
  5
354
100
AcDbEntity
  8
1
  6
CONTINUOUS
 62
             7
100
AcDbLine
 10
136.0
 20
-47.0
 11
121.0
 21
-47.0
  0
LINE
  5
353
100
AcDbEntity
  8
1
  6
CONTINUOUS
 62
             7
100
AcDbLine
 10
136.0
 20
-45.0
 11
136.0
 21
-47.0
  0
LINE
  5
352
100
AcDbEntity
  8
1
  6
CONTINUOUS
 62
             7
100
AcDbLine
 10
121.0
 20
-45.0
 11
136.0
 21
-45.0
  0
LINE
  5
351
100
AcDbEntity
  8
1
  6
CONTINUOUS
 62
             7
100
AcDbLine
 10
116.0
 20
-45.0
 11
116.0
 21
-47.0
  0
LINE
  5
350
100
AcDbEntity
  8
1
  6
CONTINUOUS
 62
             7
100
AcDbLine
 10
101.0
 20
-47.0
 11
101.0
 21
-45.0
  0
LINE
  5
34F
100
AcDbEntity
  8
1
  6
CONTINUOUS
 62
             7
100
AcDbLine
 10
116.0
 20
-47.0
 11
101.0
 21
-47.0
  0
LINE
  5
34E
100
AcDbEntity
  8
1
  6
CONTINUOUS
 62
             7
100
AcDbLine
 10
101.0
 20
-45.0
 11
116.0
 21
-45.0
  0
LINE
  5
34D
100
AcDbEntity
  8
1
  6
CONTINUOUS
 62
             7
100
AcDbLine
 10
136.0
 20
26.99999999999999
 11
121.0
 21
26.99999999999999
  0
LINE
  5
34C
100
AcDbEntity
  8
1
  6
CONTINUOUS
 62
             7
100
AcDbLine
 10
121.0
 20
26.99999999999999
 11
121.0
 21
28.99999999999999
  0
LINE
  5
34B
100
AcDbEntity
  8
1
  6
CONTINUOUS
 62
             7
100
AcDbLine
 10
121.0
 20
28.99999999999999
 11
136.00000000000011
 21
28.99999999999999
  0
LINE
  5
34A
100
AcDbEntity
  8
1
  6
CONTINUOUS
 62
             7
100
AcDbLine
 10
136.00000000000011
 20
28.99999999999999
 11
136.0
 21
26.99999999999999
  0
LINE
  5
349
100
AcDbEntity
  8
1
  6
CONTINUOUS
 62
             7
100
AcDbLine
 10
136.0
 20
30.49999999999999
 11
121.0
 21
30.49999999999999
  0
LINE
  5
348
100
AcDbEntity
  8
1
  6
CONTINUOUS
 62
             7
100
AcDbLine
 10
121.0
 20
30.49999999999999
 11
121.0
 21
32.49999999999999
  0
LINE
  5
347
100
AcDbEntity
  8
1
  6
CONTINUOUS
 62
             7
100
AcDbLine
 10
136.0
 20
32.49999999999999
 11
136.0
 21
30.49999999999999
  0
LINE
  5
346
100
AcDbEntity
  8
1
  6
CONTINUOUS
 62
             7
100
AcDbLine
 10
121.0
 20
32.49999999999999
 11
136.0
 21
32.49999999999999
  0
LINE
  5
345
100
AcDbEntity
  8
1
  6
CONTINUOUS
 62
             7
100
AcDbLine
 10
116.0
 20
30.49999999999999
 11
101.0
 21
30.49999999999999
  0
LINE
  5
344
100
AcDbEntity
  8
1
  6
CONTINUOUS
 62
             7
100
AcDbLine
 10
101.0
 20
30.49999999999999
 11
101.0
 21
32.49999999999999
  0
LINE
  5
343
100
AcDbEntity
  8
1
  6
CONTINUOUS
 62
             7
100
AcDbLine
 10
116.0
 20
32.49999999999999
 11
116.0
 21
30.49999999999999
  0
LINE
  5
342
100
AcDbEntity
  8
1
  6
CONTINUOUS
 62
             7
100
AcDbLine
 10
101.0
 20
32.49999999999999
 11
116.0
 21
32.49999999999999
  0
LINE
  5
341
100
AcDbEntity
  8
1
  6
CONTINUOUS
 62
             7
100
AcDbLine
 10
101.0
 20
28.99999999999999
 11
116.0000000000001
 21
28.99999999999999
  0
LINE
  5
340
100
AcDbEntity
  8
1
  6
CONTINUOUS
 62
             7
100
AcDbLine
 10
116.0000000000001
 20
28.99999999999999
 11
116.0
 21
26.99999999999999
  0
LINE
  5
33F
100
AcDbEntity
  8
1
  6
CONTINUOUS
 62
             7
100
AcDbLine
 10
116.0
 20
26.99999999999999
 11
101.0
 21
26.99999999999999
  0
LINE
  5
33E
100
AcDbEntity
  8
1
  6
CONTINUOUS
 62
             7
100
AcDbLine
 10
101.0
 20
26.99999999999999
 11
101.0
 21
28.99999999999999
  0
LINE
  5
33D
100
AcDbEntity
  8
1
  6
CONTINUOUS
 62
             7
100
AcDbLine
 10
64.00000000000001
 20
25.99999999999999
 11
77.00000000000001
 21
25.99999999999999
  0
LINE
  5
33C
100
AcDbEntity
  8
1
  6
CONTINUOUS
 62
             7
100
AcDbLine
 10
66.00000000000001
 20
35.99999999999999
 11
77.00000000000001
 21
35.99999999999999
  0
LINE
  5
33B
100
AcDbEntity
  8
1
  6
CONTINUOUS
 62
             7
100
AcDbLine
 10
66.00000000000001
 20
35.99999999999999
 11
66.00000000000001
 21
36.49999999999999
  0
LINE
  5
33A
100
AcDbEntity
  8
1
  6
CONTINUOUS
 62
             7
100
AcDbLine
 10
66.00000000000001
 20
36.49999999999999
 11
64.0
 21
36.5
  0
LINE
  5
339
100
AcDbEntity
  8
1
  6
CONTINUOUS
 62
             7
100
AcDbLine
 10
77.00000000000001
 20
25.99999999999999
 11
77.00000000000001
 21
35.99999999999999
  0
LINE
  5
338
100
AcDbEntity
  8
1
  6
CONTINUOUS
 62
             7
100
AcDbLine
 10
64.00000000000004
 20
-44.00000000000001
 11
77.00000000000001
 21
-44.0
  0
LINE
  5
337
100
AcDbEntity
  8
1
  6
CONTINUOUS
 62
             7
100
AcDbLine
 10
77.00000000000001
 20
-44.0
 11
76.99999999999994
 21
-53.99999999999997
  0
LINE
  5
336
100
AcDbEntity
  8
1
  6
CONTINUOUS
 62
             7
100
AcDbLine
 10
98.5
 20
13.99999999999999
 11
92.5
 21
13.99999999999999
  0
LINE
  5
335
100
AcDbEntity
  8
1
  6
CONTINUOUS
 62
             7
100
AcDbLine
 10
99.0
 20
35.99999999999999
 11
92.0
 21
35.99999999999999
  0
LINE
  5
334
100
AcDbEntity
  8
1
  6
CONTINUOUS
 62
             7
100
AcDbLine
 10
92.0
 20
-54.0
 11
92.0
 21
-47.0
  0
LINE
  5
333
100
AcDbEntity
  8
1
  6
CONTINUOUS
 62
             7
100
AcDbLine
 10
92.0
 20
-47.0
 11
96.4352720736717
 21
-40.7906190968596
  0
LINE
  5
332
100
AcDbEntity
  8
1
  6
CONTINUOUS
 62
             7
100
AcDbLine
 10
96.0284053380684
 20
-40.00000000000001
 11
92.0
 21
-40.00000000000001
  0
LINE
  5
331
100
AcDbEntity
  8
1
  6
CONTINUOUS
 62
             7
100
AcDbLine
 10
92.0
 20
-40.00000000000001
 11
92.0
 21
-32.50000000000001
  0
LINE
  5
330
100
AcDbEntity
  8
1
  6
CONTINUOUS
 62
             7
100
AcDbLine
 10
98.5
 20
-32.00000000000001
 11
92.5
 21
-32.00000000000001
  0
LINE
  5
32F
100
AcDbEntity
  8
1
  6
CONTINUOUS
 62
             7
100
AcDbLine
 10
92.5
 20
-32.00000000000001
 11
98.5
 21
-32.00000000000001
  0
LINE
  5
32E
100
AcDbEntity
  8
1
  6
CONTINUOUS
 62
             7
100
AcDbLine
 10
99.0
 20
-53.9629624108061
 11
99.0
 21
-32.50000000000001
  0
LINE
  5
32D
100
AcDbEntity
  8
1
  6
CONTINUOUS
 62
             7
100
AcDbLine
 10
96.4352720736717
 20
22.79061909685949
 11
92.0
 21
28.99999999999999
  0
LINE
  5
32C
100
AcDbEntity
  8
1
  6
CONTINUOUS
 62
             7
100
AcDbLine
 10
92.0
 20
21.99999999999999
 11
96.0284053380684
 21
21.99999999999999
  0
LINE
  5
32B
100
AcDbEntity
  8
1
  6
CONTINUOUS
 62
             7
100
AcDbLine
 10
92.0
 20
28.99999999999999
 11
92.0
 21
35.99999999999999
  0
LINE
  5
32A
100
AcDbEntity
  8
1
  6
CONTINUOUS
 62
             7
100
AcDbLine
 10
92.0
 20
14.49999999999999
 11
92.0
 21
21.99999999999999
  0
LINE
  5
329
100
AcDbEntity
  8
1
  6
CONTINUOUS
 62
             7
100
AcDbLine
 10
99.0
 20
14.49999999999999
 11
99.0
 21
35.99999999999999
  0
LINE
  5
328
100
AcDbEntity
  8
1
  6
CONTINUOUS
 62
             7
100
AcDbLine
 10
77.00000000000001
 20
35.99999999999999
 11
92.0
 21
35.99999999999999
  0
LINE
  5
327
100
AcDbEntity
  8
1
  6
CONTINUOUS
 62
             7
100
AcDbLine
 10
99.0
 20
36.49999999999999
 11
99.0
 21
35.99999999999999
  0
LINE
  5
326
100
AcDbEntity
  8
1
  6
CONTINUOUS
 62
             7
100
AcDbLine
 10
89.0
 20
-31.50000000000001
 11
79.00000000000001
 21
-31.50000000000001
  0
LINE
  5
325
100
AcDbEntity
  8
1
  6
CONTINUOUS
 62
             7
100
AcDbLine
 10
79.00000000000001
 20
-31.50000000000001
 11
79.00000000000001
 21
-33.5
  0
LINE
  5
324
100
AcDbEntity
  8
1
  6
CONTINUOUS
 62
             7
100
AcDbLine
 10
79.00000000000001
 20
-33.5
 11
89.0
 21
-33.5
  0
LINE
  5
323
100
AcDbEntity
  8
1
  6
CONTINUOUS
 62
             7
100
AcDbLine
 10
89.0
 20
-33.5
 11
89.0
 21
-31.50000000000001
  0
LINE
  5
322
100
AcDbEntity
  8
1
  6
CONTINUOUS
 62
             7
100
AcDbLine
 10
89.0
 20
-38.50000000000001
 11
79.00000000000001
 21
-38.50000000000001
  0
LINE
  5
321
100
AcDbEntity
  8
1
  6
CONTINUOUS
 62
             7
100
AcDbLine
 10
79.00000000000001
 20
-38.50000000000001
 11
79.00000000000001
 21
-40.5
  0
LINE
  5
320
100
AcDbEntity
  8
1
  6
CONTINUOUS
 62
             7
100
AcDbLine
 10
79.00000000000001
 20
-40.5
 11
89.0
 21
-40.5
  0
LINE
  5
31F
100
AcDbEntity
  8
1
  6
CONTINUOUS
 62
             7
100
AcDbLine
 10
89.0
 20
-40.5
 11
89.0
 21
-38.50000000000001
  0
LINE
  5
31E
100
AcDbEntity
  8
1
  6
CONTINUOUS
 62
             7
100
AcDbLine
 10
89.0
 20
22.49999999999999
 11
79.00000000000001
 21
22.49999999999999
  0
LINE
  5
31D
100
AcDbEntity
  8
1
  6
CONTINUOUS
 62
             7
100
AcDbLine
 10
79.00000000000001
 20
22.49999999999999
 11
79.00000000000001
 21
20.49999999999999
  0
LINE
  5
31C
100
AcDbEntity
  8
1
  6
CONTINUOUS
 62
             7
100
AcDbLine
 10
79.00000000000001
 20
20.49999999999999
 11
89.0
 21
20.49999999999999
  0
LINE
  5
31B
100
AcDbEntity
  8
1
  6
CONTINUOUS
 62
             7
100
AcDbLine
 10
89.0
 20
20.49999999999999
 11
89.0
 21
22.49999999999999
  0
LINE
  5
31A
100
AcDbEntity
  8
1
  6
CONTINUOUS
 62
             7
100
AcDbLine
 10
89.0
 20
15.49999999999999
 11
79.00000000000001
 21
15.49999999999999
  0
LINE
  5
319
100
AcDbEntity
  8
1
  6
CONTINUOUS
 62
             7
100
AcDbLine
 10
79.00000000000001
 20
15.49999999999999
 11
79.00000000000001
 21
13.49999999999999
  0
LINE
  5
318
100
AcDbEntity
  8
1
  6
CONTINUOUS
 62
             7
100
AcDbLine
 10
79.00000000000001
 20
13.49999999999999
 11
89.0
 21
13.49999999999999
  0
LINE
  5
317
100
AcDbEntity
  8
1
  6
CONTINUOUS
 62
             7
100
AcDbLine
 10
89.0
 20
13.49999999999999
 11
89.0
 21
15.49999999999999
  0
LINE
  5
316
100
AcDbEntity
  8
1
  6
CONTINUOUS
 62
             7
100
AcDbLine
 10
89.0
 20
18.99999999999999
 11
79.00000000000001
 21
18.99999999999999
  0
LINE
  5
315
100
AcDbEntity
  8
1
  6
CONTINUOUS
 62
             7
100
AcDbLine
 10
79.00000000000001
 20
18.99999999999999
 11
79.00000000000001
 21
16.99999999999999
  0
LINE
  5
314
100
AcDbEntity
  8
1
  6
CONTINUOUS
 62
             7
100
AcDbLine
 10
79.00000000000001
 20
16.99999999999999
 11
89.0
 21
16.99999999999999
  0
LINE
  5
313
100
AcDbEntity
  8
1
  6
CONTINUOUS
 62
             7
100
AcDbLine
 10
89.0
 20
16.99999999999999
 11
89.0
 21
18.99999999999999
  0
LINE
  5
312
100
AcDbEntity
  8
1
  6
CONTINUOUS
 62
             7
100
AcDbLine
 10
89.0
 20
-35.0
 11
79.00000000000001
 21
-35.0
  0
LINE
  5
311
100
AcDbEntity
  8
1
  6
CONTINUOUS
 62
             7
100
AcDbLine
 10
79.00000000000001
 20
-35.0
 11
79.00000000000001
 21
-37.0
  0
LINE
  5
310
100
AcDbEntity
  8
1
  6
CONTINUOUS
 62
             7
100
AcDbLine
 10
79.00000000000001
 20
-37.0
 11
89.0
 21
-37.0
  0
LINE
  5
30F
100
AcDbEntity
  8
1
  6
CONTINUOUS
 62
             7
100
AcDbLine
 10
89.0
 20
-37.0
 11
89.0
 21
-35.0
  0
LINE
  5
30E
100
AcDbEntity
  8
1
  6
CONTINUOUS
 62
             7
100
AcDbLine
 10
-23.99999999999999
 20
-57.0
 11
22.00000000000001
 21
-57.0
  0
LINE
  5
30D
100
AcDbEntity
  8
1
  6
CONTINUOUS
 62
             7
100
AcDbLine
 10
23.00000000000001
 20
-56.0
 11
23.00000000000001
 21
38.0
  0
LINE
  5
30C
100
AcDbEntity
  8
1
  6
CONTINUOUS
 62
             7
100
AcDbLine
 10
22.00000000000001
 20
39.0
 11
-23.99999999999999
 21
39.0
  0
LINE
  5
30B
100
AcDbEntity
  8
1
  6
CONTINUOUS
 62
             7
100
AcDbLine
 10
-24.99999999999999
 20
38.0
 11
-24.99999999999999
 21
-56.0
  0
LINE
  5
30A
100
AcDbEntity
  8
1
  6
CONTINUOUS
 62
             7
100
AcDbLine
 10
62.00000000000001
 20
-57.0
 11
55.39536528938382
 21
-56.53815895063516
  0
LINE
  5
309
100
AcDbEntity
  8
1
  6
CONTINUOUS
 62
             7
100
AcDbLine
 10
54.00000000000001
 20
-55.04181287524542
 11
54.00000000000001
 21
37.04181287524544
  0
LINE
  5
308
100
AcDbEntity
  8
1
  6
CONTINUOUS
 62
             7
100
AcDbLine
 10
55.39536528938382
 20
38.53815895063516
 11
62.00000000000001
 21
39.0
  0
LINE
  5
307
100
AcDbEntity
  8
1
  6
CONTINUOUS
 62
             7
100
AcDbLine
 10
62.00000000000001
 20
-57.0
 11
62.00000000000001
 21
39.0
  0
LINE
  5
306
100
AcDbEntity
  8
1
  6
CONTINUOUS
 62
             7
100
AcDbLine
 10
155.5
 20
-53.0
 11
163.5
 21
-53.0
  0
LINE
  5
305
100
AcDbEntity
  8
1
  6
CONTINUOUS
 62
             7
100
AcDbLine
 10
164.0
 20
-50.36781271517524
 11
162.5
 21
-50.3547224134891
  0
LINE
  5
304
100
AcDbEntity
  8
1
  6
CONTINUOUS
 62
             7
100
AcDbLine
 10
155.5
 20
35.0
 11
162.0
 21
35.0
  0
LINE
  5
303
100
AcDbEntity
  8
1
  6
CONTINUOUS
 62
             7
100
AcDbLine
 10
154.0
 20
-54.5
 11
163.5
 21
-54.5
  0
LINE
  5
302
100
AcDbEntity
  8
1
  6
CONTINUOUS
 62
             7
100
AcDbLine
 10
163.5
 20
36.5
 11
154.0
 21
36.49999999999999
  0
LINE
  5
301
100
AcDbEntity
  8
1
  6
CONTINUOUS
 62
             7
100
AcDbLine
 10
64.0
 20
39.0
 11
64.0
 21
36.5
  0
LINE
  5
300
100
AcDbEntity
  8
1
  6
CONTINUOUS
 62
             7
100
AcDbLine
 10
62.00000000000001
 20
39.0
 11
64.0
 21
39.0
  0
LINE
  5
2FF
100
AcDbEntity
  8
1
  6
CONTINUOUS
 62
             7
100
AcDbLine
 10
64.0
 20
-57.0
 11
62.00000000000001
 21
-57.0
  0
LINE
  5
2FE
100
AcDbEntity
  8
1
  6
CONTINUOUS
 62
             7
100
AcDbLine
 10
64.0
 20
-57.0
 11
64.0
 21
36.5
  0
LINE
  5
2FD
100
AcDbEntity
  8
1
  6
CONTINUOUS
 62
             7
100
AcDbLine
 10
64.0
 20
36.5
 11
65.0
 21
36.5
  0
LINE
  5
2FC
100
AcDbEntity
  8
1
  6
CONTINUOUS
 62
             7
100
AcDbLine
 10
164.0
 20
34.5
 11
164.0
 21
36.0
  0
LINE
  5
2FB
100
AcDbEntity
  8
1
  6
CONTINUOUS
 62
             7
100
AcDbLine
 10
164.0
 20
-52.5
 11
164.0
 21
-50.36781271517524
  0
LINE
  5
2FA
100
AcDbEntity
  8
1
  6
CONTINUOUS
 62
             7
100
AcDbLine
 10
163.5
 20
-54.5
 11
164.0
 21
-54.0
  0
LINE
  5
2F9
100
AcDbEntity
  8
1
  6
CONTINUOUS
 62
             7
100
AcDbLine
 10
163.5
 20
36.5
 11
164.0
 21
36.0
  0
LINE
  5
2F8
100
AcDbEntity
  8
1
  6
CONTINUOUS
 62
             7
100
AcDbLine
 10
164.0
 20
34.5
 11
163.5
 21
35.0
  0
LINE
  5
2F7
100
AcDbEntity
  8
1
  6
CONTINUOUS
 62
             7
100
AcDbLine
 10
164.0
 20
32.36781271517525
 11
164.0
 21
34.5
  0
LINE
  5
2F6
100
AcDbEntity
  8
1
  6
CONTINUOUS
 62
             7
100
AcDbLine
 10
154.0
 20
36.49999999999999
 11
155.5
 21
35.0
  0
LINE
  5
2F5
100
AcDbEntity
  8
1
  6
CONTINUOUS
 62
             7
100
AcDbLine
 10
154.0
 20
-54.5
 11
155.5
 21
-53.0
  0
LINE
  5
2F4
100
AcDbEntity
  8
1
  6
CONTINUOUS
 62
             7
100
AcDbLine
 10
163.5
 20
-53.0
 11
164.0
 21
-52.5
  0
LINE
  5
2F3
100
AcDbEntity
  8
1
  6
CONTINUOUS
 62
             7
100
AcDbLine
 10
164.0
 20
-54.0
 11
164.0
 21
-52.5
  0
LINE
  5
2F2
100
AcDbEntity
  8
1
  6
CONTINUOUS
 62
             7
100
AcDbLine
 10
67.36788218175524
 20
36.16598492703034
 11
74.13378091189058
 21
40.9035182206346
  0
LINE
  5
2F1
100
AcDbEntity
  8
1
  6
CONTINUOUS
 62
             7
100
AcDbLine
 10
64.50000000000001
 20
40.26174514847528
 11
67.36788218175524
 21
36.16598492703034
  0
LINE
  5
2F0
100
AcDbEntity
  8
1
  6
CONTINUOUS
 62
             7
100
AcDbLine
 10
68.50000000000001
 20
43.06257530131413
 11
64.50000000000001
 21
40.26174514847528
  0
LINE
  5
2EF
100
AcDbEntity
  8
1
  6
CONTINUOUS
 62
             7
100
AcDbLine
 10
68.50000000000001
 20
45.06257530131413
 11
68.50000000000001
 21
43.06257530131413
  0
LINE
  5
2EE
100
AcDbEntity
  8
1
  6
CONTINUOUS
 62
             7
100
AcDbLine
 10
92.0
 20
17.0
 11
99.0
 21
17.0
  0
LINE
  5
2ED
100
AcDbEntity
  8
1
  6
CONTINUOUS
 62
             7
100
AcDbLine
 10
67.36788218175524
 20
-54.16598492703034
 11
64.50000000000001
 21
-58.26174514847528
  0
LINE
  5
2EC
100
AcDbEntity
  8
1
  6
CONTINUOUS
 62
             7
100
AcDbLine
 10
64.50000000000001
 20
-58.26174514847528
 11
68.50000000000001
 21
-61.06257530131413
  0
LINE
  5
2EB
100
AcDbEntity
  8
1
  6
CONTINUOUS
 62
             7
100
AcDbLine
 10
74.13378091189058
 20
-58.9035182206346
 11
67.36788218175524
 21
-54.16598492703034
  0
LINE
  5
2EA
100
AcDbEntity
  8
1
  6
CONTINUOUS
 62
             7
100
AcDbLine
 10
68.50000000000001
 20
-61.06257530131413
 11
68.50000000000001
 21
-63.06257530131413
  0
LINE
  5
2E9
100
AcDbEntity
  8
1
  6
CONTINUOUS
 62
             7
100
AcDbLine
 10
99.0
 20
-35.0
 11
92.0
 21
-35.0
  0
LINE
  5
2E8
100
AcDbEntity
  8
1
  6
CONTINUOUS
 62
             7
100
AcDbLine
 10
-4.99999999999991
 20
-7.24999999999999
 11
16.75
 21
-7.25
  0
LINE
  5
2E7
100
AcDbEntity
  8
1
  6
CONTINUOUS
 62
             7
100
AcDbLine
 10
-5.0
 20
-5.75
 11
16.75
 21
-5.75
  0
LINE
  5
2E6
100
AcDbEntity
  8
1
  6
CONTINUOUS
 62
             7
100
AcDbLine
 10
3.5
 20
-5.75
 11
3.5
 21
-7.25
  0
LINE
  5
2E5
100
AcDbEntity
  8
1
  6
CONTINUOUS
 62
             7
100
AcDbLine
 10
7.5
 20
-5.75
 11
7.5
 21
-7.25
  0
LINE
  5
2E4
100
AcDbEntity
  8
1
  6
CONTINUOUS
 62
             7
100
AcDbLine
 10
-3.5
 20
-5.75
 11
-3.5
 21
-7.25
  0
LINE
  5
2E3
100
AcDbEntity
  8
1
  6
CONTINUOUS
 62
             7
100
AcDbLine
 10
0.5
 20
-5.75
 11
0.5
 21
-7.25
  0
LINE
  5
2E2
100
AcDbEntity
  8
1
  6
CONTINUOUS
 62
             7
100
AcDbLine
 10
-5.49999999999991
 20
-6.24999999999999
 11
-5.5
 21
-6.75
  0
LINE
  5
2E1
100
AcDbEntity
  8
1
  6
CONTINUOUS
 62
             7
100
AcDbLine
 10
17.25
 20
-6.75
 11
17.25
 21
-6.25
  0
LINE
  5
2E0
100
AcDbEntity
  8
1
  6
CONTINUOUS
 62
             7
100
AcDbLine
 10
10.5
 20
0.25
 11
10.5
 21
-1.25
  0
LINE
  5
2DF
100
AcDbEntity
  8
1
  6
CONTINUOUS
 62
             7
100
AcDbLine
 10
14.5
 20
0.25
 11
14.5
 21
-1.25
  0
LINE
  5
2DE
100
AcDbEntity
  8
1
  6
CONTINUOUS
 62
             7
100
AcDbLine
 10
10.5
 20
0.25
 11
10.5
 21
-1.25
  0
LINE
  5
2DD
100
AcDbEntity
  8
1
  6
CONTINUOUS
 62
             7
100
AcDbLine
 10
14.5
 20
0.25
 11
14.5
 21
-1.25
  0
LINE
  5
2DC
100
AcDbEntity
  8
1
  6
CONTINUOUS
 62
             7
100
AcDbLine
 10
1.5
 20
-11.75
 11
1.5
 21
-13.25
  0
LINE
  5
2DB
100
AcDbEntity
  8
1
  6
CONTINUOUS
 62
             7
100
AcDbLine
 10
5.5
 20
-11.75
 11
5.5
 21
-13.25
  0
LINE
  5
2DA
100
AcDbEntity
  8
1
  6
CONTINUOUS
 62
             7
100
AcDbLine
 10
1.5
 20
-17.75
 11
1.5
 21
-19.25
  0
LINE
  5
2D9
100
AcDbEntity
  8
1
  6
CONTINUOUS
 62
             7
100
AcDbLine
 10
5.5
 20
-17.75
 11
5.5
 21
-19.25
  0
LINE
  5
2D8
100
AcDbEntity
  8
1
  6
CONTINUOUS
 62
             7
100
AcDbLine
 10
-18.75
 20
-19.24999999999999
 11
16.74999999999999
 21
-19.25
  0
LINE
  5
2D7
100
AcDbEntity
  8
1
  6
CONTINUOUS
 62
             7
100
AcDbLine
 10
-18.75
 20
-17.75
 11
16.74999999999999
 21
-17.75
  0
LINE
  5
2D6
100
AcDbEntity
  8
1
  6
CONTINUOUS
 62
             7
100
AcDbLine
 10
16.75
 20
-13.25
 11
-18.75
 21
-13.25
  0
LINE
  5
2D5
100
AcDbEntity
  8
1
  6
CONTINUOUS
 62
             7
100
AcDbLine
 10
-18.75
 20
-11.75
 11
16.74999999999999
 21
-11.75
  0
LINE
  5
2D4
100
AcDbEntity
  8
1
  6
CONTINUOUS
 62
             7
100
AcDbLine
 10
-4.99999999999991
 20
-1.24999999999999
 11
16.75
 21
-1.25
  0
LINE
  5
2D3
100
AcDbEntity
  8
1
  6
CONTINUOUS
 62
             7
100
AcDbLine
 10
-5.0
 20
0.25
 11
16.75
 21
0.25
  0
LINE
  5
2D2
100
AcDbEntity
  8
1
  6
CONTINUOUS
 62
             7
100
AcDbLine
 10
3.5
 20
0.25
 11
3.5
 21
-1.25
  0
LINE
  5
2D1
100
AcDbEntity
  8
1
  6
CONTINUOUS
 62
             7
100
AcDbLine
 10
7.5
 20
0.25
 11
7.5
 21
-1.25
  0
LINE
  5
2D0
100
AcDbEntity
  8
1
  6
CONTINUOUS
 62
             7
100
AcDbLine
 10
-3.5
 20
0.25
 11
-3.5
 21
-1.25
  0
LINE
  5
2CF
100
AcDbEntity
  8
1
  6
CONTINUOUS
 62
             7
100
AcDbLine
 10
0.5
 20
0.25
 11
0.5
 21
-1.25
  0
LINE
  5
2CE
100
AcDbEntity
  8
1
  6
CONTINUOUS
 62
             7
100
AcDbLine
 10
-5.49999999999991
 20
-0.24999999999999
 11
-5.5
 21
-0.75
  0
LINE
  5
2CD
100
AcDbEntity
  8
1
  6
CONTINUOUS
 62
             7
100
AcDbLine
 10
17.25
 20
-0.75
 11
17.25
 21
-0.25
  0
LINE
  5
2CC
100
AcDbEntity
  8
1
  6
CONTINUOUS
 62
             7
100
AcDbLine
 10
14.5
 20
-17.75
 11
14.5
 21
-19.25
  0
LINE
  5
2CB
100
AcDbEntity
  8
1
  6
CONTINUOUS
 62
             7
100
AcDbLine
 10
10.5
 20
-17.75
 11
10.5
 21
-19.25
  0
LINE
  5
2CA
100
AcDbEntity
  8
1
  6
CONTINUOUS
 62
             7
100
AcDbLine
 10
-12.5
 20
-17.75
 11
-12.5
 21
-19.25
  0
LINE
  5
2C9
100
AcDbEntity
  8
1
  6
CONTINUOUS
 62
             7
100
AcDbLine
 10
-16.5
 20
-17.75
 11
-16.5
 21
-19.25
  0
LINE
  5
2C8
100
AcDbEntity
  8
1
  6
CONTINUOUS
 62
             7
100
AcDbLine
 10
-16.5
 20
-11.75
 11
-16.5
 21
-13.25
  0
LINE
  5
2C7
100
AcDbEntity
  8
1
  6
CONTINUOUS
 62
             7
100
AcDbLine
 10
-12.5
 20
-11.75
 11
-12.5
 21
-13.25
  0
LINE
  5
2C6
100
AcDbEntity
  8
1
  6
CONTINUOUS
 62
             7
100
AcDbLine
 10
10.5
 20
-11.75
 11
10.5
 21
-13.25
  0
LINE
  5
2C5
100
AcDbEntity
  8
1
  6
CONTINUOUS
 62
             7
100
AcDbLine
 10
14.5
 20
-11.75
 11
14.5
 21
-13.25
  0
LINE
  5
2C4
100
AcDbEntity
  8
1
  6
CONTINUOUS
 62
             7
100
AcDbLine
 10
10.5
 20
-5.75
 11
10.5
 21
-7.25
  0
LINE
  5
2C3
100
AcDbEntity
  8
1
  6
CONTINUOUS
 62
             7
100
AcDbLine
 10
14.5
 20
-5.75
 11
14.5
 21
-7.25
  0
LINE
  5
2C2
100
AcDbEntity
  8
1
  6
CONTINUOUS
 62
             7
100
AcDbLine
 10
7.25
 20
-35.0
 11
0.64038820320221
 21
-35.0
  0
LINE
  5
2C1
100
AcDbEntity
  8
1
  6
CONTINUOUS
 62
             7
100
AcDbLine
 10
0.64038820320221
 20
-27.0
 11
7.25
 21
-27.0
  0
LINE
  5
2C0
100
AcDbEntity
  8
1
  6
CONTINUOUS
 62
             7
100
AcDbLine
 10
21.0
 20
-24.5
 11
-23.0
 21
-24.5
  0
LINE
  5
2BF
100
AcDbEntity
  8
1
  6
CONTINUOUS
 62
             7
100
AcDbLine
 10
7.75
 20
-34.5
 11
7.75
 21
-27.5
  0
LINE
  5
2BE
100
AcDbEntity
  8
1
  6
CONTINUOUS
 62
             7
100
AcDbLine
 10
-19.25
 20
-27.5
 11
-19.25
 21
-34.5
  0
LINE
  5
2BD
100
AcDbEntity
  8
1
  6
CONTINUOUS
 62
             7
100
AcDbLine
 10
-23.0
 20
35.5
 11
-23.0
 21
-53.50000000000001
  0
LINE
  5
2BC
100
AcDbEntity
  8
1
  6
CONTINUOUS
 62
             7
100
AcDbLine
 10
21.0
 20
35.5
 11
-23.0
 21
35.5
  0
LINE
  5
2BB
100
AcDbEntity
  8
1
  6
CONTINUOUS
 62
             7
100
AcDbLine
 10
21.0
 20
-53.50000000000001
 11
21.0
 21
35.5
  0
LINE
  5
2BA
100
AcDbEntity
  8
1
  6
CONTINUOUS
 62
             7
100
AcDbLine
 10
-23.0
 20
-53.50000000000001
 11
21.0
 21
-53.50000000000001
  0
LINE
  5
2B9
100
AcDbEntity
  8
1
  6
CONTINUOUS
 62
             7
100
AcDbLine
 10
-16.5
 20
5.75
 11
14.5
 21
5.75
  0
LINE
  5
2B8
100
AcDbEntity
  8
1
  6
CONTINUOUS
 62
             7
100
AcDbLine
 10
15.0
 20
6.25
 11
15.0
 21
15.25
  0
LINE
  5
2B7
100
AcDbEntity
  8
1
  6
CONTINUOUS
 62
             7
100
AcDbLine
 10
14.5
 20
15.75
 11
-16.5
 21
15.75
  0
LINE
  5
2B6
100
AcDbEntity
  8
1
  6
CONTINUOUS
 62
             7
100
AcDbLine
 10
-17.0
 20
15.25
 11
-17.0
 21
6.25
  0
LINE
  5
2B5
100
AcDbEntity
  8
1
  6
CONTINUOUS
 62
             7
100
AcDbLine
 10
-16.5
 20
19.75
 11
14.5
 21
19.75
  0
LINE
  5
2B4
100
AcDbEntity
  8
1
  6
CONTINUOUS
 62
             7
100
AcDbLine
 10
15.0
 20
20.25
 11
15.0
 21
29.25
  0
LINE
  5
2B3
100
AcDbEntity
  8
1
  6
CONTINUOUS
 62
             7
100
AcDbLine
 10
14.5
 20
29.75
 11
-16.5
 21
29.75
  0
LINE
  5
2B2
100
AcDbEntity
  8
1
  6
CONTINUOUS
 62
             7
100
AcDbLine
 10
-17.0
 20
29.25
 11
-17.0
 21
20.25
  0
LINE
  5
2B1
100
AcDbEntity
  8
1
  6
CONTINUOUS
 62
             7
100
AcDbLine
 10
17.25
 20
-18.75
 11
17.25
 21
-18.25
  0
LINE
  5
2B0
100
AcDbEntity
  8
1
  6
CONTINUOUS
 62
             7
100
AcDbLine
 10
-19.25
 20
-18.24999999999999
 11
-19.25
 21
-18.74999999999999
  0
LINE
  5
2AF
100
AcDbEntity
  8
1
  6
CONTINUOUS
 62
             7
100
AcDbLine
 10
17.25
 20
-12.75
 11
17.25
 21
-12.25
  0
LINE
  5
2AE
100
AcDbEntity
  8
1
  6
CONTINUOUS
 62
             7
100
AcDbLine
 10
-19.25
 20
-12.24999999999999
 11
-19.25000000000009
 21
-12.75
  0
LINE
  5
2AD
100
AcDbEntity
  8
1
  6
CONTINUOUS
 62
             7
100
AcDbLine
 10
-16.5
 20
-8.0
 11
-8.5
 21
-8.0
  0
LINE
  5
2AC
100
AcDbEntity
  8
1
  6
CONTINUOUS
 62
             7
100
AcDbLine
 10
-8.0
 20
-7.5
 11
-8.0
 21
1.5
  0
LINE
  5
2AB
100
AcDbEntity
  8
1
  6
CONTINUOUS
 62
             7
100
AcDbLine
 10
-8.5
 20
2.0
 11
-16.5
 21
2.0
  0
LINE
  5
2AA
100
AcDbEntity
  8
1
  6
CONTINUOUS
 62
             7
100
AcDbLine
 10
-17.0
 20
1.5
 11
-17.0
 21
-7.5
  0
LINE
  5
2A9
100
AcDbEntity
  8
0
  6
CONTINUOUS
 62
             7
100
AcDbLine
 10
-10.87127144896749
 20
-0.1064177772476
 11
-11.26562095407262
 21
-2.34288495612537
  0
LINE
  5
2A8
100
AcDbEntity
  8
0
  6
CONTINUOUS
 62
             7
100
AcDbLine
 10
-10.21198276849501
 20
0.4467911113762
 11
-10.87127144896749
 21
-0.1064177772476
  0
LINE
  5
2A7
100
AcDbEntity
  8
0
  6
CONTINUOUS
 62
             7
100
AcDbLine
 10
-10.4690978123696
 20
0.75320888862379
 11
-10.67618014290321
 21
1.0
  0
LINE
  5
2A6
100
AcDbEntity
  8
0
  6
CONTINUOUS
 62
             7
100
AcDbLine
 10
-11.12838649284211
 20
0.19999999999999
 11
-10.4690978123696
 21
0.75320888862379
  0
LINE
  5
2A5
100
AcDbEntity
  8
0
  6
CONTINUOUS
 62
             7
100
AcDbLine
 10
-12.99318413812941
 20
0.19999999999999
 11
-11.12838649284211
 21
0.19999999999999
  0
LINE
  5
2A4
100
AcDbEntity
  8
0
  6
CONTINUOUS
 62
             7
100
AcDbLine
 10
-12.99318413812941
 20
0.19999999999999
 11
-13.43669655984289
 21
0.72855752193732
  0
LINE
  5
2A3
100
AcDbEntity
  8
0
  6
CONTINUOUS
 62
             7
100
AcDbLine
 10
-13.7431143370905
 20
0.4714424780627
 11
-14.0666068855044
 21
0.19999999999999
  0
LINE
  5
2A2
100
AcDbEntity
  8
0
  6
CONTINUOUS
 62
             7
100
AcDbLine
 10
-13.7431143370905
 20
0.4714424780627
 11
-13.29960191537691
 21
-0.05711504387463
  0
LINE
  5
2A1
100
AcDbEntity
  8
0
  6
CONTINUOUS
 62
             7
100
AcDbLine
 10
-10.8338827946279
 20
-3.14240371505633
 11
-11.50604857951801
 21
-3.70641777724759
  0
LINE
  5
2A0
100
AcDbEntity
  8
0
  6
CONTINUOUS
 62
             7
100
AcDbLine
 10
-10.63038449397563
 20
-3.34729635533387
 11
-10.8338827946279
 21
-3.14240371505633
  0
LINE
  5
29F
100
AcDbEntity
  8
0
  6
CONTINUOUS
 62
             7
100
AcDbLine
 10
-10.82210853235901
 20
-2.8714424780627
 11
-10.49861598394509
 21
-2.59999999999999
  0
LINE
  5
29E
100
AcDbEntity
  8
0
  6
CONTINUOUS
 62
             7
100
AcDbLine
 10
-11.26562095407262
 20
-2.34288495612537
 11
-10.82210853235901
 21
-2.8714424780627
  0
LINE
  5
29D
100
AcDbEntity
  8
0
  6
CONTINUOUS
 62
             7
100
AcDbLine
 10
-11.57203873132019
 20
-2.59999999999999
 11
-13.43683637660742
 21
-2.59999999999999
  0
LINE
  5
29C
100
AcDbEntity
  8
0
  6
CONTINUOUS
 62
             7
100
AcDbLine
 10
-11.2864621863549
 20
-3.0
 11
-11.57203873132019
 21
-2.59999999999999
  0
LINE
  5
29B
100
AcDbEntity
  8
0
  6
CONTINUOUS
 62
             7
100
AcDbLine
 10
-11.76316362339259
 20
-3.40000000000001
 11
-13.6279612686798
 21
-3.40000000000001
  0
LINE
  5
29A
100
AcDbEntity
  8
0
  6
CONTINUOUS
 62
             7
100
AcDbLine
 10
-11.76316362339259
 20
-3.40000000000001
 11
-11.2864621863549
 21
-3.0
  0
LINE
  5
299
100
AcDbEntity
  8
0
  6
CONTINUOUS
 62
             7
100
AcDbLine
 10
-13.93437904592739
 20
-3.65711504387463
 11
-14.3287285510325
 21
-5.8935822227524
  0
LINE
  5
298
100
AcDbEntity
  8
0
  6
CONTINUOUS
 62
             7
100
AcDbLine
 10
-14.37789146764101
 20
-3.1285575219373
 11
-13.93437904592739
 21
-3.65711504387463
  0
LINE
  5
297
100
AcDbEntity
  8
0
  6
CONTINUOUS
 62
             7
100
AcDbLine
 10
-13.91353781364511
 20
-3.0
 11
-13.6279612686798
 21
-3.40000000000001
  0
LINE
  5
296
100
AcDbEntity
  8
0
  6
CONTINUOUS
 62
             7
100
AcDbLine
 10
-13.91353781364511
 20
-3.0
 11
-13.43683637660742
 21
-2.59999999999999
  0
LINE
  5
295
100
AcDbEntity
  8
0
  6
CONTINUOUS
 62
             7
100
AcDbLine
 10
-13.69395142048201
 20
-2.29358222275241
 11
-13.29960191537691
 21
-0.05711504387463
  0
LINE
  5
294
100
AcDbEntity
  8
0
  6
CONTINUOUS
 62
             7
100
AcDbLine
 10
-14.35324010095451
 20
-2.84679111137621
 11
-13.69395142048201
 21
-2.29358222275241
  0
LINE
  5
293
100
AcDbEntity
  8
0
  6
CONTINUOUS
 62
             7
100
AcDbLine
 10
-14.07161350715791
 20
-6.19999999999999
 11
-12.20681586187061
 21
-6.19999999999999
  0
LINE
  5
292
100
AcDbEntity
  8
0
  6
CONTINUOUS
 62
             7
100
AcDbLine
 10
-14.73090218763041
 20
-6.75320888862379
 11
-14.07161350715791
 21
-6.19999999999999
  0
LINE
  5
291
100
AcDbEntity
  8
0
  6
CONTINUOUS
 62
             7
100
AcDbLine
 10
-14.98801723150503
 20
-6.4467911113762
 11
-15.19509956203861
 21
-6.19999999999999
  0
LINE
  5
290
100
AcDbEntity
  8
0
  6
CONTINUOUS
 62
             7
100
AcDbLine
 10
-14.98801723150503
 20
-6.4467911113762
 11
-14.3287285510325
 21
-5.8935822227524
  0
LINE
  5
28F
100
AcDbEntity
  8
0
  6
CONTINUOUS
 62
             7
100
AcDbLine
 10
-11.7633034401571
 20
-6.72855752193732
 11
-12.086795988571
 21
-7.0
  0
LINE
  5
28E
100
AcDbEntity
  8
0
  6
CONTINUOUS
 62
             7
100
AcDbLine
 10
-11.7633034401571
 20
-6.72855752193732
 11
-12.20681586187061
 21
-6.19999999999999
  0
LINE
  5
28D
100
AcDbEntity
  8
0
  6
CONTINUOUS
 62
             7
100
AcDbLine
 10
-11.90039808462311
 20
-5.9428849561254
 11
-11.50604857951801
 21
-3.70641777724759
  0
LINE
  5
28C
100
AcDbEntity
  8
0
  6
CONTINUOUS
 62
             7
100
AcDbLine
 10
-11.90039808462311
 20
-5.9428849561254
 11
-11.47182216255121
 21
-6.45364185095389
  0
LINE
  5
28B
100
AcDbEntity
  8
0
  6
CONTINUOUS
 62
             7
100
AcDbLine
 10
-14.56032243148809
 20
-2.59999999999999
 11
-14.35324010095451
 21
-2.84679111137621
  0
LINE
  5
28A
100
AcDbEntity
  8
0
  6
CONTINUOUS
 62
             7
100
AcDbLine
 10
-14.0666068855044
 20
0.19999999999999
 11
-14.56032243148809
 21
-2.59999999999999
  0
LINE
  5
289
100
AcDbEntity
  8
0
  6
CONTINUOUS
 62
             7
100
AcDbLine
 10
-13.11320401142899
 20
1.0
 11
-13.43669655984289
 21
0.72855752193732
  0
LINE
  5
288
100
AcDbEntity
  8
0
  6
CONTINUOUS
 62
             7
100
AcDbLine
 10
-10.67618014290321
 20
1.0
 11
-13.11320401142899
 21
1.0
  0
LINE
  5
287
100
AcDbEntity
  8
0
  6
CONTINUOUS
 62
             7
100
AcDbLine
 10
-10.0049004379614
 20
0.19999999999999
 11
-10.21198276849501
 21
0.4467911113762
  0
LINE
  5
286
100
AcDbEntity
  8
0
  6
CONTINUOUS
 62
             7
100
AcDbLine
 10
-10.49861598394509
 20
-2.59999999999999
 11
-10.0049004379614
 21
0.19999999999999
  0
LINE
  5
285
100
AcDbEntity
  8
0
  6
CONTINUOUS
 62
             7
100
AcDbLine
 10
-11.11072197812851
 20
-6.07142559649131
 11
-11.47182216255121
 21
-6.45364185095389
  0
LINE
  5
284
100
AcDbEntity
  8
0
  6
CONTINUOUS
 62
             7
100
AcDbLine
 10
-10.63038449397563
 20
-3.34729635533387
 11
-11.11072197812851
 21
-6.07142559649131
  0
LINE
  5
283
100
AcDbEntity
  8
0
  6
CONTINUOUS
 62
             7
100
AcDbLine
 10
-14.70138401605492
 20
-3.40000000000001
 11
-14.37789146764101
 21
-3.1285575219373
  0
LINE
  5
282
100
AcDbEntity
  8
0
  6
CONTINUOUS
 62
             7
100
AcDbLine
 10
-15.19509956203861
 20
-6.19999999999999
 11
-14.70138401605492
 21
-3.40000000000001
  0
LINE
  5
281
100
AcDbEntity
  8
0
  6
CONTINUOUS
 62
             7
100
AcDbLine
 10
-14.52381985709681
 20
-7.0
 11
-14.73090218763041
 21
-6.75320888862379
  0
LINE
  5
280
100
AcDbEntity
  8
0
  6
CONTINUOUS
 62
             7
100
AcDbLine
 10
-12.086795988571
 20
-7.0
 11
-14.52381985709681
 21
-7.0
  0
LINE
  5
27F
100
AcDbEntity
  8
0
  6
CONTINUOUS
 62
             7
100
AcDbLine
 10
12.12872855103251
 20
27.6435822227524
 11
11.7343790459274
 21
25.40711504387461
  0
LINE
  5
27E
100
AcDbEntity
  8
0
  6
CONTINUOUS
 62
             7
100
AcDbLine
 10
12.78801723150499
 20
28.1967911113762
 11
12.12872855103251
 21
27.6435822227524
  0
LINE
  5
27D
100
AcDbEntity
  8
0
  6
CONTINUOUS
 62
             7
100
AcDbLine
 10
12.5309021876304
 20
28.5032088886238
 11
12.32381985709671
 21
28.75
  0
LINE
  5
27C
100
AcDbEntity
  8
0
  6
CONTINUOUS
 62
             7
100
AcDbLine
 10
11.87161350715789
 20
27.95
 11
12.5309021876304
 21
28.5032088886238
  0
LINE
  5
27B
100
AcDbEntity
  8
0
  6
CONTINUOUS
 62
             7
100
AcDbLine
 10
10.00681586187071
 20
27.95
 11
11.87161350715789
 21
27.95
  0
LINE
  5
27A
100
AcDbEntity
  8
0
  6
CONTINUOUS
 62
             7
100
AcDbLine
 10
10.00681586187071
 20
27.95
 11
9.56330344015709
 21
28.47855752193729
  0
LINE
  5
279
100
AcDbEntity
  8
0
  6
CONTINUOUS
 62
             7
100
AcDbLine
 10
9.2568856629095
 20
28.2214424780627
 11
8.9333931144956
 21
27.95
  0
LINE
  5
278
100
AcDbEntity
  8
0
  6
CONTINUOUS
 62
             7
100
AcDbLine
 10
9.2568856629095
 20
28.2214424780627
 11
9.70039808462309
 21
27.69288495612538
  0
LINE
  5
277
100
AcDbEntity
  8
0
  6
CONTINUOUS
 62
             7
100
AcDbLine
 10
12.1661172053721
 20
24.60759628494368
 11
11.49395142048201
 21
24.04358222275241
  0
LINE
  5
276
100
AcDbEntity
  8
0
  6
CONTINUOUS
 62
             7
100
AcDbLine
 10
12.36961550602439
 20
24.40270364466613
 11
12.1661172053721
 21
24.60759628494368
  0
LINE
  5
275
100
AcDbEntity
  8
0
  6
CONTINUOUS
 62
             7
100
AcDbLine
 10
12.17789146764099
 20
24.87855752193731
 11
12.50138401605489
 21
25.15000000000001
  0
LINE
  5
274
100
AcDbEntity
  8
0
  6
CONTINUOUS
 62
             7
100
AcDbLine
 10
11.7343790459274
 20
25.40711504387461
 11
12.17789146764099
 21
24.87855752193731
  0
LINE
  5
273
100
AcDbEntity
  8
0
  6
CONTINUOUS
 62
             7
100
AcDbLine
 10
11.42796126867981
 20
25.15000000000001
 11
9.5631636233926
 21
25.15000000000001
  0
LINE
  5
272
100
AcDbEntity
  8
0
  6
CONTINUOUS
 62
             7
100
AcDbLine
 10
11.7135378136451
 20
24.75
 11
11.42796126867981
 21
25.15000000000001
  0
LINE
  5
271
100
AcDbEntity
  8
0
  6
CONTINUOUS
 62
             7
100
AcDbLine
 10
11.23683637660739
 20
24.34999999999999
 11
9.3720387313202
 21
24.34999999999999
  0
LINE
  5
270
100
AcDbEntity
  8
0
  6
CONTINUOUS
 62
             7
100
AcDbLine
 10
11.23683637660739
 20
24.34999999999999
 11
11.7135378136451
 21
24.75
  0
LINE
  5
26F
100
AcDbEntity
  8
0
  6
CONTINUOUS
 62
             7
100
AcDbLine
 10
9.06562095407259
 20
24.09288495612539
 11
8.6712714489675
 21
21.85641777724759
  0
LINE
  5
26E
100
AcDbEntity
  8
0
  6
CONTINUOUS
 62
             7
100
AcDbLine
 10
8.62210853235899
 20
24.62144247806269
 11
9.06562095407259
 21
24.09288495612539
  0
LINE
  5
26D
100
AcDbEntity
  8
0
  6
CONTINUOUS
 62
             7
100
AcDbLine
 10
9.08646218635491
 20
24.75
 11
9.3720387313202
 21
24.34999999999999
  0
LINE
  5
26C
100
AcDbEntity
  8
0
  6
CONTINUOUS
 62
             7
100
AcDbLine
 10
9.08646218635491
 20
24.75
 11
9.5631636233926
 21
25.15000000000001
  0
LINE
  5
26B
100
AcDbEntity
  8
0
  6
CONTINUOUS
 62
             7
100
AcDbLine
 10
9.30604857951801
 20
25.45641777724759
 11
9.70039808462309
 21
27.69288495612538
  0
LINE
  5
26A
100
AcDbEntity
  8
0
  6
CONTINUOUS
 62
             7
100
AcDbLine
 10
8.64675989904549
 20
24.90320888862379
 11
9.30604857951801
 21
25.45641777724759
  0
LINE
  5
269
100
AcDbEntity
  8
0
  6
CONTINUOUS
 62
             7
100
AcDbLine
 10
8.92838649284209
 20
21.55
 11
10.79318413812939
 21
21.55
  0
LINE
  5
268
100
AcDbEntity
  8
0
  6
CONTINUOUS
 62
             7
100
AcDbLine
 10
8.26909781236961
 20
20.9967911113762
 11
8.92838649284209
 21
21.55
  0
LINE
  5
267
100
AcDbEntity
  8
0
  6
CONTINUOUS
 62
             7
100
AcDbLine
 10
8.01198276849499
 20
21.3032088886238
 11
7.80490043796141
 21
21.55
  0
LINE
  5
266
100
AcDbEntity
  8
0
  6
CONTINUOUS
 62
             7
100
AcDbLine
 10
8.01198276849499
 20
21.3032088886238
 11
8.6712714489675
 21
21.85641777724759
  0
LINE
  5
265
100
AcDbEntity
  8
0
  6
CONTINUOUS
 62
             7
100
AcDbLine
 10
11.2366965598429
 20
21.02144247806268
 11
10.913204011429
 21
20.75
  0
LINE
  5
264
100
AcDbEntity
  8
0
  6
CONTINUOUS
 62
             7
100
AcDbLine
 10
11.2366965598429
 20
21.02144247806268
 11
10.79318413812939
 21
21.55
  0
LINE
  5
263
100
AcDbEntity
  8
0
  6
CONTINUOUS
 62
             7
100
AcDbLine
 10
11.09960191537701
 20
21.80711504387462
 11
11.49395142048201
 21
24.04358222275241
  0
LINE
  5
262
100
AcDbEntity
  8
0
  6
CONTINUOUS
 62
             7
100
AcDbLine
 10
11.09960191537701
 20
21.80711504387462
 11
11.52817783744879
 21
21.29635814904611
  0
LINE
  5
261
100
AcDbEntity
  8
0
  6
CONTINUOUS
 62
             7
100
AcDbLine
 10
8.43967756851188
 20
25.15000000000001
 11
8.64675989904549
 21
24.90320888862379
  0
LINE
  5
260
100
AcDbEntity
  8
0
  6
CONTINUOUS
 62
             7
100
AcDbLine
 10
8.9333931144956
 20
27.95
 11
8.43967756851188
 21
25.15000000000001
  0
LINE
  5
25F
100
AcDbEntity
  8
0
  6
CONTINUOUS
 62
             7
100
AcDbLine
 10
9.88679598857101
 20
28.75
 11
9.56330344015709
 21
28.47855752193729
  0
LINE
  5
25E
100
AcDbEntity
  8
0
  6
CONTINUOUS
 62
             7
100
AcDbLine
 10
12.32381985709671
 20
28.75
 11
9.88679598857101
 21
28.75
  0
LINE
  5
25D
100
AcDbEntity
  8
0
  6
CONTINUOUS
 62
             7
100
AcDbLine
 10
12.9950995620386
 20
27.95
 11
12.78801723150499
 21
28.1967911113762
  0
LINE
  5
25C
100
AcDbEntity
  8
0
  6
CONTINUOUS
 62
             7
100
AcDbLine
 10
12.50138401605489
 20
25.15000000000001
 11
12.9950995620386
 21
27.95
  0
LINE
  5
25B
100
AcDbEntity
  8
0
  6
CONTINUOUS
 62
             7
100
AcDbLine
 10
11.88927802187149
 20
21.6785744035087
 11
11.52817783744879
 21
21.29635814904611
  0
LINE
  5
25A
100
AcDbEntity
  8
0
  6
CONTINUOUS
 62
             7
100
AcDbLine
 10
12.36961550602439
 20
24.40270364466613
 11
11.88927802187149
 21
21.6785744035087
  0
LINE
  5
259
100
AcDbEntity
  8
0
  6
CONTINUOUS
 62
             7
100
AcDbLine
 10
8.2986159839451
 20
24.34999999999999
 11
8.62210853235899
 21
24.62144247806269
  0
LINE
  5
258
100
AcDbEntity
  8
0
  6
CONTINUOUS
 62
             7
100
AcDbLine
 10
7.80490043796141
 20
21.55
 11
8.2986159839451
 21
24.34999999999999
  0
LINE
  5
257
100
AcDbEntity
  8
0
  6
CONTINUOUS
 62
             7
100
AcDbLine
 10
8.47618014290319
 20
20.75
 11
8.26909781236961
 21
20.9967911113762
  0
LINE
  5
256
100
AcDbEntity
  8
0
  6
CONTINUOUS
 62
             7
100
AcDbLine
 10
10.913204011429
 20
20.75
 11
8.47618014290319
 21
20.75
  0
LINE
  5
255
100
AcDbEntity
  8
0
  6
CONTINUOUS
 62
             7
100
AcDbLine
 10
4.52872855103249
 20
27.6435822227524
 11
4.1343790459274
 21
25.40711504387461
  0
LINE
  5
254
100
AcDbEntity
  8
0
  6
CONTINUOUS
 62
             7
100
AcDbLine
 10
5.188017231505
 20
28.1967911113762
 11
4.52872855103249
 21
27.6435822227524
  0
LINE
  5
253
100
AcDbEntity
  8
0
  6
CONTINUOUS
 62
             7
100
AcDbLine
 10
4.93090218763041
 20
28.5032088886238
 11
4.72381985709669
 21
28.75
  0
LINE
  5
252
100
AcDbEntity
  8
0
  6
CONTINUOUS
 62
             7
100
AcDbLine
 10
4.27161350715789
 20
27.95
 11
4.93090218763041
 21
28.5032088886238
  0
LINE
  5
251
100
AcDbEntity
  8
0
  6
CONTINUOUS
 62
             7
100
AcDbLine
 10
2.40681586187068
 20
27.95
 11
4.27161350715789
 21
27.95
  0
LINE
  5
250
100
AcDbEntity
  8
0
  6
CONTINUOUS
 62
             7
100
AcDbLine
 10
2.40681586187068
 20
27.95
 11
1.96330344015709
 21
28.47855752193729
  0
LINE
  5
24F
100
AcDbEntity
  8
0
  6
CONTINUOUS
 62
             7
100
AcDbLine
 10
1.6568856629095
 20
28.2214424780627
 11
1.33339311449561
 21
27.95
  0
LINE
  5
24E
100
AcDbEntity
  8
0
  6
CONTINUOUS
 62
             7
100
AcDbLine
 10
1.6568856629095
 20
28.2214424780627
 11
2.1003980846231
 21
27.69288495612538
  0
LINE
  5
24D
100
AcDbEntity
  8
0
  6
CONTINUOUS
 62
             7
100
AcDbLine
 10
4.56611720537211
 20
24.60759628494368
 11
3.89395142048198
 21
24.04358222275241
  0
LINE
  5
24C
100
AcDbEntity
  8
0
  6
CONTINUOUS
 62
             7
100
AcDbLine
 10
4.76961550602439
 20
24.40270364466613
 11
4.56611720537211
 21
24.60759628494368
  0
LINE
  5
24B
100
AcDbEntity
  8
0
  6
CONTINUOUS
 62
             7
100
AcDbLine
 10
4.577891467641
 20
24.87855752193731
 11
4.90138401605489
 21
25.15000000000001
  0
LINE
  5
24A
100
AcDbEntity
  8
0
  6
CONTINUOUS
 62
             7
100
AcDbLine
 10
4.1343790459274
 20
25.40711504387461
 11
4.577891467641
 21
24.87855752193731
  0
LINE
  5
249
100
AcDbEntity
  8
0
  6
CONTINUOUS
 62
             7
100
AcDbLine
 10
3.82796126867979
 20
25.15000000000001
 11
1.9631636233926
 21
25.15000000000001
  0
LINE
  5
248
100
AcDbEntity
  8
0
  6
CONTINUOUS
 62
             7
100
AcDbLine
 10
4.11353781364511
 20
24.75
 11
3.82796126867979
 21
25.15000000000001
  0
LINE
  5
247
100
AcDbEntity
  8
0
  6
CONTINUOUS
 62
             7
100
AcDbLine
 10
3.63683637660739
 20
24.34999999999999
 11
1.77203873132021
 21
24.34999999999999
  0
LINE
  5
246
100
AcDbEntity
  8
0
  6
CONTINUOUS
 62
             7
100
AcDbLine
 10
3.63683637660739
 20
24.34999999999999
 11
4.11353781364511
 21
24.75
  0
LINE
  5
245
100
AcDbEntity
  8
0
  6
CONTINUOUS
 62
             7
100
AcDbLine
 10
1.46562095407259
 20
24.09288495612539
 11
1.07127144896751
 21
21.85641777724759
  0
LINE
  5
244
100
AcDbEntity
  8
0
  6
CONTINUOUS
 62
             7
100
AcDbLine
 10
1.022108532359
 20
24.62144247806269
 11
1.46562095407259
 21
24.09288495612539
  0
LINE
  5
243
100
AcDbEntity
  8
0
  6
CONTINUOUS
 62
             7
100
AcDbLine
 10
1.48646218635489
 20
24.75
 11
1.77203873132021
 21
24.34999999999999
  0
LINE
  5
242
100
AcDbEntity
  8
0
  6
CONTINUOUS
 62
             7
100
AcDbLine
 10
1.48646218635489
 20
24.75
 11
1.9631636233926
 21
25.15000000000001
  0
LINE
  5
241
100
AcDbEntity
  8
0
  6
CONTINUOUS
 62
             7
100
AcDbLine
 10
1.70604857951798
 20
25.45641777724759
 11
2.1003980846231
 21
27.69288495612538
  0
LINE
  5
240
100
AcDbEntity
  8
0
  6
CONTINUOUS
 62
             7
100
AcDbLine
 10
1.0467598990455
 20
24.90320888862379
 11
1.70604857951798
 21
25.45641777724759
  0
LINE
  5
23F
100
AcDbEntity
  8
0
  6
CONTINUOUS
 62
             7
100
AcDbLine
 10
1.3283864928421
 20
21.55
 11
3.19318413812928
 21
21.55
  0
LINE
  5
23E
100
AcDbEntity
  8
0
  6
CONTINUOUS
 62
             7
100
AcDbLine
 10
0.66909781236959
 20
20.9967911113762
 11
1.3283864928421
 21
21.55
  0
LINE
  5
23D
100
AcDbEntity
  8
0
  6
CONTINUOUS
 62
             7
100
AcDbLine
 10
0.41198276849499
 20
21.3032088886238
 11
0.20490043796138
 21
21.55
  0
LINE
  5
23C
100
AcDbEntity
  8
0
  6
CONTINUOUS
 62
             7
100
AcDbLine
 10
0.41198276849499
 20
21.3032088886238
 11
1.07127144896751
 21
21.85641777724759
  0
LINE
  5
23B
100
AcDbEntity
  8
0
  6
CONTINUOUS
 62
             7
100
AcDbLine
 10
3.6366965598429
 20
21.02144247806268
 11
3.31320401142901
 21
20.75
  0
LINE
  5
23A
100
AcDbEntity
  8
0
  6
CONTINUOUS
 62
             7
100
AcDbLine
 10
3.6366965598429
 20
21.02144247806268
 11
3.19318413812928
 21
21.55
  0
LINE
  5
239
100
AcDbEntity
  8
0
  6
CONTINUOUS
 62
             7
100
AcDbLine
 10
3.4996019153769
 20
21.80711504387462
 11
3.89395142048198
 21
24.04358222275241
  0
LINE
  5
238
100
AcDbEntity
  8
0
  6
CONTINUOUS
 62
             7
100
AcDbLine
 10
3.4996019153769
 20
21.80711504387462
 11
3.9281778374488
 21
21.29635814904611
  0
LINE
  5
237
100
AcDbEntity
  8
0
  6
CONTINUOUS
 62
             7
100
AcDbLine
 10
0.83967756851189
 20
25.15000000000001
 11
1.0467598990455
 21
24.90320888862379
  0
LINE
  5
236
100
AcDbEntity
  8
0
  6
CONTINUOUS
 62
             7
100
AcDbLine
 10
1.33339311449561
 20
27.95
 11
0.83967756851189
 21
25.15000000000001
  0
LINE
  5
235
100
AcDbEntity
  8
0
  6
CONTINUOUS
 62
             7
100
AcDbLine
 10
2.28679598857099
 20
28.75
 11
1.96330344015709
 21
28.47855752193729
  0
LINE
  5
234
100
AcDbEntity
  8
0
  6
CONTINUOUS
 62
             7
100
AcDbLine
 10
4.72381985709669
 20
28.75
 11
2.28679598857099
 21
28.75
  0
LINE
  5
233
100
AcDbEntity
  8
0
  6
CONTINUOUS
 62
             7
100
AcDbLine
 10
5.39509956203861
 20
27.95
 11
5.188017231505
 21
28.1967911113762
  0
LINE
  5
232
100
AcDbEntity
  8
0
  6
CONTINUOUS
 62
             7
100
AcDbLine
 10
4.90138401605489
 20
25.15000000000001
 11
5.39509956203861
 21
27.95
  0
LINE
  5
231
100
AcDbEntity
  8
0
  6
CONTINUOUS
 62
             7
100
AcDbLine
 10
4.2892780218715
 20
21.6785744035087
 11
3.9281778374488
 21
21.29635814904611
  0
LINE
  5
230
100
AcDbEntity
  8
0
  6
CONTINUOUS
 62
             7
100
AcDbLine
 10
4.76961550602439
 20
24.40270364466613
 11
4.2892780218715
 21
21.6785744035087
  0
LINE
  5
22F
100
AcDbEntity
  8
0
  6
CONTINUOUS
 62
             7
100
AcDbLine
 10
0.6986159839451
 20
24.34999999999999
 11
1.022108532359
 21
24.62144247806269
  0
LINE
  5
22E
100
AcDbEntity
  8
0
  6
CONTINUOUS
 62
             7
100
AcDbLine
 10
0.20490043796138
 20
21.55
 11
0.6986159839451
 21
24.34999999999999
  0
LINE
  5
22D
100
AcDbEntity
  8
0
  6
CONTINUOUS
 62
             7
100
AcDbLine
 10
0.87618014290331
 20
20.75
 11
0.66909781236959
 21
20.9967911113762
  0
LINE
  5
22C
100
AcDbEntity
  8
0
  6
CONTINUOUS
 62
             7
100
AcDbLine
 10
3.31320401142901
 20
20.75
 11
0.87618014290331
 21
20.75
  0
LINE
  5
22B
100
AcDbEntity
  8
0
  6
CONTINUOUS
 62
             7
100
AcDbLine
 10
-3.07127144896751
 20
27.6435822227524
 11
-3.46562095407259
 21
25.40711504387461
  0
LINE
  5
22A
100
AcDbEntity
  8
0
  6
CONTINUOUS
 62
             7
100
AcDbLine
 10
-2.41198276849499
 20
28.1967911113762
 11
-3.07127144896751
 21
27.6435822227524
  0
LINE
  5
229
100
AcDbEntity
  8
0
  6
CONTINUOUS
 62
             7
100
AcDbLine
 10
-2.66909781236961
 20
28.5032088886238
 11
-2.87618014290319
 21
28.75
  0
LINE
  5
228
100
AcDbEntity
  8
0
  6
CONTINUOUS
 62
             7
100
AcDbLine
 10
-3.3283864928421
 20
27.95
 11
-2.66909781236961
 21
28.5032088886238
  0
LINE
  5
227
100
AcDbEntity
  8
0
  6
CONTINUOUS
 62
             7
100
AcDbLine
 10
-5.19318413812931
 20
27.95
 11
-3.3283864928421
 21
27.95
  0
LINE
  5
226
100
AcDbEntity
  8
0
  6
CONTINUOUS
 62
             7
100
AcDbLine
 10
-5.19318413812931
 20
27.95
 11
-5.6366965598429
 21
28.47855752193729
  0
LINE
  5
225
100
AcDbEntity
  8
0
  6
CONTINUOUS
 62
             7
100
AcDbLine
 10
-5.94311433709049
 20
28.2214424780627
 11
-6.26660688550442
 21
27.95
  0
LINE
  5
224
100
AcDbEntity
  8
0
  6
CONTINUOUS
 62
             7
100
AcDbLine
 10
-5.94311433709049
 20
28.2214424780627
 11
-5.4996019153769
 21
27.69288495612538
  0
LINE
  5
223
100
AcDbEntity
  8
0
  6
CONTINUOUS
 62
             7
100
AcDbLine
 10
-3.03388279462791
 20
24.60759628494368
 11
-3.70604857951801
 21
24.04358222275241
  0
LINE
  5
222
100
AcDbEntity
  8
0
  6
CONTINUOUS
 62
             7
100
AcDbLine
 10
-2.8303844939756
 20
24.40270364466613
 11
-3.03388279462791
 21
24.60759628494368
  0
LINE
  5
221
100
AcDbEntity
  8
0
  6
CONTINUOUS
 62
             7
100
AcDbLine
 10
-3.022108532359
 20
24.87855752193731
 11
-2.6986159839451
 21
25.15000000000001
  0
LINE
  5
220
100
AcDbEntity
  8
0
  6
CONTINUOUS
 62
             7
100
AcDbLine
 10
-3.46562095407259
 20
25.40711504387461
 11
-3.022108532359
 21
24.87855752193731
  0
LINE
  5
21F
100
AcDbEntity
  8
0
  6
CONTINUOUS
 62
             7
100
AcDbLine
 10
-3.77203873132021
 20
25.15000000000001
 11
-5.63683637660739
 21
25.15000000000001
  0
LINE
  5
21E
100
AcDbEntity
  8
0
  6
CONTINUOUS
 62
             7
100
AcDbLine
 10
-3.48646218635491
 20
24.75
 11
-3.77203873132021
 21
25.15000000000001
  0
LINE
  5
21D
100
AcDbEntity
  8
0
  6
CONTINUOUS
 62
             7
100
AcDbLine
 10
-3.9631636233926
 20
24.34999999999999
 11
-5.82796126867981
 21
24.34999999999999
  0
LINE
  5
21C
100
AcDbEntity
  8
0
  6
CONTINUOUS
 62
             7
100
AcDbLine
 10
-3.9631636233926
 20
24.34999999999999
 11
-3.48646218635491
 21
24.75
  0
LINE
  5
21B
100
AcDbEntity
  8
0
  6
CONTINUOUS
 62
             7
100
AcDbLine
 10
-6.1343790459274
 20
24.09288495612539
 11
-6.52872855103251
 21
21.85641777724759
  0
LINE
  5
21A
100
AcDbEntity
  8
0
  6
CONTINUOUS
 62
             7
100
AcDbLine
 10
-6.577891467641
 20
24.62144247806269
 11
-6.1343790459274
 21
24.09288495612539
  0
LINE
  5
219
100
AcDbEntity
  8
0
  6
CONTINUOUS
 62
             7
100
AcDbLine
 10
-6.11353781364511
 20
24.75
 11
-5.82796126867981
 21
24.34999999999999
  0
LINE
  5
218
100
AcDbEntity
  8
0
  6
CONTINUOUS
 62
             7
100
AcDbLine
 10
-6.11353781364511
 20
24.75
 11
-5.63683637660739
 21
25.15000000000001
  0
LINE
  5
217
100
AcDbEntity
  8
0
  6
CONTINUOUS
 62
             7
100
AcDbLine
 10
-5.89395142048201
 20
25.45641777724759
 11
-5.4996019153769
 21
27.69288495612538
  0
LINE
  5
216
100
AcDbEntity
  8
0
  6
CONTINUOUS
 62
             7
100
AcDbLine
 10
-6.5532401009545
 20
24.90320888862379
 11
-5.89395142048201
 21
25.45641777724759
  0
LINE
  5
215
100
AcDbEntity
  8
0
  6
CONTINUOUS
 62
             7
100
AcDbLine
 10
-6.27161350715789
 20
21.55
 11
-4.40681586187071
 21
21.55
  0
LINE
  5
214
100
AcDbEntity
  8
0
  6
CONTINUOUS
 62
             7
100
AcDbLine
 10
-6.9309021876303
 20
20.9967911113762
 11
-6.27161350715789
 21
21.55
  0
LINE
  5
213
100
AcDbEntity
  8
0
  6
CONTINUOUS
 62
             7
100
AcDbLine
 10
-7.188017231505
 20
21.3032088886238
 11
-7.39509956203861
 21
21.55
  0
LINE
  5
212
100
AcDbEntity
  8
0
  6
CONTINUOUS
 62
             7
100
AcDbLine
 10
-7.188017231505
 20
21.3032088886238
 11
-6.52872855103251
 21
21.85641777724759
  0
LINE
  5
211
100
AcDbEntity
  8
0
  6
CONTINUOUS
 62
             7
100
AcDbLine
 10
-3.96330344015709
 20
21.02144247806268
 11
-4.28679598857102
 21
20.75
  0
LINE
  5
210
100
AcDbEntity
  8
0
  6
CONTINUOUS
 62
             7
100
AcDbLine
 10
-3.96330344015709
 20
21.02144247806268
 11
-4.40681586187071
 21
21.55
  0
LINE
  5
20F
100
AcDbEntity
  8
0
  6
CONTINUOUS
 62
             7
100
AcDbLine
 10
-4.1003980846231
 20
21.80711504387462
 11
-3.70604857951801
 21
24.04358222275241
  0
LINE
  5
20E
100
AcDbEntity
  8
0
  6
CONTINUOUS
 62
             7
100
AcDbLine
 10
-4.1003980846231
 20
21.80711504387462
 11
-3.67182216255119
 21
21.29635814904611
  0
LINE
  5
20D
100
AcDbEntity
  8
0
  6
CONTINUOUS
 62
             7
100
AcDbLine
 10
-6.76032243148811
 20
25.15000000000001
 11
-6.5532401009545
 21
24.90320888862379
  0
LINE
  5
20C
100
AcDbEntity
  8
0
  6
CONTINUOUS
 62
             7
100
AcDbLine
 10
-6.26660688550442
 20
27.95
 11
-6.76032243148811
 21
25.15000000000001
  0
LINE
  5
20B
100
AcDbEntity
  8
0
  6
CONTINUOUS
 62
             7
100
AcDbLine
 10
-5.31320401142901
 20
28.75
 11
-5.6366965598429
 21
28.47855752193729
  0
LINE
  5
20A
100
AcDbEntity
  8
0
  6
CONTINUOUS
 62
             7
100
AcDbLine
 10
-2.87618014290319
 20
28.75
 11
-5.31320401142901
 21
28.75
  0
LINE
  5
209
100
AcDbEntity
  8
0
  6
CONTINUOUS
 62
             7
100
AcDbLine
 10
-2.20490043796141
 20
27.95
 11
-2.41198276849499
 21
28.1967911113762
  0
LINE
  5
208
100
AcDbEntity
  8
0
  6
CONTINUOUS
 62
             7
100
AcDbLine
 10
-2.6986159839451
 20
25.15000000000001
 11
-2.20490043796141
 21
27.95
  0
LINE
  5
207
100
AcDbEntity
  8
0
  6
CONTINUOUS
 62
             7
100
AcDbLine
 10
-3.3107219781285
 20
21.6785744035087
 11
-3.67182216255119
 21
21.29635814904611
  0
LINE
  5
206
100
AcDbEntity
  8
0
  6
CONTINUOUS
 62
             7
100
AcDbLine
 10
-2.8303844939756
 20
24.40270364466613
 11
-3.3107219781285
 21
21.6785744035087
  0
LINE
  5
205
100
AcDbEntity
  8
0
  6
CONTINUOUS
 62
             7
100
AcDbLine
 10
-6.90138401605489
 20
24.34999999999999
 11
-6.577891467641
 21
24.62144247806269
  0
LINE
  5
204
100
AcDbEntity
  8
0
  6
CONTINUOUS
 62
             7
100
AcDbLine
 10
-7.39509956203861
 20
21.55
 11
-6.90138401605489
 21
24.34999999999999
  0
LINE
  5
203
100
AcDbEntity
  8
0
  6
CONTINUOUS
 62
             7
100
AcDbLine
 10
-6.72381985709671
 20
20.75
 11
-6.9309021876303
 21
20.9967911113762
  0
LINE
  5
202
100
AcDbEntity
  8
0
  6
CONTINUOUS
 62
             7
100
AcDbLine
 10
-4.28679598857102
 20
20.75
 11
-6.72381985709671
 21
20.75
  0
LINE
  5
201
100
AcDbEntity
  8
0
  6
CONTINUOUS
 62
             7
100
AcDbLine
 10
-10.6712714489675
 20
27.6435822227524
 11
-11.06562095407261
 21
25.40711504387461
  0
LINE
  5
200
100
AcDbEntity
  8
0
  6
CONTINUOUS
 62
             7
100
AcDbLine
 10
-10.01198276849502
 20
28.1967911113762
 11
-10.6712714489675
 21
27.6435822227524
  0
LINE
  5
1FF
100
AcDbEntity
  8
0
  6
CONTINUOUS
 62
             7
100
AcDbLine
 10
-10.26909781236961
 20
28.5032088886238
 11
-10.47618014290322
 21
28.75
  0
LINE
  5
1FE
100
AcDbEntity
  8
0
  6
CONTINUOUS
 62
             7
100
AcDbLine
 10
-10.92838649284209
 20
27.95
 11
-10.26909781236961
 21
28.5032088886238
  0
LINE
  5
1FD
100
AcDbEntity
  8
0
  6
CONTINUOUS
 62
             7
100
AcDbLine
 10
-12.79318413812939
 20
27.95
 11
-10.92838649284209
 21
27.95
  0
LINE
  5
1FC
100
AcDbEntity
  8
0
  6
CONTINUOUS
 62
             7
100
AcDbLine
 10
-12.79318413812939
 20
27.95
 11
-13.2366965598429
 21
28.47855752193729
  0
LINE
  5
1FB
100
AcDbEntity
  8
0
  6
CONTINUOUS
 62
             7
100
AcDbLine
 10
-13.54311433709052
 20
28.2214424780627
 11
-13.86660688550441
 21
27.95
  0
LINE
  5
1FA
100
AcDbEntity
  8
0
  6
CONTINUOUS
 62
             7
100
AcDbLine
 10
-13.54311433709052
 20
28.2214424780627
 11
-13.09960191537689
 21
27.69288495612538
  0
LINE
  5
1F9
100
AcDbEntity
  8
0
  6
CONTINUOUS
 62
             7
100
AcDbLine
 10
-10.6338827946278
 20
24.60759628494368
 11
-11.30604857951789
 21
24.04358222275241
  0
LINE
  5
1F8
100
AcDbEntity
  8
0
  6
CONTINUOUS
 62
             7
100
AcDbLine
 10
-10.4303844939756
 20
24.40270364466613
 11
-10.6338827946278
 21
24.60759628494368
  0
LINE
  5
1F7
100
AcDbEntity
  8
0
  6
CONTINUOUS
 62
             7
100
AcDbLine
 10
-10.62210853235899
 20
24.87855752193731
 11
-10.2986159839451
 21
25.15000000000001
  0
LINE
  5
1F6
100
AcDbEntity
  8
0
  6
CONTINUOUS
 62
             7
100
AcDbLine
 10
-11.06562095407261
 20
25.40711504387461
 11
-10.62210853235899
 21
24.87855752193731
  0
LINE
  5
1F5
100
AcDbEntity
  8
0
  6
CONTINUOUS
 62
             7
100
AcDbLine
 10
-11.3720387313202
 20
25.15000000000001
 11
-13.23683637660741
 21
25.15000000000001
  0
LINE
  5
1F4
100
AcDbEntity
  8
0
  6
CONTINUOUS
 62
             7
100
AcDbLine
 10
-11.08646218635491
 20
24.75
 11
-11.3720387313202
 21
25.15000000000001
  0
LINE
  5
1F3
100
AcDbEntity
  8
0
  6
CONTINUOUS
 62
             7
100
AcDbLine
 10
-11.5631636233926
 20
24.34999999999999
 11
-13.42796126867981
 21
24.34999999999999
  0
LINE
  5
1F2
100
AcDbEntity
  8
0
  6
CONTINUOUS
 62
             7
100
AcDbLine
 10
-11.5631636233926
 20
24.34999999999999
 11
-11.08646218635491
 21
24.75
  0
LINE
  5
1F1
100
AcDbEntity
  8
0
  6
CONTINUOUS
 62
             7
100
AcDbLine
 10
-13.7343790459274
 20
24.09288495612539
 11
-14.12872855103251
 21
21.85641777724759
  0
LINE
  5
1F0
100
AcDbEntity
  8
0
  6
CONTINUOUS
 62
             7
100
AcDbLine
 10
-14.17789146764099
 20
24.62144247806269
 11
-13.7343790459274
 21
24.09288495612539
  0
LINE
  5
1EF
100
AcDbEntity
  8
0
  6
CONTINUOUS
 62
             7
100
AcDbLine
 10
-13.7135378136451
 20
24.75
 11
-13.42796126867981
 21
24.34999999999999
  0
LINE
  5
1EE
100
AcDbEntity
  8
0
  6
CONTINUOUS
 62
             7
100
AcDbLine
 10
-13.7135378136451
 20
24.75
 11
-13.23683637660741
 21
25.15000000000001
  0
LINE
  5
1ED
100
AcDbEntity
  8
0
  6
CONTINUOUS
 62
             7
100
AcDbLine
 10
-13.49395142048201
 20
25.45641777724759
 11
-13.09960191537689
 21
27.69288495612538
  0
LINE
  5
1EC
100
AcDbEntity
  8
0
  6
CONTINUOUS
 62
             7
100
AcDbLine
 10
-14.15324010095449
 20
24.90320888862379
 11
-13.49395142048201
 21
25.45641777724759
  0
LINE
  5
1EB
100
AcDbEntity
  8
0
  6
CONTINUOUS
 62
             7
100
AcDbLine
 10
-13.87161350715792
 20
21.55
 11
-12.00681586187059
 21
21.55
  0
LINE
  5
1EA
100
AcDbEntity
  8
0
  6
CONTINUOUS
 62
             7
100
AcDbLine
 10
-14.53090218763032
 20
20.9967911113762
 11
-13.87161350715792
 21
21.55
  0
LINE
  5
1E9
100
AcDbEntity
  8
0
  6
CONTINUOUS
 62
             7
100
AcDbLine
 10
-14.788017231505
 20
21.3032088886238
 11
-14.9950995620386
 21
21.55
  0
LINE
  5
1E8
100
AcDbEntity
  8
0
  6
CONTINUOUS
 62
             7
100
AcDbLine
 10
-14.788017231505
 20
21.3032088886238
 11
-14.12872855103251
 21
21.85641777724759
  0
LINE
  5
1E7
100
AcDbEntity
  8
0
  6
CONTINUOUS
 62
             7
100
AcDbLine
 10
-11.56330344015711
 20
21.02144247806268
 11
-11.8867959885709
 21
20.75
  0
LINE
  5
1E6
100
AcDbEntity
  8
0
  6
CONTINUOUS
 62
             7
100
AcDbLine
 10
-11.56330344015711
 20
21.02144247806268
 11
-12.00681586187059
 21
21.55
  0
LINE
  5
1E5
100
AcDbEntity
  8
0
  6
CONTINUOUS
 62
             7
100
AcDbLine
 10
-11.70039808462312
 20
21.80711504387462
 11
-11.30604857951789
 21
24.04358222275241
  0
LINE
  5
1E4
100
AcDbEntity
  8
0
  6
CONTINUOUS
 62
             7
100
AcDbLine
 10
-11.70039808462312
 20
21.80711504387462
 11
-11.27182216255122
 21
21.29635814904611
  0
LINE
  5
1E3
100
AcDbEntity
  8
0
  6
CONTINUOUS
 62
             7
100
AcDbLine
 10
-14.3603224314881
 20
25.15000000000001
 11
-14.15324010095449
 21
24.90320888862379
  0
LINE
  5
1E2
100
AcDbEntity
  8
0
  6
CONTINUOUS
 62
             7
100
AcDbLine
 10
-13.86660688550441
 20
27.95
 11
-14.3603224314881
 21
25.15000000000001
  0
LINE
  5
1E1
100
AcDbEntity
  8
0
  6
CONTINUOUS
 62
             7
100
AcDbLine
 10
-12.913204011429
 20
28.75
 11
-13.2366965598429
 21
28.47855752193729
  0
LINE
  5
1E0
100
AcDbEntity
  8
0
  6
CONTINUOUS
 62
             7
100
AcDbLine
 10
-10.47618014290322
 20
28.75
 11
-12.913204011429
 21
28.75
  0
LINE
  5
1DF
100
AcDbEntity
  8
0
  6
CONTINUOUS
 62
             7
100
AcDbLine
 10
-9.80490043796141
 20
27.95
 11
-10.01198276849502
 21
28.1967911113762
  0
LINE
  5
1DE
100
AcDbEntity
  8
0
  6
CONTINUOUS
 62
             7
100
AcDbLine
 10
-10.2986159839451
 20
25.15000000000001
 11
-9.80490043796141
 21
27.95
  0
LINE
  5
1DD
100
AcDbEntity
  8
0
  6
CONTINUOUS
 62
             7
100
AcDbLine
 10
-10.91072197812849
 20
21.6785744035087
 11
-11.27182216255122
 21
21.29635814904611
  0
LINE
  5
1DC
100
AcDbEntity
  8
0
  6
CONTINUOUS
 62
             7
100
AcDbLine
 10
-10.4303844939756
 20
24.40270364466613
 11
-10.91072197812849
 21
21.6785744035087
  0
LINE
  5
1DB
100
AcDbEntity
  8
0
  6
CONTINUOUS
 62
             7
100
AcDbLine
 10
-14.50138401605491
 20
24.34999999999999
 11
-14.17789146764099
 21
24.62144247806269
  0
LINE
  5
1DA
100
AcDbEntity
  8
0
  6
CONTINUOUS
 62
             7
100
AcDbLine
 10
-14.9950995620386
 20
21.55
 11
-14.50138401605491
 21
24.34999999999999
  0
LINE
  5
1D9
100
AcDbEntity
  8
0
  6
CONTINUOUS
 62
             7
100
AcDbLine
 10
-14.32381985709671
 20
20.75
 11
-14.53090218763032
 21
20.9967911113762
  0
LINE
  5
1D8
100
AcDbEntity
  8
0
  6
CONTINUOUS
 62
             7
100
AcDbLine
 10
-11.8867959885709
 20
20.75
 11
-14.32381985709671
 21
20.75
  0
LINE
  5
1D7
100
AcDbEntity
  8
0
  6
CONTINUOUS
 62
             7
100
AcDbLine
 10
12.12872855103251
 20
13.64358222275241
 11
11.7343790459274
 21
11.40711504387463
  0
LINE
  5
1D6
100
AcDbEntity
  8
0
  6
CONTINUOUS
 62
             7
100
AcDbLine
 10
12.78801723150499
 20
14.1967911113762
 11
12.12872855103251
 21
13.64358222275241
  0
LINE
  5
1D5
100
AcDbEntity
  8
0
  6
CONTINUOUS
 62
             7
100
AcDbLine
 10
12.5309021876304
 20
14.5032088886238
 11
12.32381985709671
 21
14.75
  0
LINE
  5
1D4
100
AcDbEntity
  8
0
  6
CONTINUOUS
 62
             7
100
AcDbLine
 10
11.87161350715789
 20
13.95
 11
12.5309021876304
 21
14.5032088886238
  0
LINE
  5
1D3
100
AcDbEntity
  8
0
  6
CONTINUOUS
 62
             7
100
AcDbLine
 10
10.00681586187071
 20
13.95
 11
11.87161350715789
 21
13.95
  0
LINE
  5
1D2
100
AcDbEntity
  8
0
  6
CONTINUOUS
 62
             7
100
AcDbLine
 10
10.00681586187071
 20
13.95
 11
9.56330344015709
 21
14.47855752193732
  0
LINE
  5
1D1
100
AcDbEntity
  8
0
  6
CONTINUOUS
 62
             7
100
AcDbLine
 10
9.2568856629095
 20
14.2214424780627
 11
8.9333931144956
 21
13.95
  0
LINE
  5
1D0
100
AcDbEntity
  8
0
  6
CONTINUOUS
 62
             7
100
AcDbLine
 10
9.2568856629095
 20
14.2214424780627
 11
9.70039808462309
 21
13.69288495612538
  0
LINE
  5
1CF
100
AcDbEntity
  8
0
  6
CONTINUOUS
 62
             7
100
AcDbLine
 10
12.1661172053721
 20
10.60759628494368
 11
11.49395142048201
 21
10.04358222275241
  0
LINE
  5
1CE
100
AcDbEntity
  8
0
  6
CONTINUOUS
 62
             7
100
AcDbLine
 10
12.36961550602439
 20
10.40270364466613
 11
12.1661172053721
 21
10.60759628494368
  0
LINE
  5
1CD
100
AcDbEntity
  8
0
  6
CONTINUOUS
 62
             7
100
AcDbLine
 10
12.17789146764099
 20
10.87855752193731
 11
12.50138401605489
 21
11.15000000000001
  0
LINE
  5
1CC
100
AcDbEntity
  8
0
  6
CONTINUOUS
 62
             7
100
AcDbLine
 10
11.7343790459274
 20
11.40711504387463
 11
12.17789146764099
 21
10.87855752193731
  0
LINE
  5
1CB
100
AcDbEntity
  8
0
  6
CONTINUOUS
 62
             7
100
AcDbLine
 10
11.42796126867981
 20
11.15000000000001
 11
9.5631636233926
 21
11.15000000000001
  0
LINE
  5
1CA
100
AcDbEntity
  8
0
  6
CONTINUOUS
 62
             7
100
AcDbLine
 10
11.7135378136451
 20
10.75
 11
11.42796126867981
 21
11.15000000000001
  0
LINE
  5
1C9
100
AcDbEntity
  8
0
  6
CONTINUOUS
 62
             7
100
AcDbLine
 10
11.23683637660739
 20
10.34999999999999
 11
9.3720387313202
 21
10.34999999999999
  0
LINE
  5
1C8
100
AcDbEntity
  8
0
  6
CONTINUOUS
 62
             7
100
AcDbLine
 10
11.23683637660739
 20
10.34999999999999
 11
11.7135378136451
 21
10.75
  0
LINE
  5
1C7
100
AcDbEntity
  8
0
  6
CONTINUOUS
 62
             7
100
AcDbLine
 10
9.06562095407259
 20
10.09288495612537
 11
8.6712714489675
 21
7.85641777724759
  0
LINE
  5
1C6
100
AcDbEntity
  8
0
  6
CONTINUOUS
 62
             7
100
AcDbLine
 10
8.62210853235899
 20
10.62144247806269
 11
9.06562095407259
 21
10.09288495612537
  0
LINE
  5
1C5
100
AcDbEntity
  8
0
  6
CONTINUOUS
 62
             7
100
AcDbLine
 10
9.08646218635491
 20
10.75
 11
9.3720387313202
 21
10.34999999999999
  0
LINE
  5
1C4
100
AcDbEntity
  8
0
  6
CONTINUOUS
 62
             7
100
AcDbLine
 10
9.08646218635491
 20
10.75
 11
9.5631636233926
 21
11.15000000000001
  0
LINE
  5
1C3
100
AcDbEntity
  8
0
  6
CONTINUOUS
 62
             7
100
AcDbLine
 10
9.30604857951801
 20
11.45641777724759
 11
9.70039808462309
 21
13.69288495612538
  0
LINE
  5
1C2
100
AcDbEntity
  8
0
  6
CONTINUOUS
 62
             7
100
AcDbLine
 10
8.64675989904549
 20
10.90320888862379
 11
9.30604857951801
 21
11.45641777724759
  0
LINE
  5
1C1
100
AcDbEntity
  8
0
  6
CONTINUOUS
 62
             7
100
AcDbLine
 10
8.92838649284209
 20
7.55
 11
10.79318413812939
 21
7.55
  0
LINE
  5
1C0
100
AcDbEntity
  8
0
  6
CONTINUOUS
 62
             7
100
AcDbLine
 10
8.26909781236961
 20
6.9967911113762
 11
8.92838649284209
 21
7.55
  0
LINE
  5
1BF
100
AcDbEntity
  8
0
  6
CONTINUOUS
 62
             7
100
AcDbLine
 10
8.01198276849499
 20
7.3032088886238
 11
7.80490043796141
 21
7.55
  0
LINE
  5
1BE
100
AcDbEntity
  8
0
  6
CONTINUOUS
 62
             7
100
AcDbLine
 10
8.01198276849499
 20
7.3032088886238
 11
8.6712714489675
 21
7.85641777724759
  0
LINE
  5
1BD
100
AcDbEntity
  8
0
  6
CONTINUOUS
 62
             7
100
AcDbLine
 10
11.2366965598429
 20
7.02144247806268
 11
10.913204011429
 21
6.75
  0
LINE
  5
1BC
100
AcDbEntity
  8
0
  6
CONTINUOUS
 62
             7
100
AcDbLine
 10
11.2366965598429
 20
7.02144247806268
 11
10.79318413812939
 21
7.55
  0
LINE
  5
1BB
100
AcDbEntity
  8
0
  6
CONTINUOUS
 62
             7
100
AcDbLine
 10
11.09960191537701
 20
7.80711504387462
 11
11.49395142048201
 21
10.04358222275241
  0
LINE
  5
1BA
100
AcDbEntity
  8
0
  6
CONTINUOUS
 62
             7
100
AcDbLine
 10
11.09960191537701
 20
7.80711504387462
 11
11.52817783744879
 21
7.29635814904611
  0
LINE
  5
1B9
100
AcDbEntity
  8
0
  6
CONTINUOUS
 62
             7
100
AcDbLine
 10
8.43967756851188
 20
11.15000000000001
 11
8.64675989904549
 21
10.90320888862379
  0
LINE
  5
1B8
100
AcDbEntity
  8
0
  6
CONTINUOUS
 62
             7
100
AcDbLine
 10
8.9333931144956
 20
13.95
 11
8.43967756851188
 21
11.15000000000001
  0
LINE
  5
1B7
100
AcDbEntity
  8
0
  6
CONTINUOUS
 62
             7
100
AcDbLine
 10
9.88679598857101
 20
14.75
 11
9.56330344015709
 21
14.47855752193732
  0
LINE
  5
1B6
100
AcDbEntity
  8
0
  6
CONTINUOUS
 62
             7
100
AcDbLine
 10
12.32381985709671
 20
14.75
 11
9.88679598857101
 21
14.75
  0
LINE
  5
1B5
100
AcDbEntity
  8
0
  6
CONTINUOUS
 62
             7
100
AcDbLine
 10
12.9950995620386
 20
13.95
 11
12.78801723150499
 21
14.1967911113762
  0
LINE
  5
1B4
100
AcDbEntity
  8
0
  6
CONTINUOUS
 62
             7
100
AcDbLine
 10
12.50138401605489
 20
11.15000000000001
 11
12.9950995620386
 21
13.95
  0
LINE
  5
1B3
100
AcDbEntity
  8
0
  6
CONTINUOUS
 62
             7
100
AcDbLine
 10
11.88927802187149
 20
7.6785744035087
 11
11.52817783744879
 21
7.29635814904611
  0
LINE
  5
1B2
100
AcDbEntity
  8
0
  6
CONTINUOUS
 62
             7
100
AcDbLine
 10
12.36961550602439
 20
10.40270364466613
 11
11.88927802187149
 21
7.6785744035087
  0
LINE
  5
1B1
100
AcDbEntity
  8
0
  6
CONTINUOUS
 62
             7
100
AcDbLine
 10
8.2986159839451
 20
10.34999999999999
 11
8.62210853235899
 21
10.62144247806269
  0
LINE
  5
1B0
100
AcDbEntity
  8
0
  6
CONTINUOUS
 62
             7
100
AcDbLine
 10
7.80490043796141
 20
7.55
 11
8.2986159839451
 21
10.34999999999999
  0
LINE
  5
1AF
100
AcDbEntity
  8
0
  6
CONTINUOUS
 62
             7
100
AcDbLine
 10
8.47618014290319
 20
6.75
 11
8.26909781236961
 21
6.9967911113762
  0
LINE
  5
1AE
100
AcDbEntity
  8
0
  6
CONTINUOUS
 62
             7
100
AcDbLine
 10
10.913204011429
 20
6.75
 11
8.47618014290319
 21
6.75
  0
LINE
  5
1AD
100
AcDbEntity
  8
0
  6
CONTINUOUS
 62
             7
100
AcDbLine
 10
4.52872855103249
 20
13.64358222275241
 11
4.1343790459274
 21
11.40711504387463
  0
LINE
  5
1AC
100
AcDbEntity
  8
0
  6
CONTINUOUS
 62
             7
100
AcDbLine
 10
5.188017231505
 20
14.1967911113762
 11
4.52872855103249
 21
13.64358222275241
  0
LINE
  5
1AB
100
AcDbEntity
  8
0
  6
CONTINUOUS
 62
             7
100
AcDbLine
 10
4.93090218763041
 20
14.5032088886238
 11
4.72381985709669
 21
14.75
  0
LINE
  5
1AA
100
AcDbEntity
  8
0
  6
CONTINUOUS
 62
             7
100
AcDbLine
 10
4.27161350715789
 20
13.95
 11
4.93090218763041
 21
14.5032088886238
  0
LINE
  5
1A9
100
AcDbEntity
  8
0
  6
CONTINUOUS
 62
             7
100
AcDbLine
 10
2.40681586187068
 20
13.95
 11
4.27161350715789
 21
13.95
  0
LINE
  5
1A8
100
AcDbEntity
  8
0
  6
CONTINUOUS
 62
             7
100
AcDbLine
 10
2.40681586187068
 20
13.95
 11
1.96330344015709
 21
14.47855752193732
  0
LINE
  5
1A7
100
AcDbEntity
  8
0
  6
CONTINUOUS
 62
             7
100
AcDbLine
 10
1.6568856629095
 20
14.2214424780627
 11
1.33339311449561
 21
13.95
  0
LINE
  5
1A6
100
AcDbEntity
  8
0
  6
CONTINUOUS
 62
             7
100
AcDbLine
 10
1.6568856629095
 20
14.2214424780627
 11
2.1003980846231
 21
13.69288495612538
  0
LINE
  5
1A5
100
AcDbEntity
  8
0
  6
CONTINUOUS
 62
             7
100
AcDbLine
 10
4.56611720537211
 20
10.60759628494368
 11
3.89395142048198
 21
10.04358222275241
  0
LINE
  5
1A4
100
AcDbEntity
  8
0
  6
CONTINUOUS
 62
             7
100
AcDbLine
 10
4.76961550602439
 20
10.40270364466613
 11
4.56611720537211
 21
10.60759628494368
  0
LINE
  5
1A3
100
AcDbEntity
  8
0
  6
CONTINUOUS
 62
             7
100
AcDbLine
 10
4.577891467641
 20
10.87855752193731
 11
4.90138401605489
 21
11.15000000000001
  0
LINE
  5
1A2
100
AcDbEntity
  8
0
  6
CONTINUOUS
 62
             7
100
AcDbLine
 10
4.1343790459274
 20
11.40711504387463
 11
4.577891467641
 21
10.87855752193731
  0
LINE
  5
1A1
100
AcDbEntity
  8
0
  6
CONTINUOUS
 62
             7
100
AcDbLine
 10
3.82796126867979
 20
11.15000000000001
 11
1.9631636233926
 21
11.15000000000001
  0
LINE
  5
1A0
100
AcDbEntity
  8
0
  6
CONTINUOUS
 62
             7
100
AcDbLine
 10
4.11353781364511
 20
10.75
 11
3.82796126867979
 21
11.15000000000001
  0
LINE
  5
19F
100
AcDbEntity
  8
0
  6
CONTINUOUS
 62
             7
100
AcDbLine
 10
3.63683637660739
 20
10.34999999999999
 11
1.77203873132021
 21
10.34999999999999
  0
LINE
  5
19E
100
AcDbEntity
  8
0
  6
CONTINUOUS
 62
             7
100
AcDbLine
 10
3.63683637660739
 20
10.34999999999999
 11
4.11353781364511
 21
10.75
  0
LINE
  5
19D
100
AcDbEntity
  8
0
  6
CONTINUOUS
 62
             7
100
AcDbLine
 10
1.46562095407259
 20
10.09288495612537
 11
1.07127144896751
 21
7.85641777724759
  0
LINE
  5
19C
100
AcDbEntity
  8
0
  6
CONTINUOUS
 62
             7
100
AcDbLine
 10
1.022108532359
 20
10.62144247806269
 11
1.46562095407259
 21
10.09288495612537
  0
LINE
  5
19B
100
AcDbEntity
  8
0
  6
CONTINUOUS
 62
             7
100
AcDbLine
 10
1.48646218635489
 20
10.75
 11
1.77203873132021
 21
10.34999999999999
  0
LINE
  5
19A
100
AcDbEntity
  8
0
  6
CONTINUOUS
 62
             7
100
AcDbLine
 10
1.48646218635489
 20
10.75
 11
1.9631636233926
 21
11.15000000000001
  0
LINE
  5
199
100
AcDbEntity
  8
0
  6
CONTINUOUS
 62
             7
100
AcDbLine
 10
1.70604857951798
 20
11.45641777724759
 11
2.1003980846231
 21
13.69288495612538
  0
LINE
  5
198
100
AcDbEntity
  8
0
  6
CONTINUOUS
 62
             7
100
AcDbLine
 10
1.0467598990455
 20
10.90320888862379
 11
1.70604857951798
 21
11.45641777724759
  0
LINE
  5
197
100
AcDbEntity
  8
0
  6
CONTINUOUS
 62
             7
100
AcDbLine
 10
1.3283864928421
 20
7.55
 11
3.19318413812928
 21
7.55
  0
LINE
  5
196
100
AcDbEntity
  8
0
  6
CONTINUOUS
 62
             7
100
AcDbLine
 10
0.66909781236959
 20
6.9967911113762
 11
1.3283864928421
 21
7.55
  0
LINE
  5
195
100
AcDbEntity
  8
0
  6
CONTINUOUS
 62
             7
100
AcDbLine
 10
0.41198276849499
 20
7.3032088886238
 11
0.20490043796138
 21
7.55
  0
LINE
  5
194
100
AcDbEntity
  8
0
  6
CONTINUOUS
 62
             7
100
AcDbLine
 10
0.41198276849499
 20
7.3032088886238
 11
1.07127144896751
 21
7.85641777724759
  0
LINE
  5
193
100
AcDbEntity
  8
0
  6
CONTINUOUS
 62
             7
100
AcDbLine
 10
3.6366965598429
 20
7.02144247806268
 11
3.31320401142901
 21
6.75
  0
LINE
  5
192
100
AcDbEntity
  8
0
  6
CONTINUOUS
 62
             7
100
AcDbLine
 10
3.6366965598429
 20
7.02144247806268
 11
3.19318413812928
 21
7.55
  0
LINE
  5
191
100
AcDbEntity
  8
0
  6
CONTINUOUS
 62
             7
100
AcDbLine
 10
3.4996019153769
 20
7.80711504387462
 11
3.89395142048198
 21
10.04358222275241
  0
LINE
  5
190
100
AcDbEntity
  8
0
  6
CONTINUOUS
 62
             7
100
AcDbLine
 10
3.4996019153769
 20
7.80711504387462
 11
3.9281778374488
 21
7.29635814904611
  0
LINE
  5
18F
100
AcDbEntity
  8
0
  6
CONTINUOUS
 62
             7
100
AcDbLine
 10
0.83967756851189
 20
11.15000000000001
 11
1.0467598990455
 21
10.90320888862379
  0
LINE
  5
18E
100
AcDbEntity
  8
0
  6
CONTINUOUS
 62
             7
100
AcDbLine
 10
1.33339311449561
 20
13.95
 11
0.83967756851189
 21
11.15000000000001
  0
LINE
  5
18D
100
AcDbEntity
  8
0
  6
CONTINUOUS
 62
             7
100
AcDbLine
 10
2.28679598857099
 20
14.75
 11
1.96330344015709
 21
14.47855752193732
  0
LINE
  5
18C
100
AcDbEntity
  8
0
  6
CONTINUOUS
 62
             7
100
AcDbLine
 10
4.72381985709669
 20
14.75
 11
2.28679598857099
 21
14.75
  0
LINE
  5
18B
100
AcDbEntity
  8
0
  6
CONTINUOUS
 62
             7
100
AcDbLine
 10
5.39509956203861
 20
13.95
 11
5.188017231505
 21
14.1967911113762
  0
LINE
  5
18A
100
AcDbEntity
  8
0
  6
CONTINUOUS
 62
             7
100
AcDbLine
 10
4.90138401605489
 20
11.15000000000001
 11
5.39509956203861
 21
13.95
  0
LINE
  5
189
100
AcDbEntity
  8
0
  6
CONTINUOUS
 62
             7
100
AcDbLine
 10
4.2892780218715
 20
7.6785744035087
 11
3.9281778374488
 21
7.29635814904611
  0
LINE
  5
188
100
AcDbEntity
  8
0
  6
CONTINUOUS
 62
             7
100
AcDbLine
 10
4.76961550602439
 20
10.40270364466613
 11
4.2892780218715
 21
7.6785744035087
  0
LINE
  5
187
100
AcDbEntity
  8
0
  6
CONTINUOUS
 62
             7
100
AcDbLine
 10
0.6986159839451
 20
10.34999999999999
 11
1.022108532359
 21
10.62144247806269
  0
LINE
  5
186
100
AcDbEntity
  8
0
  6
CONTINUOUS
 62
             7
100
AcDbLine
 10
0.20490043796138
 20
7.55
 11
0.6986159839451
 21
10.34999999999999
  0
LINE
  5
185
100
AcDbEntity
  8
0
  6
CONTINUOUS
 62
             7
100
AcDbLine
 10
0.87618014290331
 20
6.75
 11
0.66909781236959
 21
6.9967911113762
  0
LINE
  5
184
100
AcDbEntity
  8
0
  6
CONTINUOUS
 62
             7
100
AcDbLine
 10
3.31320401142901
 20
6.75
 11
0.87618014290331
 21
6.75
  0
LINE
  5
183
100
AcDbEntity
  8
0
  6
CONTINUOUS
 62
             7
100
AcDbLine
 10
-3.07127144896751
 20
13.64358222275241
 11
-3.46562095407259
 21
11.40711504387463
  0
LINE
  5
182
100
AcDbEntity
  8
0
  6
CONTINUOUS
 62
             7
100
AcDbLine
 10
-2.41198276849499
 20
14.1967911113762
 11
-3.07127144896751
 21
13.64358222275241
  0
LINE
  5
181
100
AcDbEntity
  8
0
  6
CONTINUOUS
 62
             7
100
AcDbLine
 10
-2.66909781236961
 20
14.5032088886238
 11
-2.87618014290319
 21
14.75
  0
LINE
  5
180
100
AcDbEntity
  8
0
  6
CONTINUOUS
 62
             7
100
AcDbLine
 10
-3.3283864928421
 20
13.95
 11
-2.66909781236961
 21
14.5032088886238
  0
LINE
  5
17F
100
AcDbEntity
  8
0
  6
CONTINUOUS
 62
             7
100
AcDbLine
 10
-5.19318413812931
 20
13.95
 11
-3.3283864928421
 21
13.95
  0
LINE
  5
17E
100
AcDbEntity
  8
0
  6
CONTINUOUS
 62
             7
100
AcDbLine
 10
-5.19318413812931
 20
13.95
 11
-5.6366965598429
 21
14.47855752193732
  0
LINE
  5
17D
100
AcDbEntity
  8
0
  6
CONTINUOUS
 62
             7
100
AcDbLine
 10
-5.94311433709049
 20
14.2214424780627
 11
-6.26660688550442
 21
13.95
  0
LINE
  5
17C
100
AcDbEntity
  8
0
  6
CONTINUOUS
 62
             7
100
AcDbLine
 10
-5.94311433709049
 20
14.2214424780627
 11
-5.4996019153769
 21
13.69288495612538
  0
LINE
  5
17B
100
AcDbEntity
  8
0
  6
CONTINUOUS
 62
             7
100
AcDbLine
 10
-3.03388279462791
 20
10.60759628494368
 11
-3.70604857951801
 21
10.04358222275241
  0
LINE
  5
17A
100
AcDbEntity
  8
0
  6
CONTINUOUS
 62
             7
100
AcDbLine
 10
-2.8303844939756
 20
10.40270364466613
 11
-3.03388279462791
 21
10.60759628494368
  0
LINE
  5
179
100
AcDbEntity
  8
0
  6
CONTINUOUS
 62
             7
100
AcDbLine
 10
-3.022108532359
 20
10.87855752193731
 11
-2.6986159839451
 21
11.15000000000001
  0
LINE
  5
178
100
AcDbEntity
  8
0
  6
CONTINUOUS
 62
             7
100
AcDbLine
 10
-3.46562095407259
 20
11.40711504387463
 11
-3.022108532359
 21
10.87855752193731
  0
LINE
  5
177
100
AcDbEntity
  8
0
  6
CONTINUOUS
 62
             7
100
AcDbLine
 10
-3.77203873132021
 20
11.15000000000001
 11
-5.63683637660739
 21
11.15000000000001
  0
LINE
  5
176
100
AcDbEntity
  8
0
  6
CONTINUOUS
 62
             7
100
AcDbLine
 10
-3.48646218635491
 20
10.75
 11
-3.77203873132021
 21
11.15000000000001
  0
LINE
  5
175
100
AcDbEntity
  8
0
  6
CONTINUOUS
 62
             7
100
AcDbLine
 10
-3.9631636233926
 20
10.34999999999999
 11
-5.82796126867981
 21
10.34999999999999
  0
LINE
  5
174
100
AcDbEntity
  8
0
  6
CONTINUOUS
 62
             7
100
AcDbLine
 10
-3.9631636233926
 20
10.34999999999999
 11
-3.48646218635491
 21
10.75
  0
LINE
  5
173
100
AcDbEntity
  8
0
  6
CONTINUOUS
 62
             7
100
AcDbLine
 10
-6.1343790459274
 20
10.09288495612537
 11
-6.52872855103251
 21
7.85641777724759
  0
LINE
  5
172
100
AcDbEntity
  8
0
  6
CONTINUOUS
 62
             7
100
AcDbLine
 10
-6.577891467641
 20
10.62144247806269
 11
-6.1343790459274
 21
10.09288495612537
  0
LINE
  5
171
100
AcDbEntity
  8
0
  6
CONTINUOUS
 62
             7
100
AcDbLine
 10
-6.11353781364511
 20
10.75
 11
-5.82796126867981
 21
10.34999999999999
  0
LINE
  5
170
100
AcDbEntity
  8
0
  6
CONTINUOUS
 62
             7
100
AcDbLine
 10
-6.11353781364511
 20
10.75
 11
-5.63683637660739
 21
11.15000000000001
  0
LINE
  5
16F
100
AcDbEntity
  8
0
  6
CONTINUOUS
 62
             7
100
AcDbLine
 10
-5.89395142048201
 20
11.45641777724759
 11
-5.4996019153769
 21
13.69288495612538
  0
LINE
  5
16E
100
AcDbEntity
  8
0
  6
CONTINUOUS
 62
             7
100
AcDbLine
 10
-6.5532401009545
 20
10.90320888862379
 11
-5.89395142048201
 21
11.45641777724759
  0
LINE
  5
16D
100
AcDbEntity
  8
0
  6
CONTINUOUS
 62
             7
100
AcDbLine
 10
-6.27161350715789
 20
7.55
 11
-4.40681586187071
 21
7.55
  0
LINE
  5
16C
100
AcDbEntity
  8
0
  6
CONTINUOUS
 62
             7
100
AcDbLine
 10
-6.9309021876303
 20
6.9967911113762
 11
-6.27161350715789
 21
7.55
  0
LINE
  5
16B
100
AcDbEntity
  8
0
  6
CONTINUOUS
 62
             7
100
AcDbLine
 10
-7.188017231505
 20
7.3032088886238
 11
-7.39509956203861
 21
7.55
  0
LINE
  5
16A
100
AcDbEntity
  8
0
  6
CONTINUOUS
 62
             7
100
AcDbLine
 10
-7.188017231505
 20
7.3032088886238
 11
-6.52872855103251
 21
7.85641777724759
  0
LINE
  5
169
100
AcDbEntity
  8
0
  6
CONTINUOUS
 62
             7
100
AcDbLine
 10
-3.96330344015709
 20
7.02144247806268
 11
-4.28679598857102
 21
6.75
  0
LINE
  5
168
100
AcDbEntity
  8
0
  6
CONTINUOUS
 62
             7
100
AcDbLine
 10
-3.96330344015709
 20
7.02144247806268
 11
-4.40681586187071
 21
7.55
  0
LINE
  5
167
100
AcDbEntity
  8
0
  6
CONTINUOUS
 62
             7
100
AcDbLine
 10
-4.1003980846231
 20
7.80711504387462
 11
-3.70604857951801
 21
10.04358222275241
  0
LINE
  5
166
100
AcDbEntity
  8
0
  6
CONTINUOUS
 62
             7
100
AcDbLine
 10
-4.1003980846231
 20
7.80711504387462
 11
-3.67182216255119
 21
7.29635814904611
  0
LINE
  5
165
100
AcDbEntity
  8
0
  6
CONTINUOUS
 62
             7
100
AcDbLine
 10
-6.76032243148811
 20
11.15000000000001
 11
-6.5532401009545
 21
10.90320888862379
  0
LINE
  5
164
100
AcDbEntity
  8
0
  6
CONTINUOUS
 62
             7
100
AcDbLine
 10
-6.26660688550442
 20
13.95
 11
-6.76032243148811
 21
11.15000000000001
  0
LINE
  5
163
100
AcDbEntity
  8
0
  6
CONTINUOUS
 62
             7
100
AcDbLine
 10
-5.31320401142901
 20
14.75
 11
-5.6366965598429
 21
14.47855752193732
  0
LINE
  5
162
100
AcDbEntity
  8
0
  6
CONTINUOUS
 62
             7
100
AcDbLine
 10
-2.87618014290319
 20
14.75
 11
-5.31320401142901
 21
14.75
  0
LINE
  5
161
100
AcDbEntity
  8
0
  6
CONTINUOUS
 62
             7
100
AcDbLine
 10
-2.20490043796141
 20
13.95
 11
-2.41198276849499
 21
14.1967911113762
  0
LINE
  5
160
100
AcDbEntity
  8
0
  6
CONTINUOUS
 62
             7
100
AcDbLine
 10
-2.6986159839451
 20
11.15000000000001
 11
-2.20490043796141
 21
13.95
  0
LINE
  5
15F
100
AcDbEntity
  8
0
  6
CONTINUOUS
 62
             7
100
AcDbLine
 10
-3.3107219781285
 20
7.6785744035087
 11
-3.67182216255119
 21
7.29635814904611
  0
LINE
  5
15E
100
AcDbEntity
  8
0
  6
CONTINUOUS
 62
             7
100
AcDbLine
 10
-2.8303844939756
 20
10.40270364466613
 11
-3.3107219781285
 21
7.6785744035087
  0
LINE
  5
15D
100
AcDbEntity
  8
0
  6
CONTINUOUS
 62
             7
100
AcDbLine
 10
-6.90138401605489
 20
10.34999999999999
 11
-6.577891467641
 21
10.62144247806269
  0
LINE
  5
15C
100
AcDbEntity
  8
0
  6
CONTINUOUS
 62
             7
100
AcDbLine
 10
-7.39509956203861
 20
7.55
 11
-6.90138401605489
 21
10.34999999999999
  0
LINE
  5
15B
100
AcDbEntity
  8
0
  6
CONTINUOUS
 62
             7
100
AcDbLine
 10
-6.72381985709671
 20
6.75
 11
-6.9309021876303
 21
6.9967911113762
  0
LINE
  5
15A
100
AcDbEntity
  8
0
  6
CONTINUOUS
 62
             7
100
AcDbLine
 10
-4.28679598857102
 20
6.75
 11
-6.72381985709671
 21
6.75
  0
LINE
  5
159
100
AcDbEntity
  8
0
  6
CONTINUOUS
 62
             7
100
AcDbLine
 10
-10.6712714489675
 20
13.64358222275241
 11
-11.06562095407261
 21
11.40711504387463
  0
LINE
  5
158
100
AcDbEntity
  8
0
  6
CONTINUOUS
 62
             7
100
AcDbLine
 10
-10.01198276849502
 20
14.1967911113762
 11
-10.6712714489675
 21
13.64358222275241
  0
LINE
  5
157
100
AcDbEntity
  8
0
  6
CONTINUOUS
 62
             7
100
AcDbLine
 10
-10.26909781236961
 20
14.5032088886238
 11
-10.47618014290322
 21
14.75
  0
LINE
  5
156
100
AcDbEntity
  8
0
  6
CONTINUOUS
 62
             7
100
AcDbLine
 10
-10.92838649284209
 20
13.95
 11
-10.26909781236961
 21
14.5032088886238
  0
LINE
  5
155
100
AcDbEntity
  8
0
  6
CONTINUOUS
 62
             7
100
AcDbLine
 10
-12.79318413812939
 20
13.95
 11
-10.92838649284209
 21
13.95
  0
LINE
  5
154
100
AcDbEntity
  8
0
  6
CONTINUOUS
 62
             7
100
AcDbLine
 10
-12.79318413812939
 20
13.95
 11
-13.2366965598429
 21
14.47855752193732
  0
LINE
  5
153
100
AcDbEntity
  8
0
  6
CONTINUOUS
 62
             7
100
AcDbLine
 10
-13.54311433709052
 20
14.2214424780627
 11
-13.86660688550441
 21
13.95
  0
LINE
  5
152
100
AcDbEntity
  8
0
  6
CONTINUOUS
 62
             7
100
AcDbLine
 10
-13.54311433709052
 20
14.2214424780627
 11
-13.09960191537689
 21
13.69288495612538
  0
LINE
  5
151
100
AcDbEntity
  8
0
  6
CONTINUOUS
 62
             7
100
AcDbLine
 10
-10.6338827946278
 20
10.60759628494368
 11
-11.30604857951789
 21
10.04358222275241
  0
LINE
  5
150
100
AcDbEntity
  8
0
  6
CONTINUOUS
 62
             7
100
AcDbLine
 10
-10.4303844939756
 20
10.40270364466613
 11
-10.6338827946278
 21
10.60759628494368
  0
LINE
  5
14F
100
AcDbEntity
  8
0
  6
CONTINUOUS
 62
             7
100
AcDbLine
 10
-10.62210853235899
 20
10.87855752193731
 11
-10.2986159839451
 21
11.15000000000001
  0
LINE
  5
14E
100
AcDbEntity
  8
0
  6
CONTINUOUS
 62
             7
100
AcDbLine
 10
-11.06562095407261
 20
11.40711504387463
 11
-10.62210853235899
 21
10.87855752193731
  0
LINE
  5
14D
100
AcDbEntity
  8
0
  6
CONTINUOUS
 62
             7
100
AcDbLine
 10
-11.3720387313202
 20
11.15000000000001
 11
-13.23683637660741
 21
11.15000000000001
  0
LINE
  5
14C
100
AcDbEntity
  8
0
  6
CONTINUOUS
 62
             7
100
AcDbLine
 10
-11.08646218635491
 20
10.75
 11
-11.3720387313202
 21
11.15000000000001
  0
LINE
  5
14B
100
AcDbEntity
  8
0
  6
CONTINUOUS
 62
             7
100
AcDbLine
 10
-11.5631636233926
 20
10.34999999999999
 11
-13.42796126867981
 21
10.34999999999999
  0
LINE
  5
14A
100
AcDbEntity
  8
0
  6
CONTINUOUS
 62
             7
100
AcDbLine
 10
-11.5631636233926
 20
10.34999999999999
 11
-11.08646218635491
 21
10.75
  0
LINE
  5
149
100
AcDbEntity
  8
0
  6
CONTINUOUS
 62
             7
100
AcDbLine
 10
-13.7343790459274
 20
10.09288495612537
 11
-14.12872855103251
 21
7.85641777724759
  0
LINE
  5
148
100
AcDbEntity
  8
0
  6
CONTINUOUS
 62
             7
100
AcDbLine
 10
-14.17789146764099
 20
10.62144247806269
 11
-13.7343790459274
 21
10.09288495612537
  0
LINE
  5
147
100
AcDbEntity
  8
0
  6
CONTINUOUS
 62
             7
100
AcDbLine
 10
-13.7135378136451
 20
10.75
 11
-13.42796126867981
 21
10.34999999999999
  0
LINE
  5
146
100
AcDbEntity
  8
0
  6
CONTINUOUS
 62
             7
100
AcDbLine
 10
-13.7135378136451
 20
10.75
 11
-13.23683637660741
 21
11.15000000000001
  0
LINE
  5
145
100
AcDbEntity
  8
0
  6
CONTINUOUS
 62
             7
100
AcDbLine
 10
-13.49395142048201
 20
11.45641777724759
 11
-13.09960191537689
 21
13.69288495612538
  0
LINE
  5
144
100
AcDbEntity
  8
0
  6
CONTINUOUS
 62
             7
100
AcDbLine
 10
-14.15324010095449
 20
10.90320888862379
 11
-13.49395142048201
 21
11.45641777724759
  0
LINE
  5
143
100
AcDbEntity
  8
0
  6
CONTINUOUS
 62
             7
100
AcDbLine
 10
-13.87161350715792
 20
7.55
 11
-12.00681586187059
 21
7.55
  0
LINE
  5
142
100
AcDbEntity
  8
0
  6
CONTINUOUS
 62
             7
100
AcDbLine
 10
-14.53090218763032
 20
6.9967911113762
 11
-13.87161350715792
 21
7.55
  0
LINE
  5
141
100
AcDbEntity
  8
0
  6
CONTINUOUS
 62
             7
100
AcDbLine
 10
-14.788017231505
 20
7.3032088886238
 11
-14.9950995620386
 21
7.55
  0
LINE
  5
140
100
AcDbEntity
  8
0
  6
CONTINUOUS
 62
             7
100
AcDbLine
 10
-14.788017231505
 20
7.3032088886238
 11
-14.12872855103251
 21
7.85641777724759
  0
LINE
  5
13F
100
AcDbEntity
  8
0
  6
CONTINUOUS
 62
             7
100
AcDbLine
 10
-11.56330344015711
 20
7.02144247806268
 11
-11.8867959885709
 21
6.75
  0
LINE
  5
13E
100
AcDbEntity
  8
0
  6
CONTINUOUS
 62
             7
100
AcDbLine
 10
-11.56330344015711
 20
7.02144247806268
 11
-12.00681586187059
 21
7.55
  0
LINE
  5
13D
100
AcDbEntity
  8
0
  6
CONTINUOUS
 62
             7
100
AcDbLine
 10
-11.70039808462312
 20
7.80711504387462
 11
-11.30604857951789
 21
10.04358222275241
  0
LINE
  5
13C
100
AcDbEntity
  8
0
  6
CONTINUOUS
 62
             7
100
AcDbLine
 10
-11.70039808462312
 20
7.80711504387462
 11
-11.27182216255122
 21
7.29635814904611
  0
LINE
  5
13B
100
AcDbEntity
  8
0
  6
CONTINUOUS
 62
             7
100
AcDbLine
 10
-14.3603224314881
 20
11.15000000000001
 11
-14.15324010095449
 21
10.90320888862379
  0
LINE
  5
13A
100
AcDbEntity
  8
0
  6
CONTINUOUS
 62
             7
100
AcDbLine
 10
-13.86660688550441
 20
13.95
 11
-14.3603224314881
 21
11.15000000000001
  0
LINE
  5
139
100
AcDbEntity
  8
0
  6
CONTINUOUS
 62
             7
100
AcDbLine
 10
-12.913204011429
 20
14.75
 11
-13.2366965598429
 21
14.47855752193732
  0
LINE
  5
138
100
AcDbEntity
  8
0
  6
CONTINUOUS
 62
             7
100
AcDbLine
 10
-10.47618014290322
 20
14.75
 11
-12.913204011429
 21
14.75
  0
LINE
  5
137
100
AcDbEntity
  8
0
  6
CONTINUOUS
 62
             7
100
AcDbLine
 10
-9.80490043796141
 20
13.95
 11
-10.01198276849502
 21
14.1967911113762
  0
LINE
  5
136
100
AcDbEntity
  8
0
  6
CONTINUOUS
 62
             7
100
AcDbLine
 10
-10.2986159839451
 20
11.15000000000001
 11
-9.80490043796141
 21
13.95
  0
LINE
  5
135
100
AcDbEntity
  8
0
  6
CONTINUOUS
 62
             7
100
AcDbLine
 10
-10.91072197812849
 20
7.6785744035087
 11
-11.27182216255122
 21
7.29635814904611
  0
LINE
  5
134
100
AcDbEntity
  8
0
  6
CONTINUOUS
 62
             7
100
AcDbLine
 10
-10.4303844939756
 20
10.40270364466613
 11
-10.91072197812849
 21
7.6785744035087
  0
LINE
  5
133
100
AcDbEntity
  8
0
  6
CONTINUOUS
 62
             7
100
AcDbLine
 10
-14.50138401605491
 20
10.34999999999999
 11
-14.17789146764099
 21
10.62144247806269
  0
LINE
  5
132
100
AcDbEntity
  8
0
  6
CONTINUOUS
 62
             7
100
AcDbLine
 10
-14.9950995620386
 20
7.55
 11
-14.50138401605491
 21
10.34999999999999
  0
LINE
  5
131
100
AcDbEntity
  8
0
  6
CONTINUOUS
 62
             7
100
AcDbLine
 10
-14.32381985709671
 20
6.75
 11
-14.53090218763032
 21
6.9967911113762
  0
LINE
  5
130
100
AcDbEntity
  8
0
  6
CONTINUOUS
 62
             7
100
AcDbLine
 10
-11.8867959885709
 20
6.75
 11
-14.32381985709671
 21
6.75
  0
LINE
  5
12F
100
AcDbEntity
  8
1
  6
CONTINUOUS
 62
             7
100
AcDbLine
 10
-11.25
 20
-34.5
 11
-11.25
 21
-27.5
  0
LINE
  5
12E
100
AcDbEntity
  8
1
  6
CONTINUOUS
 62
             7
100
AcDbLine
 10
-18.75
 20
-35.0
 11
-11.75
 21
-35.0
  0
LINE
  5
12D
100
AcDbEntity
  8
1
  6
CONTINUOUS
 62
             7
100
AcDbLine
 10
-11.75
 20
-27.0
 11
-18.75
 21
-27.0
  0
LINE
  5
12C
100
AcDbEntity
  8
1
  6
CONTINUOUS
 62
             7
100
AcDbLine
 10
0.1553169531295
 20
-27.37873218748183
 11
-0.75
 21
-31.0
  0
LINE
  5
12B
100
AcDbEntity
  8
1
  6
CONTINUOUS
 62
             7
100
AcDbLine
 10
-0.75
 20
-31.0
 11
0.1553169531295
 21
-34.62126781251817
  0
LINE
  5
12A
100
AcDbEntity
  8
1
  6
CONTINUOUS
 62
             7
100
AcDbLine
 10
-7.5
 20
-11.75
 11
-7.5
 21
-13.25
  0
LINE
  5
129
100
AcDbEntity
  8
1
  6
CONTINUOUS
 62
             7
100
AcDbLine
 10
-3.5
 20
-11.75
 11
-3.5
 21
-13.25
  0
LINE
  5
128
100
AcDbEntity
  8
1
  6
CONTINUOUS
 62
             7
100
AcDbLine
 10
-7.5
 20
-17.75
 11
-7.5
 21
-19.25
  0
LINE
  5
127
100
AcDbEntity
  8
1
  6
CONTINUOUS
 62
             7
100
AcDbLine
 10
-3.5
 20
-17.75
 11
-3.5
 21
-19.25
  0
LINE
  5
126
100
AcDbEntity
  8
1
  6
CONTINUOUS
 62
             7
100
AcDbLine
 10
-15.25
 20
-29.61649281481158
 11
-13.25
 21
-32.0
  0
LINE
  5
125
100
AcDbEntity
  8
1
  6
CONTINUOUS
 62
             7
100
AcDbLine
 10
-13.25
 20
-32.0
 11
-17.25
 21
-32.0
  0
LINE
  5
124
100
AcDbEntity
  8
1
  6
CONTINUOUS
 62
             7
100
AcDbLine
 10
-17.25
 20
-32.0
 11
-15.25
 21
-29.61649281481158
  0
LINE
  5
123
100
AcDbEntity
  8
1
  6
CONTINUOUS
 62
             7
100
AcDbLine
 10
-1.75
 20
-34.5
 11
-1.75
 21
-27.5
  0
LINE
  5
122
100
AcDbEntity
  8
1
  6
CONTINUOUS
 62
             7
100
AcDbLine
 10
-9.75
 20
-27.5
 11
-9.75
 21
-34.5
  0
LINE
  5
121
100
AcDbEntity
  8
1
  6
CONTINUOUS
 62
             7
100
AcDbLine
 10
-2.25
 20
-27.0
 11
-9.25
 21
-27.0
  0
LINE
  5
120
100
AcDbEntity
  8
1
  6
CONTINUOUS
 62
             7
100
AcDbLine
 10
-9.25
 20
-35.0
 11
-2.25
 21
-35.0
  0
LINE
  5
11F
100
AcDbEntity
  8
1
  6
CONTINUOUS
 62
             7
100
AcDbLine
 10
-5.75
 20
-32.38350718518842
 11
-7.75
 21
-30.0
  0
LINE
  5
11E
100
AcDbEntity
  8
1
  6
CONTINUOUS
 62
             7
100
AcDbLine
 10
-7.75
 20
-30.0
 11
-3.75
 21
-30.0
  0
LINE
  5
11D
100
AcDbEntity
  8
1
  6
CONTINUOUS
 62
             7
100
AcDbLine
 10
-3.75
 20
-30.0
 11
-5.75
 21
-32.38350718518842
  0
LINE
  5
11C
100
AcDbEntity
  8
1
  6
CONTINUOUS
 62
             7
100
AcDbLine
 10
-1.75
 20
-45.50000000000001
 11
-1.75
 21
-38.5
  0
LINE
  5
11B
100
AcDbEntity
  8
1
  6
CONTINUOUS
 62
             7
100
AcDbLine
 10
-9.75
 20
-38.5
 11
-9.75
 21
-45.50000000000001
  0
LINE
  5
11A
100
AcDbEntity
  8
1
  6
CONTINUOUS
 62
             7
100
AcDbLine
 10
-2.25
 20
-38.0
 11
-9.25
 21
-38.0
  0
LINE
  5
119
100
AcDbEntity
  8
1
  6
CONTINUOUS
 62
             7
100
AcDbLine
 10
-9.25
 20
-46.00000000000001
 11
-2.25
 21
-46.00000000000001
  0
LINE
  5
118
100
AcDbEntity
  8
1
  6
CONTINUOUS
 62
             7
100
AcDbLine
 10
7.75
 20
-45.50000000000001
 11
7.75
 21
-42.14442552643469
  0
LINE
  5
117
100
AcDbEntity
  8
1
  6
CONTINUOUS
 62
             7
100
AcDbLine
 10
-0.25
 20
-38.5
 11
-0.25
 21
-45.50000000000001
  0
LINE
  5
116
100
AcDbEntity
  8
1
  6
CONTINUOUS
 62
             7
100
AcDbLine
 10
7.25
 20
-38.0
 11
0.25
 21
-38.0
  0
LINE
  5
115
100
AcDbEntity
  8
1
  6
CONTINUOUS
 62
             7
100
AcDbLine
 10
0.25
 20
-46.00000000000001
 11
7.25
 21
-46.00000000000001
  0
LINE
  5
114
100
AcDbEntity
  8
1
  6
CONTINUOUS
 62
             7
100
AcDbLine
 10
7.33682408883347
 20
-41.11368948511216
 11
0.45873277825083
 21
-42.32648255894432
  0
LINE
  5
113
100
AcDbEntity
  8
1
  6
CONTINUOUS
 62
             7
100
AcDbLine
 10
7.75
 20
-40.62128560860607
 11
7.75
 21
-38.5
  0
LINE
  5
112
100
AcDbEntity
  8
1
  6
CONTINUOUS
 62
             7
100
AcDbLine
 10
0.49538449206371
 20
-42.82773317885278
 11
7.16317591116653
 21
-41.6520216499286
  0
LINE
  5
111
100
AcDbEntity
  8
1
  6
CONTINUOUS
 62
             7
100
AcDbLine
 10
17.25
 20
-45.50000000000001
 11
17.25
 21
-42.14442552643469
  0
LINE
  5
110
100
AcDbEntity
  8
1
  6
CONTINUOUS
 62
             7
100
AcDbLine
 10
9.25
 20
-38.5
 11
9.25
 21
-45.50000000000001
  0
LINE
  5
10F
100
AcDbEntity
  8
1
  6
CONTINUOUS
 62
             7
100
AcDbLine
 10
16.75
 20
-38.0
 11
9.75
 21
-38.0
  0
LINE
  5
10E
100
AcDbEntity
  8
1
  6
CONTINUOUS
 62
             7
100
AcDbLine
 10
9.75
 20
-46.00000000000001
 11
16.75
 21
-46.00000000000001
  0
LINE
  5
10D
100
AcDbEntity
  8
1
  6
CONTINUOUS
 62
             7
100
AcDbLine
 10
16.83682408883347
 20
-41.11368948511216
 11
9.95873277825083
 21
-42.32648255894432
  0
LINE
  5
10C
100
AcDbEntity
  8
1
  6
CONTINUOUS
 62
             7
100
AcDbLine
 10
17.25
 20
-40.62128560860607
 11
17.25
 21
-38.5
  0
LINE
  5
10B
100
AcDbEntity
  8
1
  6
CONTINUOUS
 62
             7
100
AcDbLine
 10
9.99538449206371
 20
-42.82773317885278
 11
16.66317591116653
 21
-41.6520216499286
  0
LINE
  5
10A
100
AcDbEntity
  8
1
  6
CONTINUOUS
 62
             7
100
AcDbLine
 10
89.0
 20
-28.00000000000001
 11
79.00000000000001
 21
-28.00000000000001
  0
LINE
  5
109
100
AcDbEntity
  8
1
  6
CONTINUOUS
 62
             7
100
AcDbLine
 10
79.00000000000001
 20
-28.00000000000001
 11
79.00000000000001
 21
-30.0
  0
LINE
  5
108
100
AcDbEntity
  8
1
  6
CONTINUOUS
 62
             7
100
AcDbLine
 10
79.00000000000001
 20
-30.0
 11
89.0
 21
-30.0
  0
LINE
  5
107
100
AcDbEntity
  8
1
  6
CONTINUOUS
 62
             7
100
AcDbLine
 10
89.0
 20
-30.0
 11
89.0
 21
-28.00000000000001
  0
LINE
  5
106
100
AcDbEntity
  8
1
  6
CONTINUOUS
 62
             7
100
AcDbLine
 10
89.0
 20
11.99999999999999
 11
79.00000000000001
 21
11.99999999999999
  0
LINE
  5
105
100
AcDbEntity
  8
1
  6
CONTINUOUS
 62
             7
100
AcDbLine
 10
79.00000000000001
 20
11.99999999999999
 11
79.00000000000001
 21
9.99999999999999
  0
LINE
  5
104
100
AcDbEntity
  8
1
  6
CONTINUOUS
 62
             7
100
AcDbLine
 10
79.00000000000001
 20
9.99999999999999
 11
89.0
 21
9.99999999999999
  0
LINE
  5
103
100
AcDbEntity
  8
1
  6
CONTINUOUS
 62
             7
100
AcDbLine
 10
89.0
 20
9.99999999999999
 11
89.0
 21
11.99999999999999
  0
LINE
  5
102
100
AcDbEntity
  8
1
  6
CONTINUOUS
 62
             7
100
AcDbLine
 10
149.0
 20
25.99999999999999
 11
101.0
 21
25.99999999999999
  0
LINE
  5
101
100
AcDbEntity
  8
1
  6
CONTINUOUS
 62
             7
100
AcDbLine
 10
101.0
 20
25.99999999999999
 11
101.0
 21
9.0
  0
LINE
  5
100
100
AcDbEntity
  8
1
  6
CONTINUOUS
 62
             7
100
AcDbLine
 10
101.0
 20
9.0
 11
77.00000000000001
 21
9.0
  0
LINE
  5
FF
100
AcDbEntity
  8
1
  6
CONTINUOUS
 62
             7
100
AcDbLine
 10
77.00000000000001
 20
9.0
 11
77.0
 21
-27.0
  0
LINE
  5
FE
100
AcDbEntity
  8
1
  6
CONTINUOUS
 62
             7
100
AcDbLine
 10
77.0
 20
-27.0
 11
101.0
 21
-27.0
  0
LINE
  5
FD
100
AcDbEntity
  8
1
  6
CONTINUOUS
 62
             7
100
AcDbLine
 10
101.0
 20
-27.0
 11
101.0
 21
-44.0
  0
LINE
  5
FC
100
AcDbEntity
  8
1
  6
CONTINUOUS
 62
             7
100
AcDbLine
 10
101.0
 20
-44.0
 11
149.0
 21
-44.0
  0
LINE
  5
FB
100
AcDbEntity
  8
1
  6
CONTINUOUS
 62
             7
100
AcDbLine
 10
149.0
 20
-44.0
 11
149.0
 21
25.99999999999999
  0
LINE
  5
FA
100
AcDbEntity
  8
0
  6
CONTINUOUS
 62
             7
100
AcDbLine
 10
159.76463480680459
 20
29.68860009363283
 11
159.76463480680459
 21
27.91139990636697
  0
LINE
  5
F9
100
AcDbEntity
  8
0
  6
CONTINUOUS
 62
             7
100
AcDbLine
 10
159.76463480680459
 20
31.5499999999999
 11
160.5037549484291
 21
31.5499999999999
  0
LINE
  5
F8
100
AcDbEntity
  8
0
  6
CONTINUOUS
 62
             7
100
AcDbLine
 10
160.5037549484291
 20
26.0499999999999
 11
159.76463480680459
 21
26.0499999999999
  0
LINE
  5
F7
100
AcDbEntity
  8
0
  6
CONTINUOUS
 62
             7
100
AcDbLine
 10
159.36463480680459
 20
32.1999999999999
 11
158.36463480680459
 21
32.1999999999999
  0
LINE
  5
F6
100
AcDbEntity
  8
0
  6
CONTINUOUS
 62
             7
100
AcDbLine
 10
159.36463480680459
 20
25.39999999999989
 11
158.36463480680459
 21
25.39999999999989
  0
LINE
  5
F5
100
AcDbEntity
  8
0
  6
CONTINUOUS
 62
             7
100
AcDbLine
 10
159.36463480680459
 20
32.1999999999999
 11
159.76463480680459
 21
30.5499999999999
  0
LINE
  5
F4
100
AcDbEntity
  8
0
  6
CONTINUOUS
 62
             7
100
AcDbLine
 10
158.36463480680459
 20
32.1999999999999
 11
158.76463480680459
 21
30.5499999999999
  0
LINE
  5
F3
100
AcDbEntity
  8
0
  6
CONTINUOUS
 62
             7
100
AcDbLine
 10
159.36463480680459
 20
29.39999999999989
 11
159.6348594951223
 21
29.50133425811904
  0
LINE
  5
F2
100
AcDbEntity
  8
0
  6
CONTINUOUS
 62
             7
100
AcDbLine
 10
159.36463480680459
 20
29.39999999999989
 11
159.36463480680459
 21
28.1999999999999
  0
LINE
  5
F1
100
AcDbEntity
  8
0
  6
CONTINUOUS
 62
             7
100
AcDbLine
 10
159.36463480680459
 20
28.1999999999999
 11
159.6348594951223
 21
28.09866574188078
  0
LINE
  5
F0
100
AcDbEntity
  8
0
  6
CONTINUOUS
 62
             7
100
AcDbLine
 10
158.36463480680459
 20
29.39999999999989
 11
158.6348594951223
 21
29.50133425811904
  0
LINE
  5
EF
100
AcDbEntity
  8
0
  6
CONTINUOUS
 62
             7
100
AcDbLine
 10
158.36463480680459
 20
28.1999999999999
 11
158.6348594951223
 21
28.09866574188078
  0
LINE
  5
EE
100
AcDbEntity
  8
0
  6
CONTINUOUS
 62
             7
100
AcDbLine
 10
159.76463480680459
 20
32.1999999999999
 11
159.76463480680459
 21
29.68860009363283
  0
LINE
  5
ED
100
AcDbEntity
  8
0
  6
CONTINUOUS
 62
             7
100
AcDbLine
 10
159.76463480680459
 20
27.0499999999999
 11
159.36463480680459
 21
25.39999999999989
  0
LINE
  5
EC
100
AcDbEntity
  8
0
  6
CONTINUOUS
 62
             7
100
AcDbLine
 10
158.76463480680459
 20
27.0499999999999
 11
158.36463480680459
 21
25.39999999999989
  0
LINE
  5
EB
100
AcDbEntity
  8
0
  6
CONTINUOUS
 62
             7
100
AcDbLine
 10
159.76463480680459
 20
32.1999999999999
 11
159.36463480680459
 21
32.1999999999999
  0
LINE
  5
EA
100
AcDbEntity
  8
0
  6
CONTINUOUS
 62
             7
100
AcDbLine
 10
159.76463480680459
 20
25.39999999999989
 11
159.36463480680459
 21
25.39999999999989
  0
LINE
  5
E9
100
AcDbEntity
  8
0
  6
CONTINUOUS
 62
             7
100
AcDbLine
 10
158.76463480680459
 20
29.68860009363283
 11
158.76463480680459
 21
30.5499999999999
  0
LINE
  5
E8
100
AcDbEntity
  8
0
  6
CONTINUOUS
 62
             7
100
AcDbLine
 10
158.76463480680459
 20
27.0499999999999
 11
158.76463480680459
 21
27.91139990636697
  0
LINE
  5
E7
100
AcDbEntity
  8
0
  6
CONTINUOUS
 62
             7
100
AcDbLine
 10
159.76463480680459
 20
25.39999999999989
 11
159.76463480680459
 21
27.91139990636697
  0
LINE
  5
E6
100
AcDbEntity
  8
1
  6
CONTINUOUS
 62
             7
100
AcDbLine
 10
158.36463480680459
 20
32.30117989259995
 11
158.36463480680459
 21
25.29882010739985
  0
LINE
  5
E5
100
AcDbEntity
  8
0
  6
CONTINUOUS
 62
             7
100
AcDbLine
 10
159.76463480680459
 20
21.28860009363285
 11
159.76463480680459
 21
19.51139990636699
  0
LINE
  5
E4
100
AcDbEntity
  8
0
  6
CONTINUOUS
 62
             7
100
AcDbLine
 10
159.76463480680459
 20
23.14999999999992
 11
160.5037549484291
 21
23.14999999999992
  0
LINE
  5
E3
100
AcDbEntity
  8
0
  6
CONTINUOUS
 62
             7
100
AcDbLine
 10
160.5037549484291
 20
17.64999999999992
 11
159.76463480680459
 21
17.64999999999992
  0
LINE
  5
E2
100
AcDbEntity
  8
0
  6
CONTINUOUS
 62
             7
100
AcDbLine
 10
159.36463480680459
 20
23.79999999999993
 11
158.36463480680459
 21
23.79999999999993
  0
LINE
  5
E1
100
AcDbEntity
  8
0
  6
CONTINUOUS
 62
             7
100
AcDbLine
 10
159.36463480680459
 20
16.99999999999991
 11
158.36463480680459
 21
16.99999999999991
  0
LINE
  5
E0
100
AcDbEntity
  8
0
  6
CONTINUOUS
 62
             7
100
AcDbLine
 10
159.36463480680459
 20
23.79999999999993
 11
159.76463480680459
 21
22.14999999999992
  0
LINE
  5
DF
100
AcDbEntity
  8
0
  6
CONTINUOUS
 62
             7
100
AcDbLine
 10
158.36463480680459
 20
23.79999999999993
 11
158.76463480680459
 21
22.14999999999992
  0
LINE
  5
DE
100
AcDbEntity
  8
0
  6
CONTINUOUS
 62
             7
100
AcDbLine
 10
159.36463480680459
 20
20.99999999999991
 11
159.6348594951223
 21
21.10133425811907
  0
LINE
  5
DD
100
AcDbEntity
  8
0
  6
CONTINUOUS
 62
             7
100
AcDbLine
 10
159.36463480680459
 20
20.99999999999991
 11
159.36463480680459
 21
19.79999999999993
  0
LINE
  5
DC
100
AcDbEntity
  8
0
  6
CONTINUOUS
 62
             7
100
AcDbLine
 10
159.36463480680459
 20
19.79999999999993
 11
159.6348594951223
 21
19.6986657418808
  0
LINE
  5
DB
100
AcDbEntity
  8
0
  6
CONTINUOUS
 62
             7
100
AcDbLine
 10
158.36463480680459
 20
20.99999999999991
 11
158.6348594951223
 21
21.10133425811907
  0
LINE
  5
DA
100
AcDbEntity
  8
0
  6
CONTINUOUS
 62
             7
100
AcDbLine
 10
158.36463480680459
 20
19.79999999999993
 11
158.6348594951223
 21
19.6986657418808
  0
LINE
  5
D9
100
AcDbEntity
  8
0
  6
CONTINUOUS
 62
             7
100
AcDbLine
 10
159.76463480680459
 20
23.79999999999993
 11
159.76463480680459
 21
21.28860009363285
  0
LINE
  5
D8
100
AcDbEntity
  8
0
  6
CONTINUOUS
 62
             7
100
AcDbLine
 10
159.76463480680459
 20
18.64999999999992
 11
159.36463480680459
 21
16.99999999999991
  0
LINE
  5
D7
100
AcDbEntity
  8
0
  6
CONTINUOUS
 62
             7
100
AcDbLine
 10
158.76463480680459
 20
18.64999999999992
 11
158.36463480680459
 21
16.99999999999991
  0
LINE
  5
D6
100
AcDbEntity
  8
0
  6
CONTINUOUS
 62
             7
100
AcDbLine
 10
159.76463480680459
 20
23.79999999999993
 11
159.36463480680459
 21
23.79999999999993
  0
LINE
  5
D5
100
AcDbEntity
  8
0
  6
CONTINUOUS
 62
             7
100
AcDbLine
 10
159.76463480680459
 20
16.99999999999991
 11
159.36463480680459
 21
16.99999999999991
  0
LINE
  5
D4
100
AcDbEntity
  8
0
  6
CONTINUOUS
 62
             7
100
AcDbLine
 10
158.76463480680459
 20
21.28860009363285
 11
158.76463480680459
 21
22.14999999999992
  0
LINE
  5
D3
100
AcDbEntity
  8
0
  6
CONTINUOUS
 62
             7
100
AcDbLine
 10
158.76463480680459
 20
18.64999999999992
 11
158.76463480680459
 21
19.51139990636699
  0
LINE
  5
D2
100
AcDbEntity
  8
0
  6
CONTINUOUS
 62
             7
100
AcDbLine
 10
159.76463480680459
 20
16.99999999999991
 11
159.76463480680459
 21
19.51139990636699
  0
LINE
  5
D1
100
AcDbEntity
  8
1
  6
CONTINUOUS
 62
             7
100
AcDbLine
 10
158.36463480680459
 20
23.90117989259997
 11
158.36463480680459
 21
16.89882010739987
  0
LINE
  5
D0
100
AcDbEntity
  8
0
  6
CONTINUOUS
 62
             7
100
AcDbLine
 10
159.76463480680459
 20
12.88860009363285
 11
159.76463480680459
 21
11.11139990636701
  0
LINE
  5
CF
100
AcDbEntity
  8
0
  6
CONTINUOUS
 62
             7
100
AcDbLine
 10
159.76463480680459
 20
14.74999999999991
 11
160.5037549484291
 21
14.74999999999991
  0
LINE
  5
CE
100
AcDbEntity
  8
0
  6
CONTINUOUS
 62
             7
100
AcDbLine
 10
160.5037549484291
 20
9.24999999999994
 11
159.76463480680459
 21
9.24999999999994
  0
LINE
  5
CD
100
AcDbEntity
  8
0
  6
CONTINUOUS
 62
             7
100
AcDbLine
 10
159.36463480680459
 20
15.39999999999995
 11
158.36463480680459
 21
15.39999999999995
  0
LINE
  5
CC
100
AcDbEntity
  8
0
  6
CONTINUOUS
 62
             7
100
AcDbLine
 10
159.36463480680459
 20
8.59999999999994
 11
158.36463480680459
 21
8.59999999999994
  0
LINE
  5
CB
100
AcDbEntity
  8
0
  6
CONTINUOUS
 62
             7
100
AcDbLine
 10
159.36463480680459
 20
15.39999999999995
 11
159.76463480680459
 21
13.74999999999991
  0
LINE
  5
CA
100
AcDbEntity
  8
0
  6
CONTINUOUS
 62
             7
100
AcDbLine
 10
158.36463480680459
 20
15.39999999999995
 11
158.76463480680459
 21
13.74999999999991
  0
LINE
  5
C9
100
AcDbEntity
  8
0
  6
CONTINUOUS
 62
             7
100
AcDbLine
 10
159.36463480680459
 20
12.59999999999994
 11
159.6348594951223
 21
12.70133425811909
  0
LINE
  5
C8
100
AcDbEntity
  8
0
  6
CONTINUOUS
 62
             7
100
AcDbLine
 10
159.36463480680459
 20
12.59999999999994
 11
159.36463480680459
 21
11.39999999999995
  0
LINE
  5
C7
100
AcDbEntity
  8
0
  6
CONTINUOUS
 62
             7
100
AcDbLine
 10
159.36463480680459
 20
11.39999999999995
 11
159.6348594951223
 21
11.29866574188082
  0
LINE
  5
C6
100
AcDbEntity
  8
0
  6
CONTINUOUS
 62
             7
100
AcDbLine
 10
158.36463480680459
 20
12.59999999999994
 11
158.6348594951223
 21
12.70133425811909
  0
LINE
  5
C5
100
AcDbEntity
  8
0
  6
CONTINUOUS
 62
             7
100
AcDbLine
 10
158.36463480680459
 20
11.39999999999995
 11
158.6348594951223
 21
11.29866574188082
  0
LINE
  5
C4
100
AcDbEntity
  8
0
  6
CONTINUOUS
 62
             7
100
AcDbLine
 10
159.76463480680459
 20
15.39999999999995
 11
159.76463480680459
 21
12.88860009363285
  0
LINE
  5
C3
100
AcDbEntity
  8
0
  6
CONTINUOUS
 62
             7
100
AcDbLine
 10
159.76463480680459
 20
10.24999999999991
 11
159.36463480680459
 21
8.59999999999994
  0
LINE
  5
C2
100
AcDbEntity
  8
0
  6
CONTINUOUS
 62
             7
100
AcDbLine
 10
158.76463480680459
 20
10.24999999999991
 11
158.36463480680459
 21
8.59999999999994
  0
LINE
  5
C1
100
AcDbEntity
  8
0
  6
CONTINUOUS
 62
             7
100
AcDbLine
 10
159.76463480680459
 20
15.39999999999995
 11
159.36463480680459
 21
15.39999999999995
  0
LINE
  5
C0
100
AcDbEntity
  8
0
  6
CONTINUOUS
 62
             7
100
AcDbLine
 10
159.76463480680459
 20
8.59999999999994
 11
159.36463480680459
 21
8.59999999999994
  0
LINE
  5
BF
100
AcDbEntity
  8
0
  6
CONTINUOUS
 62
             7
100
AcDbLine
 10
158.76463480680459
 20
12.88860009363285
 11
158.76463480680459
 21
13.74999999999991
  0
LINE
  5
BE
100
AcDbEntity
  8
0
  6
CONTINUOUS
 62
             7
100
AcDbLine
 10
158.76463480680459
 20
10.24999999999991
 11
158.76463480680459
 21
11.11139990636701
  0
LINE
  5
BD
100
AcDbEntity
  8
0
  6
CONTINUOUS
 62
             7
100
AcDbLine
 10
159.76463480680459
 20
8.59999999999994
 11
159.76463480680459
 21
11.11139990636701
  0
LINE
  5
BC
100
AcDbEntity
  8
1
  6
CONTINUOUS
 62
             7
100
AcDbLine
 10
158.36463480680459
 20
15.50117989259999
 11
158.36463480680459
 21
8.49882010739989
  0
LINE
  5
BB
100
AcDbEntity
  8
0
  6
CONTINUOUS
 62
             7
100
AcDbLine
 10
159.76463480680459
 20
4.48860009363287
 11
159.76463480680459
 21
2.71139990636703
  0
LINE
  5
BA
100
AcDbEntity
  8
0
  6
CONTINUOUS
 62
             7
100
AcDbLine
 10
159.76463480680459
 20
6.34999999999994
 11
160.5037549484291
 21
6.34999999999994
  0
LINE
  5
B9
100
AcDbEntity
  8
0
  6
CONTINUOUS
 62
             7
100
AcDbLine
 10
160.5037549484291
 20
0.84999999999994
 11
159.76463480680459
 21
0.84999999999994
  0
LINE
  5
B8
100
AcDbEntity
  8
0
  6
CONTINUOUS
 62
             7
100
AcDbLine
 10
159.36463480680459
 20
6.99999999999997
 11
158.36463480680459
 21
6.99999999999997
  0
LINE
  5
B7
100
AcDbEntity
  8
0
  6
CONTINUOUS
 62
             7
100
AcDbLine
 10
159.36463480680459
 20
0.19999999999996
 11
158.36463480680459
 21
0.19999999999996
  0
LINE
  5
B6
100
AcDbEntity
  8
0
  6
CONTINUOUS
 62
             7
100
AcDbLine
 10
159.36463480680459
 20
6.99999999999997
 11
159.76463480680459
 21
5.34999999999994
  0
LINE
  5
B5
100
AcDbEntity
  8
0
  6
CONTINUOUS
 62
             7
100
AcDbLine
 10
158.36463480680459
 20
6.99999999999997
 11
158.76463480680459
 21
5.34999999999994
  0
LINE
  5
B4
100
AcDbEntity
  8
0
  6
CONTINUOUS
 62
             7
100
AcDbLine
 10
159.36463480680459
 20
4.19999999999996
 11
159.6348594951223
 21
4.30133425811911
  0
LINE
  5
B3
100
AcDbEntity
  8
0
  6
CONTINUOUS
 62
             7
100
AcDbLine
 10
159.36463480680459
 20
4.19999999999996
 11
159.36463480680459
 21
2.99999999999994
  0
LINE
  5
B2
100
AcDbEntity
  8
0
  6
CONTINUOUS
 62
             7
100
AcDbLine
 10
159.36463480680459
 20
2.99999999999994
 11
159.6348594951223
 21
2.89866574188082
  0
LINE
  5
B1
100
AcDbEntity
  8
0
  6
CONTINUOUS
 62
             7
100
AcDbLine
 10
158.36463480680459
 20
4.19999999999996
 11
158.6348594951223
 21
4.30133425811911
  0
LINE
  5
B0
100
AcDbEntity
  8
0
  6
CONTINUOUS
 62
             7
100
AcDbLine
 10
158.36463480680459
 20
2.99999999999994
 11
158.6348594951223
 21
2.89866574188082
  0
LINE
  5
AF
100
AcDbEntity
  8
0
  6
CONTINUOUS
 62
             7
100
AcDbLine
 10
159.76463480680459
 20
6.99999999999997
 11
159.76463480680459
 21
4.48860009363287
  0
LINE
  5
AE
100
AcDbEntity
  8
0
  6
CONTINUOUS
 62
             7
100
AcDbLine
 10
159.76463480680459
 20
1.84999999999997
 11
159.36463480680459
 21
0.19999999999996
  0
LINE
  5
AD
100
AcDbEntity
  8
0
  6
CONTINUOUS
 62
             7
100
AcDbLine
 10
158.76463480680459
 20
1.84999999999997
 11
158.36463480680459
 21
0.19999999999996
  0
LINE
  5
AC
100
AcDbEntity
  8
0
  6
CONTINUOUS
 62
             7
100
AcDbLine
 10
159.76463480680459
 20
6.99999999999997
 11
159.36463480680459
 21
6.99999999999997
  0
LINE
  5
AB
100
AcDbEntity
  8
0
  6
CONTINUOUS
 62
             7
100
AcDbLine
 10
159.76463480680459
 20
0.19999999999996
 11
159.36463480680459
 21
0.19999999999996
  0
LINE
  5
AA
100
AcDbEntity
  8
0
  6
CONTINUOUS
 62
             7
100
AcDbLine
 10
158.76463480680459
 20
4.48860009363287
 11
158.76463480680459
 21
5.34999999999994
  0
LINE
  5
A9
100
AcDbEntity
  8
0
  6
CONTINUOUS
 62
             7
100
AcDbLine
 10
158.76463480680459
 20
1.84999999999997
 11
158.76463480680459
 21
2.71139990636703
  0
LINE
  5
A8
100
AcDbEntity
  8
0
  6
CONTINUOUS
 62
             7
100
AcDbLine
 10
159.76463480680459
 20
0.19999999999996
 11
159.76463480680459
 21
2.71139990636703
  0
LINE
  5
A7
100
AcDbEntity
  8
1
  6
CONTINUOUS
 62
             7
100
AcDbLine
 10
158.36463480680459
 20
7.10117989260002
 11
158.36463480680459
 21
0.09882010739992
  0
LINE
  5
A6
100
AcDbEntity
  8
0
  6
CONTINUOUS
 62
             7
100
AcDbLine
 10
159.76463480680459
 20
-3.91139990636711
 11
159.76463480680459
 21
-5.68860009363297
  0
LINE
  5
A5
100
AcDbEntity
  8
0
  6
CONTINUOUS
 62
             7
100
AcDbLine
 10
159.76463480680459
 20
-2.05000000000004
 11
160.5037549484291
 21
-2.05000000000004
  0
LINE
  5
A4
100
AcDbEntity
  8
0
  6
CONTINUOUS
 62
             7
100
AcDbLine
 10
160.5037549484291
 20
-7.55000000000004
 11
159.76463480680459
 21
-7.55000000000004
  0
LINE
  5
A3
100
AcDbEntity
  8
0
  6
CONTINUOUS
 62
             7
100
AcDbLine
 10
159.36463480680459
 20
-1.40000000000001
 11
158.36463480680459
 21
-1.40000000000001
  0
LINE
  5
A2
100
AcDbEntity
  8
0
  6
CONTINUOUS
 62
             7
100
AcDbLine
 10
159.36463480680459
 20
-8.20000000000002
 11
158.36463480680459
 21
-8.20000000000002
  0
LINE
  5
A1
100
AcDbEntity
  8
0
  6
CONTINUOUS
 62
             7
100
AcDbLine
 10
159.36463480680459
 20
-1.40000000000001
 11
159.76463480680459
 21
-3.05000000000004
  0
LINE
  5
A0
100
AcDbEntity
  8
0
  6
CONTINUOUS
 62
             7
100
AcDbLine
 10
158.36463480680459
 20
-1.40000000000001
 11
158.76463480680459
 21
-3.05000000000004
  0
LINE
  5
9F
100
AcDbEntity
  8
0
  6
CONTINUOUS
 62
             7
100
AcDbLine
 10
159.36463480680459
 20
-4.20000000000002
 11
159.6348594951223
 21
-4.09866574188086
  0
LINE
  5
9E
100
AcDbEntity
  8
0
  6
CONTINUOUS
 62
             7
100
AcDbLine
 10
159.36463480680459
 20
-4.20000000000002
 11
159.36463480680459
 21
-5.40000000000001
  0
LINE
  5
9D
100
AcDbEntity
  8
0
  6
CONTINUOUS
 62
             7
100
AcDbLine
 10
159.36463480680459
 20
-5.40000000000001
 11
159.6348594951223
 21
-5.50133425811916
  0
LINE
  5
9C
100
AcDbEntity
  8
0
  6
CONTINUOUS
 62
             7
100
AcDbLine
 10
158.36463480680459
 20
-4.20000000000002
 11
158.6348594951223
 21
-4.09866574188086
  0
LINE
  5
9B
100
AcDbEntity
  8
0
  6
CONTINUOUS
 62
             7
100
AcDbLine
 10
158.36463480680459
 20
-5.40000000000001
 11
158.6348594951223
 21
-5.50133425811916
  0
LINE
  5
9A
100
AcDbEntity
  8
0
  6
CONTINUOUS
 62
             7
100
AcDbLine
 10
159.76463480680459
 20
-1.40000000000001
 11
159.76463480680459
 21
-3.91139990636711
  0
LINE
  5
99
100
AcDbEntity
  8
0
  6
CONTINUOUS
 62
             7
100
AcDbLine
 10
159.76463480680459
 20
-6.55000000000004
 11
159.36463480680459
 21
-8.20000000000002
  0
LINE
  5
98
100
AcDbEntity
  8
0
  6
CONTINUOUS
 62
             7
100
AcDbLine
 10
158.76463480680459
 20
-6.55000000000004
 11
158.36463480680459
 21
-8.20000000000002
  0
LINE
  5
97
100
AcDbEntity
  8
0
  6
CONTINUOUS
 62
             7
100
AcDbLine
 10
159.76463480680459
 20
-1.40000000000001
 11
159.36463480680459
 21
-1.40000000000001
  0
LINE
  5
96
100
AcDbEntity
  8
0
  6
CONTINUOUS
 62
             7
100
AcDbLine
 10
159.76463480680459
 20
-8.20000000000002
 11
159.36463480680459
 21
-8.20000000000002
  0
LINE
  5
95
100
AcDbEntity
  8
0
  6
CONTINUOUS
 62
             7
100
AcDbLine
 10
158.76463480680459
 20
-3.91139990636711
 11
158.76463480680459
 21
-3.05000000000004
  0
LINE
  5
94
100
AcDbEntity
  8
0
  6
CONTINUOUS
 62
             7
100
AcDbLine
 10
158.76463480680459
 20
-6.55000000000004
 11
158.76463480680459
 21
-5.68860009363297
  0
LINE
  5
93
100
AcDbEntity
  8
0
  6
CONTINUOUS
 62
             7
100
AcDbLine
 10
159.76463480680459
 20
-8.20000000000002
 11
159.76463480680459
 21
-5.68860009363297
  0
LINE
  5
92
100
AcDbEntity
  8
1
  6
CONTINUOUS
 62
             7
100
AcDbLine
 10
158.36463480680459
 20
-1.29882010739996
 11
158.36463480680459
 21
-8.30117989260006
  0
LINE
  5
91
100
AcDbEntity
  8
0
  6
CONTINUOUS
 62
             7
100
AcDbLine
 10
159.76463480680459
 20
-12.31139990636709
 11
159.76463480680459
 21
-14.08860009363295
  0
LINE
  5
90
100
AcDbEntity
  8
0
  6
CONTINUOUS
 62
             7
100
AcDbLine
 10
159.76463480680459
 20
-10.45000000000002
 11
160.5037549484291
 21
-10.45000000000002
  0
LINE
  5
8F
100
AcDbEntity
  8
0
  6
CONTINUOUS
 62
             7
100
AcDbLine
 10
160.5037549484291
 20
-15.95000000000002
 11
159.76463480680459
 21
-15.95000000000002
  0
LINE
  5
8E
100
AcDbEntity
  8
0
  6
CONTINUOUS
 62
             7
100
AcDbLine
 10
159.36463480680459
 20
-9.79999999999998
 11
158.36463480680459
 21
-9.79999999999998
  0
LINE
  5
8D
100
AcDbEntity
  8
0
  6
CONTINUOUS
 62
             7
100
AcDbLine
 10
159.36463480680459
 20
-16.59999999999999
 11
158.36463480680459
 21
-16.59999999999999
  0
LINE
  5
8C
100
AcDbEntity
  8
0
  6
CONTINUOUS
 62
             7
100
AcDbLine
 10
159.36463480680459
 20
-9.79999999999998
 11
159.76463480680459
 21
-11.45000000000002
  0
LINE
  5
8B
100
AcDbEntity
  8
0
  6
CONTINUOUS
 62
             7
100
AcDbLine
 10
158.36463480680459
 20
-9.79999999999998
 11
158.76463480680459
 21
-11.45000000000002
  0
LINE
  5
8A
100
AcDbEntity
  8
0
  6
CONTINUOUS
 62
             7
100
AcDbLine
 10
159.36463480680459
 20
-12.59999999999999
 11
159.6348594951223
 21
-12.49866574188084
  0
LINE
  5
89
100
AcDbEntity
  8
0
  6
CONTINUOUS
 62
             7
100
AcDbLine
 10
159.36463480680459
 20
-12.59999999999999
 11
159.36463480680459
 21
-13.79999999999998
  0
LINE
  5
88
100
AcDbEntity
  8
0
  6
CONTINUOUS
 62
             7
100
AcDbLine
 10
159.36463480680459
 20
-13.79999999999998
 11
159.6348594951223
 21
-13.90133425811914
  0
LINE
  5
87
100
AcDbEntity
  8
0
  6
CONTINUOUS
 62
             7
100
AcDbLine
 10
158.36463480680459
 20
-12.59999999999999
 11
158.6348594951223
 21
-12.49866574188084
  0
LINE
  5
86
100
AcDbEntity
  8
0
  6
CONTINUOUS
 62
             7
100
AcDbLine
 10
158.36463480680459
 20
-13.79999999999998
 11
158.6348594951223
 21
-13.90133425811914
  0
LINE
  5
85
100
AcDbEntity
  8
0
  6
CONTINUOUS
 62
             7
100
AcDbLine
 10
159.76463480680459
 20
-9.79999999999998
 11
159.76463480680459
 21
-12.31139990636709
  0
LINE
  5
84
100
AcDbEntity
  8
0
  6
CONTINUOUS
 62
             7
100
AcDbLine
 10
159.76463480680459
 20
-14.95000000000002
 11
159.36463480680459
 21
-16.59999999999999
  0
LINE
  5
83
100
AcDbEntity
  8
0
  6
CONTINUOUS
 62
             7
100
AcDbLine
 10
158.76463480680459
 20
-14.95000000000002
 11
158.36463480680459
 21
-16.59999999999999
  0
LINE
  5
82
100
AcDbEntity
  8
0
  6
CONTINUOUS
 62
             7
100
AcDbLine
 10
159.76463480680459
 20
-9.79999999999998
 11
159.36463480680459
 21
-9.79999999999998
  0
LINE
  5
81
100
AcDbEntity
  8
0
  6
CONTINUOUS
 62
             7
100
AcDbLine
 10
159.76463480680459
 20
-16.59999999999999
 11
159.36463480680459
 21
-16.59999999999999
  0
LINE
  5
80
100
AcDbEntity
  8
0
  6
CONTINUOUS
 62
             7
100
AcDbLine
 10
158.76463480680459
 20
-12.31139990636709
 11
158.76463480680459
 21
-11.45000000000002
  0
LINE
  5
7F
100
AcDbEntity
  8
0
  6
CONTINUOUS
 62
             7
100
AcDbLine
 10
158.76463480680459
 20
-14.95000000000002
 11
158.76463480680459
 21
-14.08860009363295
  0
LINE
  5
7E
100
AcDbEntity
  8
0
  6
CONTINUOUS
 62
             7
100
AcDbLine
 10
159.76463480680459
 20
-16.59999999999999
 11
159.76463480680459
 21
-14.08860009363295
  0
LINE
  5
7D
100
AcDbEntity
  8
1
  6
CONTINUOUS
 62
             7
100
AcDbLine
 10
158.36463480680459
 20
-9.69882010739994
 11
158.36463480680459
 21
-16.70117989260004
  0
LINE
  5
7C
100
AcDbEntity
  8
0
  6
CONTINUOUS
 62
             7
100
AcDbLine
 10
159.76463480680459
 20
-20.71139990636703
 11
159.76463480680459
 21
-22.48860009363293
  0
LINE
  5
7B
100
AcDbEntity
  8
0
  6
CONTINUOUS
 62
             7
100
AcDbLine
 10
159.76463480680459
 20
-18.84999999999999
 11
160.5037549484291
 21
-18.84999999999999
  0
LINE
  5
7A
100
AcDbEntity
  8
0
  6
CONTINUOUS
 62
             7
100
AcDbLine
 10
160.5037549484291
 20
-24.34999999999999
 11
159.76463480680459
 21
-24.34999999999999
  0
LINE
  5
79
100
AcDbEntity
  8
0
  6
CONTINUOUS
 62
             7
100
AcDbLine
 10
159.36463480680459
 20
-18.19999999999996
 11
158.36463480680459
 21
-18.19999999999996
  0
LINE
  5
78
100
AcDbEntity
  8
0
  6
CONTINUOUS
 62
             7
100
AcDbLine
 10
159.36463480680459
 20
-24.99999999999997
 11
158.36463480680459
 21
-24.99999999999997
  0
LINE
  5
77
100
AcDbEntity
  8
0
  6
CONTINUOUS
 62
             7
100
AcDbLine
 10
159.36463480680459
 20
-18.19999999999996
 11
159.76463480680459
 21
-19.84999999999999
  0
LINE
  5
76
100
AcDbEntity
  8
0
  6
CONTINUOUS
 62
             7
100
AcDbLine
 10
158.36463480680459
 20
-18.19999999999996
 11
158.76463480680459
 21
-19.84999999999999
  0
LINE
  5
75
100
AcDbEntity
  8
0
  6
CONTINUOUS
 62
             7
100
AcDbLine
 10
159.36463480680459
 20
-20.99999999999997
 11
159.6348594951223
 21
-20.89866574188082
  0
LINE
  5
74
100
AcDbEntity
  8
0
  6
CONTINUOUS
 62
             7
100
AcDbLine
 10
159.36463480680459
 20
-20.99999999999997
 11
159.36463480680459
 21
-22.19999999999996
  0
LINE
  5
73
100
AcDbEntity
  8
0
  6
CONTINUOUS
 62
             7
100
AcDbLine
 10
159.36463480680459
 20
-22.19999999999996
 11
159.6348594951223
 21
-22.30133425811908
  0
LINE
  5
72
100
AcDbEntity
  8
0
  6
CONTINUOUS
 62
             7
100
AcDbLine
 10
158.36463480680459
 20
-20.99999999999997
 11
158.6348594951223
 21
-20.89866574188082
  0
LINE
  5
71
100
AcDbEntity
  8
0
  6
CONTINUOUS
 62
             7
100
AcDbLine
 10
158.36463480680459
 20
-22.19999999999996
 11
158.6348594951223
 21
-22.30133425811908
  0
LINE
  5
70
100
AcDbEntity
  8
0
  6
CONTINUOUS
 62
             7
100
AcDbLine
 10
159.76463480680459
 20
-18.19999999999996
 11
159.76463480680459
 21
-20.71139990636703
  0
LINE
  5
6F
100
AcDbEntity
  8
0
  6
CONTINUOUS
 62
             7
100
AcDbLine
 10
159.76463480680459
 20
-23.34999999999999
 11
159.36463480680459
 21
-24.99999999999997
  0
LINE
  5
6E
100
AcDbEntity
  8
0
  6
CONTINUOUS
 62
             7
100
AcDbLine
 10
158.76463480680459
 20
-23.34999999999999
 11
158.36463480680459
 21
-24.99999999999997
  0
LINE
  5
6D
100
AcDbEntity
  8
0
  6
CONTINUOUS
 62
             7
100
AcDbLine
 10
159.76463480680459
 20
-18.19999999999996
 11
159.36463480680459
 21
-18.19999999999996
  0
LINE
  5
6C
100
AcDbEntity
  8
0
  6
CONTINUOUS
 62
             7
100
AcDbLine
 10
159.76463480680459
 20
-24.99999999999997
 11
159.36463480680459
 21
-24.99999999999997
  0
LINE
  5
6B
100
AcDbEntity
  8
0
  6
CONTINUOUS
 62
             7
100
AcDbLine
 10
158.76463480680459
 20
-20.71139990636703
 11
158.76463480680459
 21
-19.84999999999999
  0
LINE
  5
6A
100
AcDbEntity
  8
0
  6
CONTINUOUS
 62
             7
100
AcDbLine
 10
158.76463480680459
 20
-23.34999999999999
 11
158.76463480680459
 21
-22.48860009363293
  0
LINE
  5
69
100
AcDbEntity
  8
0
  6
CONTINUOUS
 62
             7
100
AcDbLine
 10
159.76463480680459
 20
-24.99999999999997
 11
159.76463480680459
 21
-22.48860009363293
  0
LINE
  5
68
100
AcDbEntity
  8
1
  6
CONTINUOUS
 62
             7
100
AcDbLine
 10
158.36463480680459
 20
-18.09882010739994
 11
158.36463480680459
 21
-25.10117989260002
  0
LINE
  5
67
100
AcDbEntity
  8
0
  6
CONTINUOUS
 62
             7
100
AcDbLine
 10
159.76463480680459
 20
-29.11139990636701
 11
159.76463480680459
 21
-30.88860009363287
  0
LINE
  5
66
100
AcDbEntity
  8
0
  6
CONTINUOUS
 62
             7
100
AcDbLine
 10
159.76463480680459
 20
-27.24999999999994
 11
160.5037549484291
 21
-27.24999999999994
  0
LINE
  5
65
100
AcDbEntity
  8
0
  6
CONTINUOUS
 62
             7
100
AcDbLine
 10
160.5037549484291
 20
-32.74999999999994
 11
159.76463480680459
 21
-32.74999999999994
  0
LINE
  5
64
100
AcDbEntity
  8
0
  6
CONTINUOUS
 62
             7
100
AcDbLine
 10
159.36463480680459
 20
-26.59999999999997
 11
158.36463480680459
 21
-26.59999999999997
  0
LINE
  5
63
100
AcDbEntity
  8
0
  6
CONTINUOUS
 62
             7
100
AcDbLine
 10
159.36463480680459
 20
-33.39999999999998
 11
158.36463480680459
 21
-33.39999999999998
  0
LINE
  5
62
100
AcDbEntity
  8
0
  6
CONTINUOUS
 62
             7
100
AcDbLine
 10
159.36463480680459
 20
-26.59999999999997
 11
159.76463480680459
 21
-28.24999999999994
  0
LINE
  5
61
100
AcDbEntity
  8
0
  6
CONTINUOUS
 62
             7
100
AcDbLine
 10
158.36463480680459
 20
-26.59999999999997
 11
158.76463480680459
 21
-28.24999999999994
  0
LINE
  5
60
100
AcDbEntity
  8
0
  6
CONTINUOUS
 62
             7
100
AcDbLine
 10
159.36463480680459
 20
-29.39999999999998
 11
159.6348594951223
 21
-29.29866574188082
  0
LINE
  5
5F
100
AcDbEntity
  8
0
  6
CONTINUOUS
 62
             7
100
AcDbLine
 10
159.36463480680459
 20
-29.39999999999998
 11
159.36463480680459
 21
-30.59999999999997
  0
LINE
  5
5E
100
AcDbEntity
  8
0
  6
CONTINUOUS
 62
             7
100
AcDbLine
 10
159.36463480680459
 20
-30.59999999999997
 11
159.6348594951223
 21
-30.70133425811906
  0
LINE
  5
5D
100
AcDbEntity
  8
0
  6
CONTINUOUS
 62
             7
100
AcDbLine
 10
158.36463480680459
 20
-29.39999999999998
 11
158.6348594951223
 21
-29.29866574188082
  0
LINE
  5
5C
100
AcDbEntity
  8
0
  6
CONTINUOUS
 62
             7
100
AcDbLine
 10
158.36463480680459
 20
-30.59999999999997
 11
158.6348594951223
 21
-30.70133425811906
  0
LINE
  5
5B
100
AcDbEntity
  8
0
  6
CONTINUOUS
 62
             7
100
AcDbLine
 10
159.76463480680459
 20
-26.59999999999997
 11
159.76463480680459
 21
-29.11139990636701
  0
LINE
  5
5A
100
AcDbEntity
  8
0
  6
CONTINUOUS
 62
             7
100
AcDbLine
 10
159.76463480680459
 20
-31.74999999999994
 11
159.36463480680459
 21
-33.39999999999998
  0
LINE
  5
59
100
AcDbEntity
  8
0
  6
CONTINUOUS
 62
             7
100
AcDbLine
 10
158.76463480680459
 20
-31.74999999999994
 11
158.36463480680459
 21
-33.39999999999998
  0
LINE
  5
58
100
AcDbEntity
  8
0
  6
CONTINUOUS
 62
             7
100
AcDbLine
 10
159.76463480680459
 20
-26.59999999999997
 11
159.36463480680459
 21
-26.59999999999997
  0
LINE
  5
57
100
AcDbEntity
  8
0
  6
CONTINUOUS
 62
             7
100
AcDbLine
 10
159.76463480680459
 20
-33.39999999999998
 11
159.36463480680459
 21
-33.39999999999998
  0
LINE
  5
56
100
AcDbEntity
  8
0
  6
CONTINUOUS
 62
             7
100
AcDbLine
 10
158.76463480680459
 20
-29.11139990636701
 11
158.76463480680459
 21
-28.24999999999994
  0
LINE
  5
55
100
AcDbEntity
  8
0
  6
CONTINUOUS
 62
             7
100
AcDbLine
 10
158.76463480680459
 20
-31.74999999999994
 11
158.76463480680459
 21
-30.88860009363287
  0
LINE
  5
54
100
AcDbEntity
  8
0
  6
CONTINUOUS
 62
             7
100
AcDbLine
 10
159.76463480680459
 20
-33.39999999999998
 11
159.76463480680459
 21
-30.88860009363287
  0
LINE
  5
53
100
AcDbEntity
  8
1
  6
CONTINUOUS
 62
             7
100
AcDbLine
 10
158.36463480680459
 20
-26.49882010739989
 11
158.36463480680459
 21
-33.50117989259999
  0
LINE
  5
52
100
AcDbEntity
  8
0
  6
CONTINUOUS
 62
             7
100
AcDbLine
 10
159.76463480680459
 20
-37.51139990636699
 11
159.76463480680459
 21
-39.28860009363285
  0
LINE
  5
51
100
AcDbEntity
  8
0
  6
CONTINUOUS
 62
             7
100
AcDbLine
 10
159.76463480680459
 20
-35.64999999999992
 11
160.5037549484291
 21
-35.64999999999992
  0
LINE
  5
50
100
AcDbEntity
  8
0
  6
CONTINUOUS
 62
             7
100
AcDbLine
 10
160.5037549484291
 20
-41.14999999999992
 11
159.76463480680459
 21
-41.14999999999992
  0
LINE
  5
4F
100
AcDbEntity
  8
0
  6
CONTINUOUS
 62
             7
100
AcDbLine
 10
159.36463480680459
 20
-34.99999999999991
 11
158.36463480680459
 21
-34.99999999999991
  0
LINE
  5
4E
100
AcDbEntity
  8
0
  6
CONTINUOUS
 62
             7
100
AcDbLine
 10
159.36463480680459
 20
-41.79999999999995
 11
158.36463480680459
 21
-41.79999999999995
  0
LINE
  5
4D
100
AcDbEntity
  8
0
  6
CONTINUOUS
 62
             7
100
AcDbLine
 10
159.36463480680459
 20
-34.99999999999991
 11
159.76463480680459
 21
-36.64999999999992
  0
LINE
  5
4C
100
AcDbEntity
  8
0
  6
CONTINUOUS
 62
             7
100
AcDbLine
 10
158.36463480680459
 20
-34.99999999999991
 11
158.76463480680459
 21
-36.64999999999992
  0
LINE
  5
4B
100
AcDbEntity
  8
0
  6
CONTINUOUS
 62
             7
100
AcDbLine
 10
159.36463480680459
 20
-37.79999999999995
 11
159.6348594951223
 21
-37.6986657418808
  0
LINE
  5
4A
100
AcDbEntity
  8
0
  6
CONTINUOUS
 62
             7
100
AcDbLine
 10
159.36463480680459
 20
-37.79999999999995
 11
159.36463480680459
 21
-38.99999999999991
  0
LINE
  5
49
100
AcDbEntity
  8
0
  6
CONTINUOUS
 62
             7
100
AcDbLine
 10
159.36463480680459
 20
-38.99999999999991
 11
159.6348594951223
 21
-39.10133425811904
  0
LINE
  5
48
100
AcDbEntity
  8
0
  6
CONTINUOUS
 62
             7
100
AcDbLine
 10
158.36463480680459
 20
-37.79999999999995
 11
158.6348594951223
 21
-37.6986657418808
  0
LINE
  5
47
100
AcDbEntity
  8
0
  6
CONTINUOUS
 62
             7
100
AcDbLine
 10
158.36463480680459
 20
-38.99999999999991
 11
158.6348594951223
 21
-39.10133425811904
  0
LINE
  5
46
100
AcDbEntity
  8
0
  6
CONTINUOUS
 62
             7
100
AcDbLine
 10
159.76463480680459
 20
-34.99999999999991
 11
159.76463480680459
 21
-37.51139990636699
  0
LINE
  5
45
100
AcDbEntity
  8
0
  6
CONTINUOUS
 62
             7
100
AcDbLine
 10
159.76463480680459
 20
-40.14999999999992
 11
159.36463480680459
 21
-41.79999999999995
  0
LINE
  5
44
100
AcDbEntity
  8
0
  6
CONTINUOUS
 62
             7
100
AcDbLine
 10
158.76463480680459
 20
-40.14999999999992
 11
158.36463480680459
 21
-41.79999999999995
  0
LINE
  5
43
100
AcDbEntity
  8
0
  6
CONTINUOUS
 62
             7
100
AcDbLine
 10
159.76463480680459
 20
-34.99999999999991
 11
159.36463480680459
 21
-34.99999999999991
  0
LINE
  5
42
100
AcDbEntity
  8
0
  6
CONTINUOUS
 62
             7
100
AcDbLine
 10
159.76463480680459
 20
-41.79999999999995
 11
159.36463480680459
 21
-41.79999999999995
  0
LINE
  5
41
100
AcDbEntity
  8
0
  6
CONTINUOUS
 62
             7
100
AcDbLine
 10
158.76463480680459
 20
-37.51139990636699
 11
158.76463480680459
 21
-36.64999999999992
  0
LINE
  5
40
100
AcDbEntity
  8
0
  6
CONTINUOUS
 62
             7
100
AcDbLine
 10
158.76463480680459
 20
-40.14999999999992
 11
158.76463480680459
 21
-39.28860009363285
  0
LINE
  5
3F
100
AcDbEntity
  8
0
  6
CONTINUOUS
 62
             7
100
AcDbLine
 10
159.76463480680459
 20
-41.79999999999995
 11
159.76463480680459
 21
-39.28860009363285
  0
LINE
  5
3E
100
AcDbEntity
  8
1
  6
CONTINUOUS
 62
             7
100
AcDbLine
 10
158.36463480680459
 20
-34.8988201073999
 11
158.36463480680459
 21
-41.90117989259997
  0
LINE
  5
3D
100
AcDbEntity
  8
0
  6
CONTINUOUS
 62
             7
100
AcDbLine
 10
159.76463480680459
 20
-45.911399906367
 11
159.76463480680459
 21
-47.68860009363283
  0
LINE
  5
3C
100
AcDbEntity
  8
0
  6
CONTINUOUS
 62
             7
100
AcDbLine
 10
159.76463480680459
 20
-44.0499999999999
 11
160.5037549484291
 21
-44.0499999999999
  0
LINE
  5
3B
100
AcDbEntity
  8
0
  6
CONTINUOUS
 62
             7
100
AcDbLine
 10
160.5037549484291
 20
-49.5499999999999
 11
159.76463480680459
 21
-49.5499999999999
  0
LINE
  5
3A
100
AcDbEntity
  8
0
  6
CONTINUOUS
 62
             7
100
AcDbLine
 10
159.36463480680459
 20
-43.39999999999992
 11
158.36463480680459
 21
-43.39999999999992
  0
LINE
  5
39
100
AcDbEntity
  8
0
  6
CONTINUOUS
 62
             7
100
AcDbLine
 10
159.36463480680459
 20
-50.19999999999993
 11
158.36463480680459
 21
-50.19999999999993
  0
LINE
  5
38
100
AcDbEntity
  8
0
  6
CONTINUOUS
 62
             7
100
AcDbLine
 10
159.36463480680459
 20
-43.39999999999992
 11
159.76463480680459
 21
-45.0499999999999
  0
LINE
  5
37
100
AcDbEntity
  8
0
  6
CONTINUOUS
 62
             7
100
AcDbLine
 10
158.36463480680459
 20
-43.39999999999992
 11
158.76463480680459
 21
-45.0499999999999
  0
LINE
  5
36
100
AcDbEntity
  8
0
  6
CONTINUOUS
 62
             7
100
AcDbLine
 10
159.36463480680459
 20
-46.19999999999993
 11
159.6348594951223
 21
-46.09866574188078
  0
LINE
  5
35
100
AcDbEntity
  8
0
  6
CONTINUOUS
 62
             7
100
AcDbLine
 10
159.36463480680459
 20
-46.19999999999993
 11
159.36463480680459
 21
-47.39999999999992
  0
LINE
  5
34
100
AcDbEntity
  8
0
  6
CONTINUOUS
 62
             7
100
AcDbLine
 10
159.36463480680459
 20
-47.39999999999992
 11
159.6348594951223
 21
-47.50133425811904
  0
LINE
  5
33
100
AcDbEntity
  8
0
  6
CONTINUOUS
 62
             7
100
AcDbLine
 10
158.36463480680459
 20
-46.19999999999993
 11
158.6348594951223
 21
-46.09866574188078
  0
LINE
  5
32
100
AcDbEntity
  8
0
  6
CONTINUOUS
 62
             7
100
AcDbLine
 10
158.36463480680459
 20
-47.39999999999992
 11
158.6348594951223
 21
-47.50133425811904
  0
LINE
  5
31
100
AcDbEntity
  8
0
  6
CONTINUOUS
 62
             7
100
AcDbLine
 10
159.76463480680459
 20
-43.39999999999992
 11
159.76463480680459
 21
-45.911399906367
  0
LINE
  5
30
100
AcDbEntity
  8
0
  6
CONTINUOUS
 62
             7
100
AcDbLine
 10
159.76463480680459
 20
-48.5499999999999
 11
159.36463480680459
 21
-50.19999999999993
  0
LINE
  5
2F
100
AcDbEntity
  8
0
  6
CONTINUOUS
 62
             7
100
AcDbLine
 10
158.76463480680459
 20
-48.5499999999999
 11
158.36463480680459
 21
-50.19999999999993
  0
LINE
  5
2E
100
AcDbEntity
  8
0
  6
CONTINUOUS
 62
             7
100
AcDbLine
 10
159.76463480680459
 20
-43.39999999999992
 11
159.36463480680459
 21
-43.39999999999992
  0
LINE
  5
2D
100
AcDbEntity
  8
0
  6
CONTINUOUS
 62
             7
100
AcDbLine
 10
159.76463480680459
 20
-50.19999999999993
 11
159.36463480680459
 21
-50.19999999999993
  0
LINE
  5
2C
100
AcDbEntity
  8
0
  6
CONTINUOUS
 62
             7
100
AcDbLine
 10
158.76463480680459
 20
-45.911399906367
 11
158.76463480680459
 21
-45.0499999999999
  0
LINE
  5
2B
100
AcDbEntity
  8
0
  6
CONTINUOUS
 62
             7
100
AcDbLine
 10
158.76463480680459
 20
-48.5499999999999
 11
158.76463480680459
 21
-47.68860009363283
  0
LINE
  5
2A
100
AcDbEntity
  8
0
  6
CONTINUOUS
 62
             7
100
AcDbLine
 10
159.76463480680459
 20
-50.19999999999993
 11
159.76463480680459
 21
-47.68860009363283
  0
LINE
  5
29
100
AcDbEntity
  8
1
  6
CONTINUOUS
 62
             7
100
AcDbLine
 10
158.36463480680459
 20
-43.29882010739988
 11
158.36463480680459
 21
-50.30117989259995
  0
POINT
  5
28
100
AcDbEntity
  8
1
 62
             7
100
AcDbPoint
 10
68.50000000000001
 20
45.06257530131413
  0
ENDSEC
  0
SECTION
  2
OBJECTS
  0
DICTIONARY
  5
19
100
AcDbDictionary
  3
ACAD_GROUP
350
1A
  3
ACAD_MLINESTYLE
350
1B
  0
DICTIONARY
  5
1A
102
{ACAD_REACTORS
330
19
102
}
100
AcDbDictionary
  0
DICTIONARY
  5
1B
102
{ACAD_REACTORS
330
19
102
}
100
AcDbDictionary
  3
STANDARD
350
1C
  0
MLINESTYLE
  5
1C
102
{ACAD_REACTORS
330
1B
102
}
100
AcDbMlineStyle
  2
STANDARD
 70
             0
  3

 62
             0
 51
90.0
 52
90.0
 71
             2
 49
0.5
 62
           256
  6
BYLAYER
 49
-0.5
 62
           256
  6
BYLAYER
  0
ENDSEC
  0
EOF
