  0
SECTION
  2
HEADER
  9
$ACADVER
  1
AC1014
  9
$ACADMAINTVER
 70
             0
  9
$DWGCODEPAGE
  3
ANSI_1252
  9
$INSBASE
 10
0.0
 20
0.0
 30
0.0
  9
$EXTMIN
 10
1.00000000000000E+20
 20
1.00000000000000E+20
 30
1.00000000000000E+20
  9
$EXTMAX
 10
-1.00000000000000E+20
 20
-1.00000000000000E+20
 30
-1.00000000000000E+20
  9
$LIMMIN
 10
0.0
 20
0.0
  9
$LIMMAX
 10
0.0
 20
0.0
  9
$ORTHOMODE
 70
             0
  9
$REGENMODE
 70
             1
  9
$FILLMODE
 70
             1
  9
$QTEXTMODE
 70
             0
  9
$MIRRTEXT
 70
             1
  9
$DRAGMODE
 70
             2
  9
$LTSCALE
 40
1.0
  9
$OSMODE
 70
             0
  9
$ATTMODE
 70
             1
  9
$TEXTSIZE
 40
0.2
  9
$TRACEWID
 40
0.05
  9
$TEXTSTYLE
  7
STANDARD
  9
$CLAYER
  8
0
  9
$CELTYPE
  6
CONTINUOUS
  9
$CECOLOR
 62
           256
  9
$CELTSCALE
 40
1.0
  9
$DELOBJ
 70
             1
  9
$DISPSILH
 70
             0
  9
$DIMSCALE
 40
1.0
  9
$DIMASZ
 40
0.18
  9
$DIMEXO
 40
0.0625
  9
$DIMDLI
 40
0.38
  9
$DIMRND
 40
0.0
  9
$DIMDLE
 40
0.0
  9
$DIMEXE
 40
0.18
  9
$DIMTP
 40
0.0
  9
$DIMTM
 40
0.0
  9
$DIMTXT
 40
0.18
  9
$DIMCEN
 40
0.09
  9
$DIMTSZ
 40
0.0
  9
$DIMTOL
 70
             0
  9
$DIMLIM
 70
             0
  9
$DIMTIH
 70
             1
  9
$DIMTOH
 70
             1
  9
$DIMSE1
 70
             0
  9
$DIMSE2
 70
             0
  9
$DIMTAD
 70
             0
  9
$DIMZIN
 70
             0
  9
$DIMBLK
  1

  9
$DIMASO
 70
             1
  9
$DIMSHO
 70
             1
  9
$DIMPOST
  1

  9
$DIMAPOST
  1

  9
$DIMALT
 70
             0
  9
$DIMALTD
 70
             2
  9
$DIMALTF
 40
25.4
  9
$DIMLFAC
 40
1.0
  9
$DIMTOFL
 70
             0
  9
$DIMTVP
 40
0.0
  9
$DIMTIX
 70
             0
  9
$DIMSOXD
 70
             0
  9
$DIMSAH
 70
             0
  9
$DIMBLK1
  1

  9
$DIMBLK2
  1

  9
$DIMSTYLE
  2
STANDARD
  9
$DIMCLRD
 70
             0
  9
$DIMCLRE
 70
             0
  9
$DIMCLRT
 70
             0
  9
$DIMTFAC
 40
1.0
  9
$DIMGAP
 40
0.09
  9
$DIMJUST
 70
             0
  9
$DIMSD1
 70
             0
  9
$DIMSD2
 70
             0
  9
$DIMTOLJ
 70
             1
  9
$DIMTZIN
 70
             0
  9
$DIMALTZ
 70
             0
  9
$DIMALTTZ
 70
             0
  9
$DIMFIT
 70
             3
  9
$DIMUPT
 70
             0
  9
$DIMUNIT
 70
             2
  9
$DIMDEC
 70
             4
  9
$DIMTDEC
 70
             4
  9
$DIMALTU
 70
             2
  9
$DIMALTTD
 70
             2
  9
$DIMTXSTY
  7
STANDARD
  9
$DIMAUNIT
 70
             0
  9
$LUNITS
 70
             2
  9
$LUPREC
 70
             4
  9
$SKETCHINC
 40
0.1
  9
$FILLETRAD
 40
0.0
  9
$AUNITS
 70
             0
  9
$AUPREC
 70
             0
  9
$MENU
  1
acad
  9
$ELEVATION
 40
0.0
  9
$PELEVATION
 40
0.0
  9
$THICKNESS
 40
0.0
  9
$LIMCHECK
 70
             0
  9
$BLIPMODE
 70
             1
  9
$CHAMFERA
 40
0.0
  9
$CHAMFERB
 40
0.0
  9
$CHAMFERC
 40
0.0
  9
$CHAMFERD
 40
0.0
  9
$SKPOLY
 70
             0
  9
$TDCREATE
 40
0.000000000
  9
$TDUPDATE
 40
0.000000000
  9
$TDINDWG
 40
0.0000000000
  9
$TDUSRTIMER
 40
0.0000000000
  9
$USRTIMER
 70
             1
  9
$ANGBASE
 50
0.0
  9
$ANGDIR
 70
             0
  9
$PDMODE
 70
             0
  9
$PDSIZE
 40
0.0
  9
$PLINEWID
 40
0.0
  9
$COORDS
 70
             0
  9
$SPLFRAME
 70
             0
  9
$SPLINETYPE
 70
             6
  9
$SPLINESEGS
 70
             8
  9
$ATTDIA
 70
             0
  9
$ATTREQ
 70
             1
  9
$HANDLING
 70
             1
  9
$HANDSEED
  5
221
  9
$SURFTAB1
 70
             6
  9
$SURFTAB2
 70
             6
  9
$SURFTYPE
 70
             6
  9
$SURFU
 70
             6
  9
$SURFV
 70
             6
  9
$UCSNAME
  2

  9
$UCSORG
 10
0.0
 20
0.0
 30
0.0
  9
$UCSXDIR
 10
1.0
 20
0.0
 30
0.0
  9
$UCSYDIR
 10
0.0
 20
1.0
 30
0.0
  9
$PUCSNAME
  2

  9
$PUCSORG
 10
0.0
 20
0.0
 30
0.0
  9
$PUCSXDIR
 10
1.0
 20
0.0
 30
0.0
  9
$PUCSYDIR
 10
0.0
 20
1.0
 30
0.0
  9
$USERI1
 70
             0
  9
$USERI2
 70
             0
  9
$USERI3
 70
             0
  9
$USERI4
 70
             0
  9
$USERI5
 70
             0
  9
$USERR1
 40
11.6
  9
$USERR2
 40
0.0
  9
$USERR3
 40
0.0
  9
$USERR4
 40
0.0
  9
$USERR5
 40
0.0
  9
$WORLDVIEW
 70
             1
  9
$SHADEDGE
 70
             3
  9
$SHADEDIF
 70
            70
  9
$TILEMODE
 70
             1
  9
$MAXACTVP
 70
            16
  9
$PINSBASE
 10
0.0
 20
0.0
 30
0.0
  9
$PLIMCHECK
 70
             0
  9
$PEXTMIN
 10
1.00000000000000E+20
 20
1.00000000000000E+20
 30
1.00000000000000E+20
  9
$PEXTMAX
 10
-1.00000000000000E+20
 20
-1.00000000000000E+20
 30
-1.00000000000000E+20
  9
$PLIMMIN
 10
0.0
 20
0.0
  9
$PLIMMAX
 10
12.0
 20
9.0
  9
$UNITMODE
 70
             0
  9
$VISRETAIN
 70
             0
  9
$PLINEGEN
 70
             1
  9
$PSLTSCALE
 70
             0
  9
$TREEDEPTH
 70
          3020
  9
$PICKSTYLE
 70
             1
  9
$CMLSTYLE
  2
STANDARD
  9
$CMLJUST
 70
             0
  9
$CMLSCALE
 40
1.0
  9
$PROXYGRAPHICS
 70
             0
  9
$MEASUREMENT
 70
             1
  0
ENDSEC
  0
SECTION
  2
CLASSES
  0
CLASS
  1
LWPOLYLINE
  2
AcDbPolyline
  3
"AutoCAD"
 90
        0
280
             0
281
             1
  0
CLASS
  1
IMAGE
  2
AcDbRasterImage
  3
ISM
 90
      127
280
             0
281
             1
  0
CLASS
  1
OLE2FRAME
  2
AcDbOle2Frame
  3
""
 90
        0
280
             0
281
             1
  0
CLASS
  1
HATCH
  2
AcDbHatch
  3
"ACAD_SEDONA"
 90
        0
280
             0
281
             1
  0
CLASS
  1
DICTIONARYVAR
  2
AcDbDictionaryVar
  3
"AutoCAD"
 90
        0
280
             0
281
             0
  0
CLASS
  1
RASTERVARIABLES
  2
AcDbRasterVariables
  3
ISM
 90
        0
280
             0
281
             0
  0
CLASS
  1
IMAGEDEF
  2
AcDbRasterImageDef
  3
ISM
 90
        0
280
             0
281
             0
  0
CLASS
  1
IMAGEDEF_REACTOR
  2
AcDbRasterImageDefReactor
  3
ISM
 90
        1
280
             0
281
             0
  0
CLASS
  1
IDBUFFER
  2
AcDbIdBuffer
  3
"Acad"
 90
        0
280
             0
281
             0
  0
CLASS
  1
SPATIAL_FILTER
  2
AcDbSpatialFilter
  3
"Acad"
 90
        0
280
             0
281
             0
  0
CLASS
  1
XRECORD
  2
AcDbXrecord
  3
"<Built In>"
 90
        0
280
             0
281
             0
  0
CLASS
  1
SORTENTSTABLE
  2
AcDbSortentsTable
  3
"AutoCAD"
 90
        0
280
             0
281
             0
  0
CLASS
  1
LAYER_INDEX
  2
AcDbLayerIndex
  3
"Acad"
 90
        0
280
             0
281
             0
  0
CLASS
  1
SPATIAL_INDEX
  2
AcDbSpatialIndex
  3
"Acad"
 90
        0
280
             0
281
             0
  0
CLASS
  1
OBJECT_PTR
  2
CAseDLPNTableRecord
  3
"ASE-LPNTableRecord"
 90
        1
280
             0
281
             0
  0
CLASS
  1
LAYOUT
  2
AcDbLayout
  3
"AutoCAD 2000"
 90
        1
280
             0
281
             0
  0
CLASS
  1
PLOTSETTINGS
  2
AcDbPlotSettings
  3
"AutoCAD 2000"
 90
        1
280
             0
281
             0
  0
CLASS
  1
ACDBDICTIONARYWDFLT
  2
AcDbDictionaryWithDefault
  3
"AutoCAD 2000"
 90
        1
280
             0
281
             0
  0
CLASS
  1
ACDBPLACEHOLDER
  2
AcDbPlaceHolder
  3
"AutoCAD 2000"
 90
        1
280
             0
281
             0
  0
ENDSEC
  0
SECTION
  2
TABLES
  0
TABLE
  2
VPORT
  5
7
100
AcDbSymbolTable
 70
             1
  0
VPORT
  5
15
100
AcDbSymbolTableRecord
100
AcDbViewportTableRecord
  2
*ACTIVE
 70
             0
 10
0.0
 20
0.0
 11
1.0
 21
1.0
 12
12.0
 22
0.00000000000001
 13
0.0
 23
0.0
 14
1.0
 24
1.0
 15
0.0
 25
0.0
 16
0.0
 26
0.0
 36
1.0
 17
0.0
 27
0.0
 37
0.0
 40
120.7977715877438
 41
1.60267857142857
 42
50.0
 43
0.0
 44
0.0
 50
0.0
 51
0.0
 71
             0
 72
           100
 73
             1
 74
             1
 75
             0
 76
             0
 77
             0
 78
             0
  0
ENDTAB
  0
TABLE
  2
LTYPE
  5
4
100
AcDbSymbolTable
 70
            10
  0
LTYPE
  5
11
100
AcDbSymbolTableRecord
100
AcDbLinetypeTableRecord
  2
BYBLOCK
 70
            64
  3

 72
            65
 73
             0
 40
0.0
  0
LTYPE
  5
12
100
AcDbSymbolTableRecord
100
AcDbLinetypeTableRecord
  2
BYLAYER
 70
            64
  3

 72
            65
 73
             0
 40
0.0
  0
LTYPE
  5
13
100
AcDbSymbolTableRecord
100
AcDbLinetypeTableRecord
  2
CONTINUOUS
 70
            64
  3
Solid line
 72
            65
 73
             0
 40
0.0
  0
LTYPE
  5
1D
100
AcDbSymbolTableRecord
100
AcDbLinetypeTableRecord
  2
DASHED
 70
            64
  3
Dashed
 72
            65
 73
             2
 40
15.0
 49
12.0
 74
             0
 49
-3.0
 74
             0
  0
LTYPE
  5
1E
100
AcDbSymbolTableRecord
100
AcDbLinetypeTableRecord
  2
DOTTED
 70
            64
  3
Dotted
 72
            65
 73
             2
 40
3.5
 49
0.5
 74
             0
 49
-3.0
 74
             0
  0
LTYPE
  5
1F
100
AcDbSymbolTableRecord
100
AcDbLinetypeTableRecord
  2
DOT_CENTER
 70
            64
  3
Dot_Center
 72
            65
 73
             4
 40
2.0
 49
1.25
 74
             0
 49
-0.25
 74
             0
 49
0.25
 74
             0
 49
-0.25
 74
             0
  0
LTYPE
  5
20
100
AcDbSymbolTableRecord
100
AcDbLinetypeTableRecord
  2
LONG_DASHED
 70
            64
  3
Long_Dashed
 72
            65
 73
             2
 40
2.0
 49
1.5
 74
             0
 49
-0.5
 74
             0
  0
LTYPE
  5
21
100
AcDbSymbolTableRecord
100
AcDbLinetypeTableRecord
  2
DASH_CENTER
 70
            64
  3
Dash_Center
 72
            65
 73
             4
 40
36.0
 49
24.0
 74
             0
 49
-3.0
 74
             0
 49
6.0
 74
             0
 49
-3.0
 74
             0
  0
LTYPE
  5
22
100
AcDbSymbolTableRecord
100
AcDbLinetypeTableRecord
  2
PHANTOM
 70
            64
  3
Phantom
 72
            65
 73
             6
 40
2.5
 49
1.25
 74
             0
 49
-0.25
 74
             0
 49
0.25
 74
             0
 49
-0.25
 74
             0
 49
0.25
 74
             0
 49
-0.25
 74
             0
  0
LTYPE
  5
23
100
AcDbSymbolTableRecord
100
AcDbLinetypeTableRecord
  2
CENTER_DASH_DASH
 70
            64
  3
Center_Dash_Dash
 72
            65
 73
             6
 40
22.0
 49
12.0
 74
             0
 49
-3.0
 74
             0
 49
0.5
 74
             0
 49
-3.0
 74
             0
 49
0.5
 74
             0
 49
-3.0
 74
             0
  0
ENDTAB
  0
TABLE
  2
LAYER
  5
2
100
AcDbSymbolTable
 70
             2
  0
LAYER
  5
14
100
AcDbSymbolTableRecord
100
AcDbLayerTableRecord
  2
0
 70
             0
 62
             7
  6
CONTINUOUS
  0
LAYER
  5
24
100
AcDbSymbolTableRecord
100
AcDbLayerTableRecord
  2
1
 70
             0
 62
             7
  6
CONTINUOUS
  0
ENDTAB
  0
TABLE
  2
STYLE
  5
3
100
AcDbSymbolTable
 70
             1
  0
STYLE
  5
17
100
AcDbSymbolTableRecord
100
AcDbTextStyleTableRecord
  2
STANDARD
 70
             0
 40
0.0
 41
1.0
 50
0.0
 71
             0
 42
0.0
  3
txt
  4

  0
ENDTAB
  0
TABLE
  2
VIEW
  5
5
100
AcDbSymbolTable
 70
             0
  0
ENDTAB
  0
TABLE
  2
UCS
  5
6
100
AcDbSymbolTable
 70
             0
  0
ENDTAB
  0
TABLE
  2
APPID
  5
8
100
AcDbSymbolTable
 70
             1
  0
APPID
  5
16
100
AcDbSymbolTableRecord
100
AcDbRegAppTableRecord
  2
ACAD
 70
             0
  0
ENDTAB
  0
TABLE
  2
DIMSTYLE
  5
9
100
AcDbSymbolTable
 70
             1
  0
DIMSTYLE
105
18
100
AcDbSymbolTableRecord
100
AcDbDimStyleTableRecord
  2
STANDARD
 70
             0
  3

  4

  5

  6

  7

 40
1.0
 41
0.18
 42
0.0625
 43
0.38
 44
0.18
 45
0.0
 46
0.0
 47
0.0
 48
0.0
 71
             0
 72
             0
 73
             1
 74
             1
 75
             0
 76
             0
 77
             0
 78
             0
140
0.18
141
0.09
142
0.0
143
25.4
144
1.0
145
0.0
146
1.0
147
0.09
170
             0
171
             2
172
             0
173
             0
174
             0
175
             0
176
             0
177
             0
178
             0
270
             2
271
             4
272
             4
273
             2
274
             2
275
             0
280
             0
281
             0
282
             0
283
             1
284
             0
285
             0
286
             0
287
             0
288
             0
340
17
  0
ENDTAB
  0
TABLE
  2
BLOCK_RECORD
  5
1
100
AcDbSymbolTable
 70
             0
  0
BLOCK_RECORD
  5
A
100
AcDbSymbolTableRecord
100
AcDbBlockTableRecord
  2
*MODEL_SPACE
  0
BLOCK_RECORD
  5
B
100
AcDbSymbolTableRecord
100
AcDbBlockTableRecord
  2
*PAPER_SPACE
  0
ENDTAB
  0
ENDSEC
  0
SECTION
  2
BLOCKS
  0
BLOCK
  5
D
100
AcDbEntity
  8
0
100
AcDbBlockBegin
  2
*MODEL_SPACE
 70
             0
 10
0.0
 20
0.0
 30
0.0
  3
*MODEL_SPACE
  1

  0
ENDBLK
  5
E
100
AcDbEntity
  8
0
100
AcDbBlockEnd
  0
BLOCK
  5
F
100
AcDbEntity
 67
             1
  8
0
100
AcDbBlockBegin
  2
*PAPER_SPACE
 70
             0
 10
0.0
 20
0.0
 30
0.0
  3
*PAPER_SPACE
  1

  0
ENDBLK
  5
10
100
AcDbEntity
 67
             1
  8
0
100
AcDbBlockEnd
  0
ENDSEC
  0
SECTION
  2
ENTITIES
  0
ARC
  5
21F
100
AcDbEntity
  8
1
  6
CONTINUOUS
 62
             7
100
AcDbCircle
 10
-68.25000000000023
 20
7.30000000000001
 40
1.0
100
AcDbArc
 50
90.0
 51
180.0
  0
ARC
  5
21E
100
AcDbEntity
  8
1
  6
CONTINUOUS
 62
             7
100
AcDbCircle
 10
-68.25000000000023
 20
-2.5
 40
1.0
100
AcDbArc
 50
180.0
 51
-90.0
  0
ARC
  5
21D
100
AcDbEntity
  8
1
  6
CONTINUOUS
 62
             7
100
AcDbCircle
 10
-38.70000000000027
 20
-2.5
 40
1.0
100
AcDbArc
 50
-90.0
 51
0.0
  0
ARC
  5
21C
100
AcDbEntity
  8
1
  6
CONTINUOUS
 62
             7
100
AcDbCircle
 10
-38.70000000000027
 20
7.30000000000001
 40
1.0
100
AcDbArc
 50
0.0
 51
90.0
  0
ARC
  5
21B
100
AcDbEntity
  8
1
  6
CONTINUOUS
 62
             7
100
AcDbCircle
 10
-33.00000000000028
 20
8.5
 40
1.5
100
AcDbArc
 50
0.0
 51
90.0
  0
ARC
  5
21A
100
AcDbEntity
  8
1
  6
CONTINUOUS
 62
             7
100
AcDbCircle
 10
-71.00000000000028
 20
8.5
 40
1.5
100
AcDbArc
 50
90.0
 51
180.0
  0
ARC
  5
219
100
AcDbEntity
  8
1
  6
CONTINUOUS
 62
             7
100
AcDbCircle
 10
-71.00000000000028
 20
-7.0
 40
1.5
100
AcDbArc
 50
180.0
 51
-90.0
  0
ARC
  5
218
100
AcDbEntity
  8
1
  6
CONTINUOUS
 62
             7
100
AcDbCircle
 10
-33.00000000000028
 20
-7.0
 40
1.5
100
AcDbArc
 50
-90.0
 51
0.0
  0
ARC
  5
217
100
AcDbEntity
  8
1
  6
CONTINUOUS
 62
             7
100
AcDbCircle
 10
-70.00000000000028
 20
-5.0
 40
1.0
100
AcDbArc
 50
90.0
 51
180.0
  0
ARC
  5
216
100
AcDbEntity
  8
1
  6
CONTINUOUS
 62
             7
100
AcDbCircle
 10
-70.00000000000028
 20
-7.0
 40
1.0
100
AcDbArc
 50
180.0
 51
-90.0
  0
ARC
  5
215
100
AcDbEntity
  8
1
  6
CONTINUOUS
 62
             7
100
AcDbCircle
 10
-34.00000000000028
 20
-5.0
 40
1.0
100
AcDbArc
 50
0.0
 51
90.0
  0
ARC
  5
214
100
AcDbEntity
  8
1
  6
CONTINUOUS
 62
             7
100
AcDbCircle
 10
-34.00000000000028
 20
-7.0
 40
1.0
100
AcDbArc
 50
-90.0
 51
0.0
  0
ARC
  5
213
100
AcDbEntity
  8
1
  6
CONTINUOUS
 62
             7
100
AcDbCircle
 10
-3.50000000000001
 20
2.15083626601976
 40
1.5
100
AcDbArc
 50
0.0
 51
102.95276451337553
  0
ARC
  5
212
100
AcDbEntity
  8
1
  6
CONTINUOUS
 62
             7
100
AcDbCircle
 10
-3.50000000000001
 20
-2.15083626601976
 40
1.5
100
AcDbArc
 50
-102.95276451337554
 51
0.0
  0
CIRCLE
  5
211
100
AcDbEntity
  8
1
  6
CONTINUOUS
 62
             7
100
AcDbCircle
 10
-38.50000000000028
 20
-6.0
 40
1.5
  0
CIRCLE
  5
210
100
AcDbEntity
  8
1
  6
CONTINUOUS
 62
             7
100
AcDbCircle
 10
-38.50000000000028
 20
-6.0
 40
1.19999999999997
  0
CIRCLE
  5
20F
100
AcDbEntity
  8
1
  6
CONTINUOUS
 62
             7
100
AcDbCircle
 10
-63.29935522218926
 20
-2.39999999999998
 40
0.79999999999995
  0
CIRCLE
  5
20E
100
AcDbEntity
  8
1
  6
CONTINUOUS
 62
             7
100
AcDbCircle
 10
-57.09935522218945
 20
-2.39999999999998
 40
0.80000000000019
  0
CIRCLE
  5
20D
100
AcDbEntity
  8
1
  6
CONTINUOUS
 62
             7
100
AcDbCircle
 10
-50.8993552221894
 20
-2.39999999999998
 40
0.79999999999995
  0
CIRCLE
  5
20C
100
AcDbEntity
  8
1
  6
CONTINUOUS
 62
             7
100
AcDbCircle
 10
-44.69935522218935
 20
-2.39999999999998
 40
0.79999999999995
  0
ARC
  5
20B
100
AcDbEntity
  8
1
  6
CONTINUOUS
 62
             7
100
AcDbCircle
 10
22.24999999999999
 20
-0.00000000000023
 40
1.25
100
AcDbArc
 50
90.0
 51
-90.0
  0
ARC
  5
20A
100
AcDbEntity
  8
1
  6
CONTINUOUS
 62
             7
100
AcDbCircle
 10
22.24999999999999
 20
-5.00000000000023
 40
1.25
100
AcDbArc
 50
90.0
 51
-90.0
  0
ARC
  5
209
100
AcDbEntity
  8
1
  6
CONTINUOUS
 62
             7
100
AcDbCircle
 10
22.24999999999999
 20
4.99999999999977
 40
1.25
100
AcDbArc
 50
90.0
 51
-90.0
  0
ARC
  5
208
100
AcDbEntity
  8
1
  6
CONTINUOUS
 62
             7
100
AcDbCircle
 10
-48.7000000000003
 20
-6.0
 40
1.30000000000001
100
AcDbArc
 50
90.0
 51
-90.0
  0
ARC
  5
207
100
AcDbEntity
  8
1
  6
CONTINUOUS
 62
             7
100
AcDbCircle
 10
-46.3000000000003
 20
-6.0
 40
1.30000000000001
100
AcDbArc
 50
-90.0
 51
90.0
  0
ARC
  5
206
100
AcDbEntity
  8
1
  6
CONTINUOUS
 62
             7
100
AcDbCircle
 10
-48.00000000000028
 20
-6.0
 40
1.0
100
AcDbArc
 50
90.0
 51
-90.0
  0
ARC
  5
205
100
AcDbEntity
  8
1
  6
CONTINUOUS
 62
             7
100
AcDbCircle
 10
-47.00000000000028
 20
-6.0
 40
1.0
100
AcDbArc
 50
-90.0
 51
90.0
  0
ARC
  5
204
100
AcDbEntity
  8
1
  6
CONTINUOUS
 62
             7
100
AcDbCircle
 10
-51.2000000000003
 20
-5.19999999999999
 40
0.19999999999999
100
AcDbArc
 50
-89.99999999999186
 51
89.99999999999186
  0
ARC
  5
203
100
AcDbEntity
  8
1
  6
CONTINUOUS
 62
             7
100
AcDbCircle
 10
-52.8000000000003
 20
-5.19999999999999
 40
0.19999999999999
100
AcDbArc
 50
90.0
 51
-90.0
  0
ARC
  5
202
100
AcDbEntity
  8
1
  6
CONTINUOUS
 62
             7
100
AcDbCircle
 10
-51.2000000000003
 20
-6.0
 40
0.19999999999999
100
AcDbArc
 50
-89.99999999999186
 51
89.99999999999186
  0
ARC
  5
201
100
AcDbEntity
  8
1
  6
CONTINUOUS
 62
             7
100
AcDbCircle
 10
-52.8000000000003
 20
-6.0
 40
0.19999999999999
100
AcDbArc
 50
90.0
 51
-90.0
  0
ARC
  5
200
100
AcDbEntity
  8
1
  6
CONTINUOUS
 62
             7
100
AcDbCircle
 10
-52.8000000000003
 20
-6.80000000000001
 40
0.19999999999999
100
AcDbArc
 50
90.0
 51
-90.0
  0
ARC
  5
1FF
100
AcDbEntity
  8
1
  6
CONTINUOUS
 62
             7
100
AcDbCircle
 10
-51.2000000000003
 20
-6.80000000000001
 40
0.19999999999999
100
AcDbArc
 50
-89.99999999999186
 51
89.99999999999186
  0
ARC
  5
1FE
100
AcDbEntity
  8
1
  6
CONTINUOUS
 62
             7
100
AcDbCircle
 10
-60.2000000000003
 20
-6.80000000000001
 40
0.19999999999999
100
AcDbArc
 50
-89.99999999999186
 51
89.99999999999186
  0
ARC
  5
1FD
100
AcDbEntity
  8
1
  6
CONTINUOUS
 62
             7
100
AcDbCircle
 10
-61.8000000000003
 20
-6.80000000000001
 40
0.19999999999999
100
AcDbArc
 50
90.0
 51
-90.0
  0
ARC
  5
1FC
100
AcDbEntity
  8
1
  6
CONTINUOUS
 62
             7
100
AcDbCircle
 10
-61.8000000000003
 20
-6.0
 40
0.19999999999999
100
AcDbArc
 50
90.0
 51
-90.0
  0
ARC
  5
1FB
100
AcDbEntity
  8
1
  6
CONTINUOUS
 62
             7
100
AcDbCircle
 10
-60.2000000000003
 20
-6.0
 40
0.19999999999999
100
AcDbArc
 50
-89.99999999999186
 51
89.99999999999186
  0
ARC
  5
1FA
100
AcDbEntity
  8
1
  6
CONTINUOUS
 62
             7
100
AcDbCircle
 10
-61.8000000000003
 20
-5.19999999999999
 40
0.19999999999999
100
AcDbArc
 50
90.0
 51
-90.0
  0
ARC
  5
1F9
100
AcDbEntity
  8
1
  6
CONTINUOUS
 62
             7
100
AcDbCircle
 10
-60.2000000000003
 20
-5.19999999999999
 40
0.19999999999999
100
AcDbArc
 50
-89.99999999999186
 51
89.99999999999186
  0
ARC
  5
1F8
100
AcDbEntity
  8
1
  6
CONTINUOUS
 62
             7
100
AcDbCircle
 10
-42.2000000000003
 20
-6.80000000000001
 40
0.19999999999999
100
AcDbArc
 50
-89.99999999999186
 51
89.99999999999186
  0
ARC
  5
1F7
100
AcDbEntity
  8
1
  6
CONTINUOUS
 62
             7
100
AcDbCircle
 10
-43.8000000000003
 20
-6.80000000000001
 40
0.19999999999999
100
AcDbArc
 50
90.0
 51
-90.0
  0
ARC
  5
1F6
100
AcDbEntity
  8
1
  6
CONTINUOUS
 62
             7
100
AcDbCircle
 10
-43.8000000000003
 20
-6.0
 40
0.19999999999999
100
AcDbArc
 50
90.0
 51
-90.0
  0
ARC
  5
1F5
100
AcDbEntity
  8
1
  6
CONTINUOUS
 62
             7
100
AcDbCircle
 10
-42.2000000000003
 20
-6.0
 40
0.19999999999999
100
AcDbArc
 50
-89.99999999999186
 51
89.99999999999186
  0
ARC
  5
1F4
100
AcDbEntity
  8
1
  6
CONTINUOUS
 62
             7
100
AcDbCircle
 10
-43.8000000000003
 20
-5.19999999999999
 40
0.19999999999999
100
AcDbArc
 50
90.0
 51
-90.0
  0
ARC
  5
1F3
100
AcDbEntity
  8
1
  6
CONTINUOUS
 62
             7
100
AcDbCircle
 10
-42.2000000000003
 20
-5.19999999999999
 40
0.19999999999999
100
AcDbArc
 50
-89.99999999999186
 51
89.99999999999186
  0
ARC
  5
1F2
100
AcDbEntity
  8
1
  6
CONTINUOUS
 62
             7
100
AcDbCircle
 10
-67.72672784267826
 20
-1.59999999999889
 40
0.40000000000004
100
AcDbArc
 50
129.99999999990578
 51
-90.0
  0
ARC
  5
1F1
100
AcDbEntity
  8
1
  6
CONTINUOUS
 62
             7
100
AcDbCircle
 10
-64.9060077317734
 20
-1.59999999999889
 40
0.40000000000009
100
AcDbArc
 50
-90.0
 51
45.00000000000004
  0
ARC
  5
1F0
100
AcDbEntity
  8
1
  6
CONTINUOUS
 62
             7
100
AcDbCircle
 10
-63.96617195227037
 20
-0.84277950465309
 40
0.40000000000026
100
AcDbArc
 50
-135.0000000000461
 51
-4.99999999995654
  0
ARC
  5
1EF
100
AcDbEntity
  8
1
  6
CONTINUOUS
 62
             7
100
AcDbCircle
 10
-68.57523150821936
 20
-0.74549036560791
 40
0.40000000000022
100
AcDbArc
 50
174.99999999998983
 51
-50.0000000001191
  0
ARC
  5
1EE
100
AcDbEntity
  8
1
  6
CONTINUOUS
 62
             7
100
AcDbCircle
 10
-68.03382804773224
 20
5.44277950465232
 40
0.39999999999946
100
AcDbArc
 50
45.000000000069
 51
175.0000000000577
  0
ARC
  5
1ED
100
AcDbEntity
  8
1
  6
CONTINUOUS
 62
             7
100
AcDbCircle
 10
-63.42476849178325
 20
5.34549036560713
 40
0.39999999999938
100
AcDbArc
 50
-5.00000000015126
 51
130.00000000009015
  0
ARC
  5
1EC
100
AcDbEntity
  8
1
  6
CONTINUOUS
 62
             7
100
AcDbCircle
 10
-67.09399226822831
 20
6.19999999999629
 40
0.39999999999964
100
AcDbArc
 50
90.0
 51
-134.99999999990789
  0
ARC
  5
1EB
100
AcDbEntity
  8
1
  6
CONTINUOUS
 62
             7
100
AcDbCircle
 10
-64.2732721573264
 20
6.19999999999629
 40
0.40000000000004
100
AcDbArc
 50
-50.00000000009417
 51
90.0
  0
ARC
  5
1EA
100
AcDbEntity
  8
1
  6
CONTINUOUS
 62
             7
100
AcDbCircle
 10
-58.07327215732636
 20
6.19999999999629
 40
0.39999999999989
100
AcDbArc
 50
-50.00000000011912
 51
90.0
  0
ARC
  5
1E9
100
AcDbEntity
  8
1
  6
CONTINUOUS
 62
             7
100
AcDbCircle
 10
-60.89399226822826
 20
6.19999999999629
 40
0.39999999999964
100
AcDbArc
 50
90.0
 51
-134.99999999990789
  0
ARC
  5
1E8
100
AcDbEntity
  8
1
  6
CONTINUOUS
 62
             7
100
AcDbCircle
 10
-57.22476849178344
 20
5.34549036560713
 40
0.3999999999994
100
AcDbArc
 50
-5.00000000015109
 51
130.00000000006443
  0
ARC
  5
1E7
100
AcDbEntity
  8
1
  6
CONTINUOUS
 62
             7
100
AcDbCircle
 10
-61.83382804773243
 20
5.44277950465232
 40
0.40000000000027
100
AcDbArc
 50
44.99999999995242
 51
175.00000000005477
  0
ARC
  5
1E6
100
AcDbEntity
  8
1
  6
CONTINUOUS
 62
             7
100
AcDbCircle
 10
-62.37523150821932
 20
-0.74549036560791
 40
0.40000000000044
100
AcDbArc
 50
174.99999999999261
 51
-50.0000000001191
  0
ARC
  5
1E5
100
AcDbEntity
  8
1
  6
CONTINUOUS
 62
             7
100
AcDbCircle
 10
-57.76617195227033
 20
-0.84277950465309
 40
0.40000000000026
100
AcDbArc
 50
-135.0000000000461
 51
-4.99999999995663
  0
ARC
  5
1E4
100
AcDbEntity
  8
1
  6
CONTINUOUS
 62
             7
100
AcDbCircle
 10
-58.70600773177335
 20
-1.59999999999889
 40
0.40000000000009
100
AcDbArc
 50
-90.0
 51
45.00000000000004
  0
ARC
  5
1E3
100
AcDbEntity
  8
1
  6
CONTINUOUS
 62
             7
100
AcDbCircle
 10
-61.52672784267844
 20
-1.59999999999889
 40
0.39999999999989
100
AcDbArc
 50
129.99999999988083
 51
-90.0
  0
ARC
  5
1E2
100
AcDbEntity
  8
1
  6
CONTINUOUS
 62
             7
100
AcDbCircle
 10
-55.3267278426784
 20
-1.59999999999889
 40
0.39999999999988
100
AcDbArc
 50
129.99999999987926
 51
-90.0
  0
ARC
  5
1E1
100
AcDbEntity
  8
1
  6
CONTINUOUS
 62
             7
100
AcDbCircle
 10
-52.5060077317724
 20
-1.59999999999889
 40
0.40000000000009
100
AcDbArc
 50
-90.0
 51
45.00000000009216
  0
ARC
  5
1E0
100
AcDbEntity
  8
1
  6
CONTINUOUS
 62
             7
100
AcDbCircle
 10
-51.56617195227028
 20
-0.84277950465309
 40
0.39999999999962
100
AcDbArc
 50
-134.99999999995399
 51
-4.99999999995663
  0
ARC
  5
1DF
100
AcDbEntity
  8
1
  6
CONTINUOUS
 62
             7
100
AcDbCircle
 10
-56.17523150821927
 20
-0.74549036560791
 40
0.40000000000044
100
AcDbArc
 50
174.99999999999261
 51
-50.0000000001191
  0
ARC
  5
1DE
100
AcDbEntity
  8
1
  6
CONTINUOUS
 62
             7
100
AcDbCircle
 10
-55.63382804773238
 20
5.44277950465232
 40
0.40000000000026
100
AcDbArc
 50
44.99999999995385
 51
175.00000000005494
  0
ARC
  5
1DD
100
AcDbEntity
  8
1
  6
CONTINUOUS
 62
             7
100
AcDbCircle
 10
-51.02476849178339
 20
5.34549036560713
 40
0.39999999999939
100
AcDbArc
 50
-5.00000000015117
 51
130.00000000008936
  0
ARC
  5
1DC
100
AcDbEntity
  8
1
  6
CONTINUOUS
 62
             7
100
AcDbCircle
 10
-54.69399226822844
 20
6.19999999999629
 40
0.39999999999964
100
AcDbArc
 50
90.0
 51
-134.99999999988557
  0
ARC
  5
1DB
100
AcDbEntity
  8
1
  6
CONTINUOUS
 62
             7
100
AcDbCircle
 10
-51.87327215732631
 20
6.19999999999629
 40
0.39999999999989
100
AcDbArc
 50
-50.00000000011912
 51
90.0
  0
ARC
  5
1DA
100
AcDbEntity
  8
1
  6
CONTINUOUS
 62
             7
100
AcDbCircle
 10
-45.67327215732627
 20
6.19999999999629
 40
0.39999999999989
100
AcDbArc
 50
-50.00000000011912
 51
90.0
  0
ARC
  5
1D9
100
AcDbEntity
  8
1
  6
CONTINUOUS
 62
             7
100
AcDbCircle
 10
-48.4939922682284
 20
6.19999999999629
 40
0.39999999999964
100
AcDbArc
 50
90.0
 51
-134.99999999988412
  0
ARC
  5
1D8
100
AcDbEntity
  8
1
  6
CONTINUOUS
 62
             7
100
AcDbCircle
 10
-44.82476849178335
 20
5.34549036560713
 40
0.3999999999994
100
AcDbArc
 50
-5.00000000015109
 51
130.00000000008859
  0
ARC
  5
1D7
100
AcDbEntity
  8
1
  6
CONTINUOUS
 62
             7
100
AcDbCircle
 10
-49.43382804773233
 20
5.44277950465232
 40
0.40000000000025
100
AcDbArc
 50
44.99999999995457
 51
175.00000000005778
  0
ARC
  5
1D6
100
AcDbEntity
  8
1
  6
CONTINUOUS
 62
             7
100
AcDbCircle
 10
-49.97523150821945
 20
-0.74549036560791
 40
0.40000000000022
100
AcDbArc
 50
174.99999999998983
 51
-50.00000000009337
  0
ARC
  5
1D5
100
AcDbEntity
  8
1
  6
CONTINUOUS
 62
             7
100
AcDbCircle
 10
-45.36617195227046
 20
-0.84277950465309
 40
0.39999999999946
100
AcDbArc
 50
-134.99999999993096
 51
-4.99999999995672
  0
ARC
  5
1D4
100
AcDbEntity
  8
1
  6
CONTINUOUS
 62
             7
100
AcDbCircle
 10
-46.30600773177235
 20
-1.59999999999889
 40
0.40000000000009
100
AcDbArc
 50
-90.0
 51
45.00000000011591
  0
ARC
  5
1D3
100
AcDbEntity
  8
1
  6
CONTINUOUS
 62
             7
100
AcDbCircle
 10
-49.12672784267835
 20
-1.59999999999889
 40
0.39999999999989
100
AcDbArc
 50
129.99999999988083
 51
-90.0
  0
ARC
  5
1D2
100
AcDbEntity
  8
1
  6
CONTINUOUS
 62
             7
100
AcDbCircle
 10
-42.9267278426783
 20
-1.59999999999889
 40
0.40000000000004
100
AcDbArc
 50
129.99999999990655
 51
-90.0
  0
ARC
  5
1D1
100
AcDbEntity
  8
1
  6
CONTINUOUS
 62
             7
100
AcDbCircle
 10
-40.10600773177231
 20
-1.59999999999889
 40
0.40000000000009
100
AcDbArc
 50
-90.0
 51
45.00000000011591
  0
ARC
  5
1D0
100
AcDbEntity
  8
1
  6
CONTINUOUS
 62
             7
100
AcDbCircle
 10
-39.16617195227042
 20
-0.84277950465309
 40
0.39999999999946
100
AcDbArc
 50
-134.99999999993096
 51
-4.99999999995663
  0
ARC
  5
1CF
100
AcDbEntity
  8
1
  6
CONTINUOUS
 62
             7
100
AcDbCircle
 10
-43.77523150821941
 20
-0.74549036560791
 40
0.3999999999993
100
AcDbArc
 50
174.9999999999784
 51
-50.00000000009337
  0
ARC
  5
1CE
100
AcDbEntity
  8
1
  6
CONTINUOUS
 62
             7
100
AcDbCircle
 10
-43.23382804773229
 20
5.44277950465232
 40
0.40000000000026
100
AcDbArc
 50
44.99999999995385
 51
175.0000000000577
  0
ARC
  5
1CD
100
AcDbEntity
  8
1
  6
CONTINUOUS
 62
             7
100
AcDbCircle
 10
-38.6247684917833
 20
5.34549036560713
 40
0.4000000000003
100
AcDbArc
 50
-5.00000000013982
 51
130.00000000009015
  0
ARC
  5
1CC
100
AcDbEntity
  8
1
  6
CONTINUOUS
 62
             7
100
AcDbCircle
 10
-42.29399226822835
 20
6.19999999999629
 40
0.39999999999964
100
AcDbArc
 50
90.0
 51
-134.99999999988557
  0
ARC
  5
1CB
100
AcDbEntity
  8
1
  6
CONTINUOUS
 62
             7
100
AcDbCircle
 10
-39.47327215732645
 20
6.19999999999629
 40
0.40000000000062
100
AcDbArc
 50
-49.99999999999437
 51
90.0
  0
ARC
  5
1CA
100
AcDbEntity
  8
1
  6
CONTINUOUS
 62
             7
100
AcDbCircle
 10
37.74999999999999
 20
4.99999999999977
 40
1.25
100
AcDbArc
 50
-90.0
 51
90.0
  0
ARC
  5
1C9
100
AcDbEntity
  8
1
  6
CONTINUOUS
 62
             7
100
AcDbCircle
 10
37.75
 20
-5.00000000000023
 40
1.25
100
AcDbArc
 50
-90.0
 51
90.0
  0
ARC
  5
1C8
100
AcDbEntity
  8
1
  6
CONTINUOUS
 62
             7
100
AcDbCircle
 10
37.74999999999999
 20
-0.00000000000023
 40
1.25
100
AcDbArc
 50
-90.0
 51
90.0
  0
ARC
  5
1C7
100
AcDbEntity
  8
1
  6
CONTINUOUS
 62
             7
100
AcDbCircle
 10
50.24999999999999
 20
4.99999999999977
 40
1.25
100
AcDbArc
 50
90.0
 51
-90.0
  0
ARC
  5
1C6
100
AcDbEntity
  8
1
  6
CONTINUOUS
 62
             7
100
AcDbCircle
 10
65.75
 20
4.99999999999977
 40
1.25
100
AcDbArc
 50
-90.0
 51
90.0
  0
ARC
  5
1C5
100
AcDbEntity
  8
1
  6
CONTINUOUS
 62
             7
100
AcDbCircle
 10
50.24999999999999
 20
-5.00000000000023
 40
1.25
100
AcDbArc
 50
90.0
 51
-90.0
  0
ARC
  5
1C4
100
AcDbEntity
  8
1
  6
CONTINUOUS
 62
             7
100
AcDbCircle
 10
65.75
 20
-5.00000000000023
 40
1.25
100
AcDbArc
 50
-90.0
 51
90.0
  0
ARC
  5
1C3
100
AcDbEntity
  8
1
  6
CONTINUOUS
 62
             7
100
AcDbCircle
 10
50.24999999999999
 20
-0.00000000000023
 40
1.25
100
AcDbArc
 50
90.0
 51
-90.0
  0
ARC
  5
1C2
100
AcDbEntity
  8
1
  6
CONTINUOUS
 62
             7
100
AcDbCircle
 10
65.75
 20
-0.00000000000023
 40
1.25
100
AcDbArc
 50
-90.0
 51
90.0
  0
ARC
  5
1C1
100
AcDbEntity
  8
1
  6
CONTINUOUS
 62
             7
100
AcDbCircle
 10
-73.7000000000005
 20
-10.5
 40
0.2999999999995
100
AcDbArc
 50
180.0
 51
-89.99999999991316
  0
ARC
  5
1C0
100
AcDbEntity
  8
1
  6
CONTINUOUS
 62
             7
100
AcDbCircle
 10
-73.7000000000005
 20
10.5
 40
0.29999999999996
100
AcDbArc
 50
89.99999999991316
 51
180.0
  0
ARC
  5
1BF
100
AcDbEntity
  8
1
  6
CONTINUOUS
 62
             7
100
AcDbCircle
 10
-30.30000000000053
 20
10.5
 40
0.2999999999995
100
AcDbArc
 50
0.0
 51
90.0
  0
ARC
  5
1BE
100
AcDbEntity
  8
1
  6
CONTINUOUS
 62
             7
100
AcDbCircle
 10
-30.30000000000008
 20
-10.5
 40
0.30000000000007
100
AcDbArc
 50
-90.0
 51
0.0
  0
ARC
  5
1BD
100
AcDbEntity
  8
1
  6
CONTINUOUS
 62
             7
100
AcDbCircle
 10
-7.60000000000048
 20
11.20058948508768
 40
0.50000000000003
100
AcDbArc
 50
93.00000000000534
 51
180.0
  0
ARC
  5
1BC
100
AcDbEntity
  8
1
  6
CONTINUOUS
 62
             7
100
AcDbCircle
 10
-7.60000000000048
 20
-11.20058948508768
 40
0.5
100
AcDbArc
 50
180.0
 51
-93.00000000000534
  0
ARC
  5
1BB
100
AcDbEntity
  8
1
  6
CONTINUOUS
 62
             7
100
AcDbCircle
 10
-75.45000000000005
 20
11.45000000000005
 40
0.54999999999995
100
AcDbArc
 50
90.0
 51
-179.99999999998744
  0
ARC
  5
1BA
100
AcDbEntity
  8
1
  6
CONTINUOUS
 62
             7
100
AcDbCircle
 10
-28.55000000000008
 20
11.45000000000005
 40
0.55000000000007
100
AcDbArc
 50
-0.00000000001258
 51
90.0
  0
ARC
  5
1B9
100
AcDbEntity
  8
1
  6
CONTINUOUS
 62
             7
100
AcDbCircle
 10
-28.55000000000008
 20
-11.45000000000005
 40
0.55000000000006
100
AcDbArc
 50
-90.0
 51
0.0
  0
ARC
  5
1B8
100
AcDbEntity
  8
1
  6
CONTINUOUS
 62
             7
100
AcDbCircle
 10
-75.45000000000005
 20
-11.45000000000005
 40
0.54999999999995
100
AcDbArc
 50
180.0
 51
-90.0
  0
ARC
  5
1B7
100
AcDbEntity
  8
1
  6
CONTINUOUS
 62
             7
100
AcDbCircle
 10
36.7125
 20
0.00000000000001
 40
45.8125
100
AcDbArc
 50
171.52721040188234
 51
-171.52721040188231
  0
ARC
  5
1B6
100
AcDbEntity
  8
1
  6
CONTINUOUS
 62
             7
100
AcDbCircle
 10
99.0
 20
9.8000000000002
 40
1.0
100
AcDbArc
 50
0.0
 51
90.0
  0
ARC
  5
1B5
100
AcDbEntity
  8
1
  6
CONTINUOUS
 62
             7
100
AcDbCircle
 10
99.0
 20
-9.80000000000017
 40
1.0
100
AcDbArc
 50
-90.0
 51
0.0
  0
ARC
  5
1B4
100
AcDbEntity
  8
1
  6
CONTINUOUS
 62
             7
100
AcDbCircle
 10
99.0
 20
9.8000000000002
 40
1.0
100
AcDbArc
 50
0.0
 51
90.0
  0
ARC
  5
1B3
100
AcDbEntity
  8
1
  6
CONTINUOUS
 62
             7
100
AcDbCircle
 10
99.0
 20
-9.80000000000017
 40
1.0
100
AcDbArc
 50
-90.0
 51
0.0
  0
ARC
  5
1B2
100
AcDbEntity
  8
1
  6
CONTINUOUS
 62
             7
100
AcDbCircle
 10
21.22805938922307
 20
16.40000000000001
 40
0.79999999999997
100
AcDbArc
 50
13.52507953819076
 51
90.0
  0
ARC
  5
1B1
100
AcDbEntity
  8
1
  6
CONTINUOUS
 62
             7
100
AcDbCircle
 10
15.20000000000001
 20
14.95
 40
7.0
100
AcDbArc
 50
-13.5250795381908
 51
13.52507953819082
  0
ARC
  5
1B0
100
AcDbEntity
  8
1
  6
CONTINUOUS
 62
             7
100
AcDbCircle
 10
21.22805938922307
 20
13.5
 40
0.8
100
AcDbArc
 50
-90.0
 51
-13.52507953819138
  0
ARC
  5
1AF
100
AcDbEntity
  8
1
  6
CONTINUOUS
 62
             7
100
AcDbCircle
 10
21.22805938922307
 20
-13.49999999999999
 40
0.79999999999997
100
AcDbArc
 50
13.52507953819126
 51
90.0
  0
ARC
  5
1AE
100
AcDbEntity
  8
1
  6
CONTINUOUS
 62
             7
100
AcDbCircle
 10
15.20000000000001
 20
-14.94999999999999
 40
7.0
100
AcDbArc
 50
-13.5250795381908
 51
13.5250795381908
  0
ARC
  5
1AD
100
AcDbEntity
  8
1
  6
CONTINUOUS
 62
             7
100
AcDbCircle
 10
21.22805938922307
 20
-16.39999999999999
 40
0.8
100
AcDbArc
 50
-90.0
 51
-13.52507953819126
  0
ARC
  5
1AC
100
AcDbEntity
  8
1
  6
CONTINUOUS
 62
             7
100
AcDbCircle
 10
17.00000000000001
 20
12.95
 40
0.5
100
AcDbArc
 50
-179.99999999999551
 51
-90.0
  0
ARC
  5
1AB
100
AcDbEntity
  8
1
  6
CONTINUOUS
 62
             7
100
AcDbCircle
 10
17.00000000000002
 20
-12.95000000000002
 40
0.50000000000003
100
AcDbArc
 50
90.0
 51
-179.99999999999653
  0
LINE
  5
1AA
100
AcDbEntity
  8
1
  6
CONTINUOUS
 62
             7
100
AcDbLine
 10
22.24999999999999
 20
3.74999999999977
 11
37.74999999999999
 21
3.74999999999977
  0
LINE
  5
1A9
100
AcDbEntity
  8
1
  6
CONTINUOUS
 62
             7
100
AcDbLine
 10
37.74999999999999
 20
6.24999999999977
 11
22.24999999999999
 21
6.24999999999977
  0
LINE
  5
1A8
100
AcDbEntity
  8
1
  6
CONTINUOUS
 62
             7
100
AcDbLine
 10
37.75
 20
-3.75000000000023
 11
22.24999999999999
 21
-3.75000000000023
  0
LINE
  5
1A7
100
AcDbEntity
  8
1
  6
CONTINUOUS
 62
             7
100
AcDbLine
 10
22.24999999999999
 20
-6.25000000000023
 11
37.75
 21
-6.25000000000023
  0
LINE
  5
1A6
100
AcDbEntity
  8
1
  6
CONTINUOUS
 62
             7
100
AcDbLine
 10
22.24999999999999
 20
-1.25000000000023
 11
37.74999999999999
 21
-1.25000000000023
  0
LINE
  5
1A5
100
AcDbEntity
  8
1
  6
CONTINUOUS
 62
             7
100
AcDbLine
 10
37.74999999999999
 20
1.24999999999977
 11
22.24999999999999
 21
1.24999999999977
  0
LINE
  5
1A4
100
AcDbEntity
  8
1
  6
CONTINUOUS
 62
             7
100
AcDbLine
 10
-71.00000000000028
 20
-5.0
 11
-71.00000000000028
 21
-7.0
  0
LINE
  5
1A3
100
AcDbEntity
  8
1
  6
CONTINUOUS
 62
             7
100
AcDbLine
 10
-34.00000000000028
 20
-4.0
 11
-70.00000000000028
 21
-4.0
  0
LINE
  5
1A2
100
AcDbEntity
  8
1
  6
CONTINUOUS
 62
             7
100
AcDbLine
 10
-33.00000000000028
 20
-7.0
 11
-33.00000000000028
 21
-5.0
  0
LINE
  5
1A1
100
AcDbEntity
  8
1
  6
CONTINUOUS
 62
             7
100
AcDbLine
 10
-70.00000000000028
 20
-8.0
 11
-34.00000000000028
 21
-8.0
  0
LINE
  5
1A0
100
AcDbEntity
  8
1
  6
CONTINUOUS
 62
             7
100
AcDbLine
 10
-72.50000000000028
 20
8.5
 11
-72.50000000000028
 21
-7.0
  0
LINE
  5
19F
100
AcDbEntity
  8
1
  6
CONTINUOUS
 62
             7
100
AcDbLine
 10
-31.50000000000028
 20
-7.0
 11
-31.50000000000028
 21
8.5
  0
LINE
  5
19E
100
AcDbEntity
  8
1
  6
CONTINUOUS
 62
             7
100
AcDbLine
 10
-71.00000000000028
 20
-8.5
 11
-33.00000000000028
 21
-8.5
  0
LINE
  5
19D
100
AcDbEntity
  8
1
  6
CONTINUOUS
 62
             7
100
AcDbLine
 10
-36.75000000000046
 20
0.15000000000003
 11
-35.35000000000048
 21
0.15000000000003
  0
LINE
  5
19C
100
AcDbEntity
  8
1
  6
CONTINUOUS
 62
             7
100
AcDbLine
 10
-35.35000000000048
 20
0.15000000000003
 11
-35.35000000000048
 21
1.05000000000001
  0
LINE
  5
19B
100
AcDbEntity
  8
1
  6
CONTINUOUS
 62
             7
100
AcDbLine
 10
-35.35000000000048
 20
1.05000000000001
 11
-36.75000000000046
 21
1.05000000000001
  0
LINE
  5
19A
100
AcDbEntity
  8
1
  6
CONTINUOUS
 62
             7
100
AcDbLine
 10
-36.75000000000046
 20
1.05000000000001
 11
-36.75000000000046
 21
0.15000000000003
  0
LINE
  5
199
100
AcDbEntity
  8
1
  6
CONTINUOUS
 62
             7
100
AcDbLine
 10
-36.75000000000046
 20
2.29999999999876
 11
-35.35000000000048
 21
2.29999999999876
  0
LINE
  5
198
100
AcDbEntity
  8
1
  6
CONTINUOUS
 62
             7
100
AcDbLine
 10
-35.35000000000048
 20
2.29999999999876
 11
-35.35000000000048
 21
3.19999999999874
  0
LINE
  5
197
100
AcDbEntity
  8
1
  6
CONTINUOUS
 62
             7
100
AcDbLine
 10
-35.35000000000048
 20
3.19999999999874
 11
-36.75000000000046
 21
3.19999999999874
  0
LINE
  5
196
100
AcDbEntity
  8
1
  6
CONTINUOUS
 62
             7
100
AcDbLine
 10
-36.75000000000046
 20
3.19999999999874
 11
-36.75000000000046
 21
2.29999999999876
  0
LINE
  5
195
100
AcDbEntity
  8
1
  6
CONTINUOUS
 62
             7
100
AcDbLine
 10
-36.75000000000046
 20
7.60000000000019
 11
-36.75000000000046
 21
6.70000000000022
  0
LINE
  5
194
100
AcDbEntity
  8
1
  6
CONTINUOUS
 62
             7
100
AcDbLine
 10
-35.35000000000048
 20
7.60000000000019
 11
-36.75000000000046
 21
7.60000000000019
  0
LINE
  5
193
100
AcDbEntity
  8
1
  6
CONTINUOUS
 62
             7
100
AcDbLine
 10
-35.35000000000048
 20
6.70000000000022
 11
-35.35000000000048
 21
7.60000000000019
  0
LINE
  5
192
100
AcDbEntity
  8
1
  6
CONTINUOUS
 62
             7
100
AcDbLine
 10
-36.75000000000046
 20
6.70000000000022
 11
-35.35000000000048
 21
6.70000000000022
  0
LINE
  5
191
100
AcDbEntity
  8
1
  6
CONTINUOUS
 62
             7
100
AcDbLine
 10
-69.25000000000023
 20
7.30000000000001
 11
-69.25000000000023
 21
-2.5
  0
LINE
  5
190
100
AcDbEntity
  8
1
  6
CONTINUOUS
 62
             7
100
AcDbLine
 10
-38.70000000000027
 20
8.30000000000001
 11
-68.25000000000023
 21
8.30000000000001
  0
LINE
  5
18F
100
AcDbEntity
  8
1
  6
CONTINUOUS
 62
             7
100
AcDbLine
 10
-37.70000000000027
 20
-2.5
 11
-37.70000000000027
 21
7.30000000000001
  0
LINE
  5
18E
100
AcDbEntity
  8
1
  6
CONTINUOUS
 62
             7
100
AcDbLine
 10
-68.25000000000023
 20
-3.5
 11
-38.70000000000027
 21
-3.5
  0
LINE
  5
18D
100
AcDbEntity
  8
1
  6
CONTINUOUS
 62
             7
100
AcDbLine
 10
-67.00000000000028
 20
-6.80000000000001
 11
-65.50000000000028
 21
-5.01236961110868
  0
LINE
  5
18C
100
AcDbEntity
  8
1
  6
CONTINUOUS
 62
             7
100
AcDbLine
 10
-65.50000000000028
 20
-5.01236961110868
 11
-64.00000000000028
 21
-6.80000000000001
  0
LINE
  5
18B
100
AcDbEntity
  8
1
  6
CONTINUOUS
 62
             7
100
AcDbLine
 10
-64.00000000000028
 20
-6.80000000000001
 11
-67.00000000000028
 21
-6.80000000000001
  0
LINE
  5
18A
100
AcDbEntity
  8
1
  6
CONTINUOUS
 62
             7
100
AcDbLine
 10
-58.00000000000028
 20
-5.19999999999999
 11
-55.00000000000028
 21
-5.19999999999999
  0
LINE
  5
189
100
AcDbEntity
  8
1
  6
CONTINUOUS
 62
             7
100
AcDbLine
 10
-56.50000000000028
 20
-6.98763038889132
 11
-58.00000000000028
 21
-5.19999999999999
  0
LINE
  5
188
100
AcDbEntity
  8
1
  6
CONTINUOUS
 62
             7
100
AcDbLine
 10
-55.00000000000028
 20
-5.19999999999999
 11
-56.50000000000028
 21
-6.98763038889132
  0
LINE
  5
187
100
AcDbEntity
  8
1
  6
CONTINUOUS
 62
             7
100
AcDbLine
 10
-48.7000000000003
 20
-4.69999999999999
 11
-46.3000000000003
 21
-4.69999999999999
  0
LINE
  5
186
100
AcDbEntity
  8
1
  6
CONTINUOUS
 62
             7
100
AcDbLine
 10
-48.7000000000003
 20
-7.30000000000001
 11
-48.10000000000031
 21
-7.30000000000001
  0
LINE
  5
185
100
AcDbEntity
  8
1
  6
CONTINUOUS
 62
             7
100
AcDbLine
 10
-48.10000000000031
 20
-7.30000000000001
 11
-47.8000000000003
 21
-7.0
  0
LINE
  5
184
100
AcDbEntity
  8
1
  6
CONTINUOUS
 62
             7
100
AcDbLine
 10
-47.8000000000003
 20
-7.0
 11
-48.00000000000028
 21
-7.0
  0
LINE
  5
183
100
AcDbEntity
  8
1
  6
CONTINUOUS
 62
             7
100
AcDbLine
 10
-48.00000000000028
 20
-5.0
 11
-47.00000000000028
 21
-5.0
  0
LINE
  5
182
100
AcDbEntity
  8
1
  6
CONTINUOUS
 62
             7
100
AcDbLine
 10
-47.00000000000028
 20
-7.0
 11
-47.2000000000003
 21
-7.0
  0
LINE
  5
181
100
AcDbEntity
  8
1
  6
CONTINUOUS
 62
             7
100
AcDbLine
 10
-47.2000000000003
 20
-7.0
 11
-47.2000000000003
 21
-6.69999999999999
  0
LINE
  5
180
100
AcDbEntity
  8
1
  6
CONTINUOUS
 62
             7
100
AcDbLine
 10
-47.2000000000003
 20
-6.69999999999999
 11
-47.8000000000003
 21
-7.30000000000001
  0
LINE
  5
17F
100
AcDbEntity
  8
1
  6
CONTINUOUS
 62
             7
100
AcDbLine
 10
-47.8000000000003
 20
-7.30000000000001
 11
-46.3000000000003
 21
-7.30000000000001
  0
LINE
  5
17E
100
AcDbEntity
  8
1
  6
CONTINUOUS
 62
             7
100
AcDbLine
 10
-38.65000000000029
 20
-6.80000000000001
 11
-38.35000000000031
 21
-6.80000000000001
  0
LINE
  5
17D
100
AcDbEntity
  8
1
  6
CONTINUOUS
 62
             7
100
AcDbLine
 10
-38.35000000000031
 20
-6.80000000000001
 11
-38.35000000000031
 21
-5.19999999999999
  0
LINE
  5
17C
100
AcDbEntity
  8
1
  6
CONTINUOUS
 62
             7
100
AcDbLine
 10
-38.35000000000031
 20
-5.19999999999999
 11
-38.65000000000029
 21
-5.19999999999999
  0
LINE
  5
17B
100
AcDbEntity
  8
1
  6
CONTINUOUS
 62
             7
100
AcDbLine
 10
-38.65000000000029
 20
-5.19999999999999
 11
-38.65000000000029
 21
-6.80000000000001
  0
LINE
  5
17A
100
AcDbEntity
  8
1
  6
CONTINUOUS
 62
             7
100
AcDbLine
 10
-52.8000000000003
 20
-5.0
 11
-51.20000000000027
 21
-5.0
  0
LINE
  5
179
100
AcDbEntity
  8
1
  6
CONTINUOUS
 62
             7
100
AcDbLine
 10
-51.20000000000027
 20
-5.39999999999998
 11
-52.8000000000003
 21
-5.39999999999998
  0
LINE
  5
178
100
AcDbEntity
  8
1
  6
CONTINUOUS
 62
             7
100
AcDbLine
 10
-52.8000000000003
 20
-5.80000000000001
 11
-51.20000000000027
 21
-5.80000000000001
  0
LINE
  5
177
100
AcDbEntity
  8
1
  6
CONTINUOUS
 62
             7
100
AcDbLine
 10
-51.20000000000027
 20
-6.19999999999999
 11
-52.8000000000003
 21
-6.19999999999999
  0
LINE
  5
176
100
AcDbEntity
  8
1
  6
CONTINUOUS
 62
             7
100
AcDbLine
 10
-51.20000000000027
 20
-7.0
 11
-52.8000000000003
 21
-7.0
  0
LINE
  5
175
100
AcDbEntity
  8
1
  6
CONTINUOUS
 62
             7
100
AcDbLine
 10
-52.8000000000003
 20
-6.60000000000002
 11
-51.20000000000027
 21
-6.60000000000002
  0
LINE
  5
174
100
AcDbEntity
  8
1
  6
CONTINUOUS
 62
             7
100
AcDbLine
 10
-61.8000000000003
 20
-6.60000000000002
 11
-60.20000000000027
 21
-6.60000000000002
  0
LINE
  5
173
100
AcDbEntity
  8
1
  6
CONTINUOUS
 62
             7
100
AcDbLine
 10
-60.20000000000027
 20
-7.0
 11
-61.8000000000003
 21
-7.0
  0
LINE
  5
172
100
AcDbEntity
  8
1
  6
CONTINUOUS
 62
             7
100
AcDbLine
 10
-60.20000000000027
 20
-6.19999999999999
 11
-61.8000000000003
 21
-6.19999999999999
  0
LINE
  5
171
100
AcDbEntity
  8
1
  6
CONTINUOUS
 62
             7
100
AcDbLine
 10
-61.8000000000003
 20
-5.80000000000001
 11
-60.20000000000027
 21
-5.80000000000001
  0
LINE
  5
170
100
AcDbEntity
  8
1
  6
CONTINUOUS
 62
             7
100
AcDbLine
 10
-60.20000000000027
 20
-5.39999999999998
 11
-61.8000000000003
 21
-5.39999999999998
  0
LINE
  5
16F
100
AcDbEntity
  8
1
  6
CONTINUOUS
 62
             7
100
AcDbLine
 10
-61.8000000000003
 20
-5.0
 11
-60.20000000000027
 21
-5.0
  0
LINE
  5
16E
100
AcDbEntity
  8
1
  6
CONTINUOUS
 62
             7
100
AcDbLine
 10
-43.8000000000003
 20
-6.60000000000002
 11
-42.20000000000027
 21
-6.60000000000002
  0
LINE
  5
16D
100
AcDbEntity
  8
1
  6
CONTINUOUS
 62
             7
100
AcDbLine
 10
-42.20000000000027
 20
-7.0
 11
-43.8000000000003
 21
-7.0
  0
LINE
  5
16C
100
AcDbEntity
  8
1
  6
CONTINUOUS
 62
             7
100
AcDbLine
 10
-42.20000000000027
 20
-6.19999999999999
 11
-43.8000000000003
 21
-6.19999999999999
  0
LINE
  5
16B
100
AcDbEntity
  8
1
  6
CONTINUOUS
 62
             7
100
AcDbLine
 10
-43.8000000000003
 20
-5.80000000000001
 11
-42.20000000000027
 21
-5.80000000000001
  0
LINE
  5
16A
100
AcDbEntity
  8
1
  6
CONTINUOUS
 62
             7
100
AcDbLine
 10
-42.20000000000027
 20
-5.39999999999998
 11
-43.8000000000003
 21
-5.39999999999998
  0
LINE
  5
169
100
AcDbEntity
  8
1
  6
CONTINUOUS
 62
             7
100
AcDbLine
 10
-43.8000000000003
 20
-5.0
 11
-42.20000000000027
 21
-5.0
  0
LINE
  5
168
100
AcDbEntity
  8
1
  6
CONTINUOUS
 62
             7
100
AcDbLine
 10
-71.00000000000028
 20
10.0
 11
-33.00000000000028
 21
10.0
  0
LINE
  5
167
100
AcDbEntity
  8
1
  6
CONTINUOUS
 62
             7
100
AcDbLine
 10
-67.72672784267826
 20
-1.99999999999898
 11
-64.9060077317734
 21
-1.99999999999898
  0
LINE
  5
166
100
AcDbEntity
  8
1
  6
CONTINUOUS
 62
             7
100
AcDbLine
 10
-64.62316501929837
 20
-1.31715728752386
 11
-65.34032230682334
 21
-0.5999999999998
  0
LINE
  5
165
100
AcDbEntity
  8
1
  6
CONTINUOUS
 62
             7
100
AcDbLine
 10
-63.56769407303437
 20
-0.87764180175179
 11
-63.3730068184903
 21
1.3476437003593
  0
LINE
  5
164
100
AcDbEntity
  8
1
  6
CONTINUOUS
 62
             7
100
AcDbLine
 10
-68.97370938745627
 20
-0.71062806850875
 11
-68.79221796260737
 21
1.36382841000807
  0
LINE
  5
163
100
AcDbEntity
  8
1
  6
CONTINUOUS
 62
             7
100
AcDbLine
 10
-67.75098533525835
 20
5.7256222171269
 11
-67.06525620447934
 21
5.03989308634812
  0
LINE
  5
162
100
AcDbEntity
  8
1
  6
CONTINUOUS
 62
             7
100
AcDbLine
 10
-63.02629061254726
 20
5.31062806850707
 11
-63.20778203739525
 21
3.23617158999025
  0
LINE
  5
161
100
AcDbEntity
  8
1
  6
CONTINUOUS
 62
             7
100
AcDbLine
 10
-67.09399226822831
 20
6.59999999999593
 11
-64.2732721573264
 21
6.59999999999593
  0
LINE
  5
160
100
AcDbEntity
  8
1
  6
CONTINUOUS
 62
             7
100
AcDbLine
 10
-64.01615711345227
 20
5.89358222274825
 11
-64.84273621917538
 21
5.1999999999972
  0
LINE
  5
15F
100
AcDbEntity
  8
1
  6
CONTINUOUS
 62
             7
100
AcDbLine
 10
-64.84273621917538
 20
5.1999999999972
 11
-66.65967769317837
 21
5.1999999999972
  0
LINE
  5
15E
100
AcDbEntity
  8
1
  6
CONTINUOUS
 62
             7
100
AcDbLine
 10
-66.65967769317837
 20
5.1999999999972
 11
-67.37683498070243
 21
5.91715728752126
  0
LINE
  5
15D
100
AcDbEntity
  8
1
  6
CONTINUOUS
 62
             7
100
AcDbLine
 10
-67.06525620447934
 20
5.03989308634812
 11
-67.2262246120593
 21
3.20001576861216
  0
LINE
  5
15C
100
AcDbEntity
  8
1
  6
CONTINUOUS
 62
             7
100
AcDbLine
 10
-67.2262246120593
 20
3.20001576861216
 11
-67.95942471474433
 21
2.58478783287103
  0
LINE
  5
15B
100
AcDbEntity
  8
1
  6
CONTINUOUS
 62
             7
100
AcDbLine
 10
-67.95942471474433
 20
2.58478783287103
 11
-68.62699318151232
 21
3.25235629963902
  0
LINE
  5
15A
100
AcDbEntity
  8
1
  6
CONTINUOUS
 62
             7
100
AcDbLine
 10
-68.62699318151232
 20
3.25235629963902
 11
-68.43230592696938
 21
5.47764180175102
  0
LINE
  5
159
100
AcDbEntity
  8
1
  6
CONTINUOUS
 62
             7
100
AcDbLine
 10
-64.45881619925041
 20
4.99998423138516
 11
-63.6818835356583
 21
5.65190814285427
  0
LINE
  5
158
100
AcDbEntity
  8
1
  6
CONTINUOUS
 62
             7
100
AcDbLine
 10
-63.20778203739525
 20
3.23617158999025
 11
-64.01691016756837
 21
2.55723247438721
  0
LINE
  5
157
100
AcDbEntity
  8
1
  6
CONTINUOUS
 62
             7
100
AcDbLine
 10
-64.01691016756837
 20
2.55723247438721
 11
-64.61978460683037
 21
3.1601069136492
  0
LINE
  5
156
100
AcDbEntity
  8
1
  6
CONTINUOUS
 62
             7
100
AcDbLine
 10
-64.61978460683037
 20
3.1601069136492
 11
-64.45881619925041
 21
4.99998423138516
  0
LINE
  5
155
100
AcDbEntity
  8
1
  6
CONTINUOUS
 62
             7
100
AcDbLine
 10
-66.84230459213433
 20
3.00000000000011
 11
-65.02536311813134
 21
3.00000000000011
  0
LINE
  5
154
100
AcDbEntity
  8
1
  6
CONTINUOUS
 62
             7
100
AcDbLine
 10
-65.02536311813134
 20
3.00000000000011
 11
-64.32449841094541
 21
2.29913529281396
  0
LINE
  5
153
100
AcDbEntity
  8
1
  6
CONTINUOUS
 62
             7
100
AcDbLine
 10
-64.32449841094541
 20
2.29913529281396
 11
-65.15769540786624
 21
1.60000000000002
  0
LINE
  5
152
100
AcDbEntity
  8
1
  6
CONTINUOUS
 62
             7
100
AcDbLine
 10
-65.15769540786624
 20
1.60000000000002
 11
-66.97463688187332
 21
1.60000000000002
  0
LINE
  5
151
100
AcDbEntity
  8
1
  6
CONTINUOUS
 62
             7
100
AcDbLine
 10
-66.97463688187332
 20
1.60000000000002
 11
-67.67653210695045
 21
2.3000000000003
  0
LINE
  5
150
100
AcDbEntity
  8
1
  6
CONTINUOUS
 62
             7
100
AcDbLine
 10
-67.67653210695045
 20
2.3000000000003
 11
-66.84230459213433
 21
3.00000000000011
  0
LINE
  5
14F
100
AcDbEntity
  8
1
  6
CONTINUOUS
 62
             7
100
AcDbLine
 10
-67.98308983243425
 20
2.04276752561202
 11
-67.38021539317225
 21
1.43989308634912
  0
LINE
  5
14E
100
AcDbEntity
  8
1
  6
CONTINUOUS
 62
             7
100
AcDbLine
 10
-67.38021539317225
 20
1.43989308634912
 11
-67.54118380075244
 21
-0.39998423138593
  0
LINE
  5
14D
100
AcDbEntity
  8
1
  6
CONTINUOUS
 62
             7
100
AcDbLine
 10
-67.54118380075244
 20
-0.39998423138593
 11
-68.31811646434545
 21
-1.05190814285595
  0
LINE
  5
14C
100
AcDbEntity
  8
1
  6
CONTINUOUS
 62
             7
100
AcDbLine
 10
-68.79221796260737
 20
1.36382841000807
 11
-67.98308983243425
 21
2.04276752561202
  0
LINE
  5
14B
100
AcDbEntity
  8
1
  6
CONTINUOUS
 62
             7
100
AcDbLine
 10
-64.04057528525942
 20
2.0152121671282
 11
-64.77377538794332
 21
1.39998423138616
  0
LINE
  5
14A
100
AcDbEntity
  8
1
  6
CONTINUOUS
 62
             7
100
AcDbLine
 10
-64.77377538794332
 20
1.39998423138616
 11
-64.93474379552328
 21
-0.4398930863498
  0
LINE
  5
149
100
AcDbEntity
  8
1
  6
CONTINUOUS
 62
             7
100
AcDbLine
 10
-64.93474379552328
 20
-0.4398930863498
 11
-64.2490146647454
 21
-1.12562221712767
  0
LINE
  5
148
100
AcDbEntity
  8
1
  6
CONTINUOUS
 62
             7
100
AcDbLine
 10
-63.3730068184903
 20
1.3476437003593
 11
-64.04057528525942
 21
2.0152121671282
  0
LINE
  5
147
100
AcDbEntity
  8
1
  6
CONTINUOUS
 62
             7
100
AcDbLine
 10
-65.34032230682334
 20
-0.5999999999998
 11
-67.15726378082928
 21
-0.5999999999998
  0
LINE
  5
146
100
AcDbEntity
  8
1
  6
CONTINUOUS
 62
             7
100
AcDbLine
 10
-67.15726378082928
 20
-0.5999999999998
 11
-67.9838428865524
 21
-1.29358222275084
  0
LINE
  5
145
100
AcDbEntity
  8
1
  6
CONTINUOUS
 62
             7
100
AcDbLine
 10
-60.95726378082946
 20
-0.5999999999998
 11
-61.78384288655235
 21
-1.29358222275084
  0
LINE
  5
144
100
AcDbEntity
  8
1
  6
CONTINUOUS
 62
             7
100
AcDbLine
 10
-59.14032230682238
 20
-0.5999999999998
 11
-60.95726378082946
 21
-0.5999999999998
  0
LINE
  5
143
100
AcDbEntity
  8
1
  6
CONTINUOUS
 62
             7
100
AcDbLine
 10
-57.17300681849025
 20
1.3476437003593
 11
-57.84057528525938
 21
2.0152121671282
  0
LINE
  5
142
100
AcDbEntity
  8
1
  6
CONTINUOUS
 62
             7
100
AcDbLine
 10
-58.73474379552346
 20
-0.4398930863498
 11
-58.04901466474536
 21
-1.12562221712767
  0
LINE
  5
141
100
AcDbEntity
  8
1
  6
CONTINUOUS
 62
             7
100
AcDbLine
 10
-58.57377538794327
 20
1.39998423138616
 11
-58.73474379552346
 21
-0.4398930863498
  0
LINE
  5
140
100
AcDbEntity
  8
1
  6
CONTINUOUS
 62
             7
100
AcDbLine
 10
-57.84057528525938
 20
2.0152121671282
 11
-58.57377538794327
 21
1.39998423138616
  0
LINE
  5
13F
100
AcDbEntity
  8
1
  6
CONTINUOUS
 62
             7
100
AcDbLine
 10
-62.59221796260732
 20
1.36382841000807
 11
-61.78308983243443
 21
2.04276752561202
  0
LINE
  5
13E
100
AcDbEntity
  8
1
  6
CONTINUOUS
 62
             7
100
AcDbLine
 10
-61.34118380075239
 20
-0.39998423138593
 11
-62.11811646434541
 21
-1.05190814285595
  0
LINE
  5
13D
100
AcDbEntity
  8
1
  6
CONTINUOUS
 62
             7
100
AcDbLine
 10
-61.18021539317243
 20
1.43989308634912
 11
-61.34118380075239
 21
-0.39998423138593
  0
LINE
  5
13C
100
AcDbEntity
  8
1
  6
CONTINUOUS
 62
             7
100
AcDbLine
 10
-61.78308983243443
 20
2.04276752561202
 11
-61.18021539317243
 21
1.43989308634912
  0
LINE
  5
13B
100
AcDbEntity
  8
1
  6
CONTINUOUS
 62
             7
100
AcDbLine
 10
-61.4765321069504
 20
2.3000000000003
 11
-60.64230459213428
 21
3.00000000000011
  0
LINE
  5
13A
100
AcDbEntity
  8
1
  6
CONTINUOUS
 62
             7
100
AcDbLine
 10
-60.77463688187328
 20
1.60000000000002
 11
-61.4765321069504
 21
2.3000000000003
  0
LINE
  5
139
100
AcDbEntity
  8
1
  6
CONTINUOUS
 62
             7
100
AcDbLine
 10
-58.95769540786642
 20
1.60000000000002
 11
-60.77463688187328
 21
1.60000000000002
  0
LINE
  5
138
100
AcDbEntity
  8
1
  6
CONTINUOUS
 62
             7
100
AcDbLine
 10
-58.12449841094536
 20
2.29913529281396
 11
-58.95769540786642
 21
1.60000000000002
  0
LINE
  5
137
100
AcDbEntity
  8
1
  6
CONTINUOUS
 62
             7
100
AcDbLine
 10
-58.82536311813129
 20
3.00000000000011
 11
-58.12449841094536
 21
2.29913529281396
  0
LINE
  5
136
100
AcDbEntity
  8
1
  6
CONTINUOUS
 62
             7
100
AcDbLine
 10
-60.64230459213428
 20
3.00000000000011
 11
-58.82536311813129
 21
3.00000000000011
  0
LINE
  5
135
100
AcDbEntity
  8
1
  6
CONTINUOUS
 62
             7
100
AcDbLine
 10
-58.41978460683032
 20
3.1601069136492
 11
-58.25881619925036
 21
4.99998423138516
  0
LINE
  5
134
100
AcDbEntity
  8
1
  6
CONTINUOUS
 62
             7
100
AcDbLine
 10
-57.81691016756832
 20
2.55723247438721
 11
-58.41978460683032
 21
3.1601069136492
  0
LINE
  5
133
100
AcDbEntity
  8
1
  6
CONTINUOUS
 62
             7
100
AcDbLine
 10
-57.00778203739543
 20
3.23617158999025
 11
-57.81691016756832
 21
2.55723247438721
  0
LINE
  5
132
100
AcDbEntity
  8
1
  6
CONTINUOUS
 62
             7
100
AcDbLine
 10
-58.25881619925036
 20
4.99998423138516
 11
-57.48188353565826
 21
5.65190814285427
  0
LINE
  5
131
100
AcDbEntity
  8
1
  6
CONTINUOUS
 62
             7
100
AcDbLine
 10
-62.42699318151227
 20
3.25235629963902
 11
-62.23230592696933
 21
5.47764180175102
  0
LINE
  5
130
100
AcDbEntity
  8
1
  6
CONTINUOUS
 62
             7
100
AcDbLine
 10
-61.75942471474338
 20
2.58478783287103
 11
-62.42699318151227
 21
3.25235629963902
  0
LINE
  5
12F
100
AcDbEntity
  8
1
  6
CONTINUOUS
 62
             7
100
AcDbLine
 10
-61.02622461205925
 20
3.20001576861216
 11
-61.75942471474338
 21
2.58478783287103
  0
LINE
  5
12E
100
AcDbEntity
  8
1
  6
CONTINUOUS
 62
             7
100
AcDbLine
 10
-60.86525620447929
 20
5.03989308634812
 11
-61.02622461205925
 21
3.20001576861216
  0
LINE
  5
12D
100
AcDbEntity
  8
1
  6
CONTINUOUS
 62
             7
100
AcDbLine
 10
-60.45967769317832
 20
5.1999999999972
 11
-61.17683498070238
 21
5.91715728752126
  0
LINE
  5
12C
100
AcDbEntity
  8
1
  6
CONTINUOUS
 62
             7
100
AcDbLine
 10
-58.64273621917533
 20
5.1999999999972
 11
-60.45967769317832
 21
5.1999999999972
  0
LINE
  5
12B
100
AcDbEntity
  8
1
  6
CONTINUOUS
 62
             7
100
AcDbLine
 10
-57.81615711345245
 20
5.89358222274825
 11
-58.64273621917533
 21
5.1999999999972
  0
LINE
  5
12A
100
AcDbEntity
  8
1
  6
CONTINUOUS
 62
             7
100
AcDbLine
 10
-60.89399226822826
 20
6.59999999999593
 11
-58.07327215732636
 21
6.59999999999593
  0
LINE
  5
129
100
AcDbEntity
  8
1
  6
CONTINUOUS
 62
             7
100
AcDbLine
 10
-56.82629061254744
 20
5.31062806850707
 11
-57.00778203739543
 21
3.23617158999025
  0
LINE
  5
128
100
AcDbEntity
  8
1
  6
CONTINUOUS
 62
             7
100
AcDbLine
 10
-61.55098533525739
 20
5.7256222171269
 11
-60.86525620447929
 21
5.03989308634812
  0
LINE
  5
127
100
AcDbEntity
  8
1
  6
CONTINUOUS
 62
             7
100
AcDbLine
 10
-62.77370938745645
 20
-0.71062806850875
 11
-62.59221796260732
 21
1.36382841000807
  0
LINE
  5
126
100
AcDbEntity
  8
1
  6
CONTINUOUS
 62
             7
100
AcDbLine
 10
-57.36769407303433
 20
-0.87764180175179
 11
-57.17300681849025
 21
1.3476437003593
  0
LINE
  5
125
100
AcDbEntity
  8
1
  6
CONTINUOUS
 62
             7
100
AcDbLine
 10
-58.42316501929832
 20
-1.31715728752386
 11
-59.14032230682238
 21
-0.5999999999998
  0
LINE
  5
124
100
AcDbEntity
  8
1
  6
CONTINUOUS
 62
             7
100
AcDbLine
 10
-61.52672784267844
 20
-1.99999999999898
 11
-58.70600773177335
 21
-1.99999999999898
  0
LINE
  5
123
100
AcDbEntity
  8
1
  6
CONTINUOUS
 62
             7
100
AcDbLine
 10
-55.3267278426784
 20
-1.99999999999898
 11
-52.5060077317724
 21
-1.99999999999898
  0
LINE
  5
122
100
AcDbEntity
  8
1
  6
CONTINUOUS
 62
             7
100
AcDbLine
 10
-52.22316501929828
 20
-1.31715728752386
 11
-52.94032230682234
 21
-0.5999999999998
  0
LINE
  5
121
100
AcDbEntity
  8
1
  6
CONTINUOUS
 62
             7
100
AcDbLine
 10
-51.16769407303428
 20
-0.87764180175179
 11
-50.97300681849043
 21
1.3476437003593
  0
LINE
  5
120
100
AcDbEntity
  8
1
  6
CONTINUOUS
 62
             7
100
AcDbLine
 10
-56.5737093874564
 20
-0.71062806850875
 11
-56.39221796260728
 21
1.36382841000807
  0
LINE
  5
11F
100
AcDbEntity
  8
1
  6
CONTINUOUS
 62
             7
100
AcDbLine
 10
-55.35098533525735
 20
5.7256222171269
 11
-54.66525620447925
 21
5.03989308634812
  0
LINE
  5
11E
100
AcDbEntity
  8
1
  6
CONTINUOUS
 62
             7
100
AcDbLine
 10
-50.62629061254739
 20
5.31062806850707
 11
-50.80778203739538
 21
3.23617158999025
  0
LINE
  5
11D
100
AcDbEntity
  8
1
  6
CONTINUOUS
 62
             7
100
AcDbLine
 10
-54.69399226822844
 20
6.59999999999593
 11
-51.87327215732631
 21
6.59999999999593
  0
LINE
  5
11C
100
AcDbEntity
  8
1
  6
CONTINUOUS
 62
             7
100
AcDbLine
 10
-51.6161571134524
 20
5.89358222274825
 11
-52.44273621917529
 21
5.1999999999972
  0
LINE
  5
11B
100
AcDbEntity
  8
1
  6
CONTINUOUS
 62
             7
100
AcDbLine
 10
-52.44273621917529
 20
5.1999999999972
 11
-54.25967769317828
 21
5.1999999999972
  0
LINE
  5
11A
100
AcDbEntity
  8
1
  6
CONTINUOUS
 62
             7
100
AcDbLine
 10
-54.25967769317828
 20
5.1999999999972
 11
-54.97683498070234
 21
5.91715728752126
  0
LINE
  5
119
100
AcDbEntity
  8
1
  6
CONTINUOUS
 62
             7
100
AcDbLine
 10
-54.66525620447925
 20
5.03989308634812
 11
-54.82622461205943
 21
3.20001576861216
  0
LINE
  5
118
100
AcDbEntity
  8
1
  6
CONTINUOUS
 62
             7
100
AcDbLine
 10
-54.82622461205943
 20
3.20001576861216
 11
-55.55942471474333
 21
2.58478783287103
  0
LINE
  5
117
100
AcDbEntity
  8
1
  6
CONTINUOUS
 62
             7
100
AcDbLine
 10
-55.55942471474333
 20
2.58478783287103
 11
-56.22699318151246
 21
3.25235629963902
  0
LINE
  5
116
100
AcDbEntity
  8
1
  6
CONTINUOUS
 62
             7
100
AcDbLine
 10
-56.22699318151246
 20
3.25235629963902
 11
-56.03230592696929
 21
5.47764180175102
  0
LINE
  5
115
100
AcDbEntity
  8
1
  6
CONTINUOUS
 62
             7
100
AcDbLine
 10
-52.05881619925032
 20
4.99998423138516
 11
-51.28188353565844
 21
5.65190814285427
  0
LINE
  5
114
100
AcDbEntity
  8
1
  6
CONTINUOUS
 62
             7
100
AcDbLine
 10
-50.80778203739538
 20
3.23617158999025
 11
-51.61691016756828
 21
2.55723247438721
  0
LINE
  5
113
100
AcDbEntity
  8
1
  6
CONTINUOUS
 62
             7
100
AcDbLine
 10
-51.61691016756828
 20
2.55723247438721
 11
-52.21978460683027
 21
3.1601069136492
  0
LINE
  5
112
100
AcDbEntity
  8
1
  6
CONTINUOUS
 62
             7
100
AcDbLine
 10
-52.21978460683027
 20
3.1601069136492
 11
-52.05881619925032
 21
4.99998423138516
  0
LINE
  5
111
100
AcDbEntity
  8
1
  6
CONTINUOUS
 62
             7
100
AcDbLine
 10
-54.44230459213446
 20
3.00000000000011
 11
-52.62536311813125
 21
3.00000000000011
  0
LINE
  5
110
100
AcDbEntity
  8
1
  6
CONTINUOUS
 62
             7
100
AcDbLine
 10
-52.62536311813125
 20
3.00000000000011
 11
-51.92449841094532
 21
2.29913529281396
  0
LINE
  5
10F
100
AcDbEntity
  8
1
  6
CONTINUOUS
 62
             7
100
AcDbLine
 10
-51.92449841094532
 20
2.29913529281396
 11
-52.75769540786638
 21
1.60000000000002
  0
LINE
  5
10E
100
AcDbEntity
  8
1
  6
CONTINUOUS
 62
             7
100
AcDbLine
 10
-52.75769540786638
 20
1.60000000000002
 11
-54.57463688187346
 21
1.60000000000002
  0
LINE
  5
10D
100
AcDbEntity
  8
1
  6
CONTINUOUS
 62
             7
100
AcDbLine
 10
-54.57463688187346
 20
1.60000000000002
 11
-55.27653210695036
 21
2.3000000000003
  0
LINE
  5
10C
100
AcDbEntity
  8
1
  6
CONTINUOUS
 62
             7
100
AcDbLine
 10
-55.27653210695036
 20
2.3000000000003
 11
-54.44230459213446
 21
3.00000000000011
  0
LINE
  5
10B
100
AcDbEntity
  8
1
  6
CONTINUOUS
 62
             7
100
AcDbLine
 10
-55.58308983243438
 20
2.04276752561202
 11
-54.98021539317239
 21
1.43989308634912
  0
LINE
  5
10A
100
AcDbEntity
  8
1
  6
CONTINUOUS
 62
             7
100
AcDbLine
 10
-54.98021539317239
 20
1.43989308634912
 11
-55.14118380075234
 21
-0.39998423138593
  0
LINE
  5
109
100
AcDbEntity
  8
1
  6
CONTINUOUS
 62
             7
100
AcDbLine
 10
-55.14118380075234
 20
-0.39998423138593
 11
-55.91811646434536
 21
-1.05190814285595
  0
LINE
  5
108
100
AcDbEntity
  8
1
  6
CONTINUOUS
 62
             7
100
AcDbLine
 10
-56.39221796260728
 20
1.36382841000807
 11
-55.58308983243438
 21
2.04276752561202
  0
LINE
  5
107
100
AcDbEntity
  8
1
  6
CONTINUOUS
 62
             7
100
AcDbLine
 10
-51.64057528525933
 20
2.0152121671282
 11
-52.37377538794345
 21
1.39998423138616
  0
LINE
  5
106
100
AcDbEntity
  8
1
  6
CONTINUOUS
 62
             7
100
AcDbLine
 10
-52.37377538794345
 20
1.39998423138616
 11
-52.53474379552341
 21
-0.4398930863498
  0
LINE
  5
105
100
AcDbEntity
  8
1
  6
CONTINUOUS
 62
             7
100
AcDbLine
 10
-52.53474379552341
 20
-0.4398930863498
 11
-51.8490146647444
 21
-1.12562221712767
  0
LINE
  5
104
100
AcDbEntity
  8
1
  6
CONTINUOUS
 62
             7
100
AcDbLine
 10
-50.97300681849043
 20
1.3476437003593
 11
-51.64057528525933
 21
2.0152121671282
  0
LINE
  5
103
100
AcDbEntity
  8
1
  6
CONTINUOUS
 62
             7
100
AcDbLine
 10
-52.94032230682234
 20
-0.5999999999998
 11
-54.75726378082942
 21
-0.5999999999998
  0
LINE
  5
102
100
AcDbEntity
  8
1
  6
CONTINUOUS
 62
             7
100
AcDbLine
 10
-54.75726378082942
 20
-0.5999999999998
 11
-55.5838428865523
 21
-1.29358222275084
  0
LINE
  5
101
100
AcDbEntity
  8
1
  6
CONTINUOUS
 62
             7
100
AcDbLine
 10
-48.55726378082937
 20
-0.5999999999998
 11
-49.38384288655226
 21
-1.29358222275084
  0
LINE
  5
100
100
AcDbEntity
  8
1
  6
CONTINUOUS
 62
             7
100
AcDbLine
 10
-46.74032230682229
 20
-0.5999999999998
 11
-48.55726378082937
 21
-0.5999999999998
  0
LINE
  5
FF
100
AcDbEntity
  8
1
  6
CONTINUOUS
 62
             7
100
AcDbLine
 10
-44.77300681849039
 20
1.3476437003593
 11
-45.44057528525838
 21
2.0152121671282
  0
LINE
  5
FE
100
AcDbEntity
  8
1
  6
CONTINUOUS
 62
             7
100
AcDbLine
 10
-46.33474379552337
 20
-0.4398930863498
 11
-45.64901466474436
 21
-1.12562221712767
  0
LINE
  5
FD
100
AcDbEntity
  8
1
  6
CONTINUOUS
 62
             7
100
AcDbLine
 10
-46.17377538794341
 20
1.39998423138616
 11
-46.33474379552337
 21
-0.4398930863498
  0
LINE
  5
FC
100
AcDbEntity
  8
1
  6
CONTINUOUS
 62
             7
100
AcDbLine
 10
-45.44057528525838
 20
2.0152121671282
 11
-46.17377538794341
 21
1.39998423138616
  0
LINE
  5
FB
100
AcDbEntity
  8
1
  6
CONTINUOUS
 62
             7
100
AcDbLine
 10
-50.19221796260746
 20
1.36382841000807
 11
-49.38308983243434
 21
2.04276752561202
  0
LINE
  5
FA
100
AcDbEntity
  8
1
  6
CONTINUOUS
 62
             7
100
AcDbLine
 10
-48.9411838007523
 20
-0.39998423138593
 11
-49.71811646434531
 21
-1.05190814285595
  0
LINE
  5
F9
100
AcDbEntity
  8
1
  6
CONTINUOUS
 62
             7
100
AcDbLine
 10
-48.78021539317234
 20
1.43989308634912
 11
-48.9411838007523
 21
-0.39998423138593
  0
LINE
  5
F8
100
AcDbEntity
  8
1
  6
CONTINUOUS
 62
             7
100
AcDbLine
 10
-49.38308983243434
 20
2.04276752561202
 11
-48.78021539317234
 21
1.43989308634912
  0
LINE
  5
F7
100
AcDbEntity
  8
1
  6
CONTINUOUS
 62
             7
100
AcDbLine
 10
-49.07653210695031
 20
2.3000000000003
 11
-48.24230459213442
 21
3.00000000000011
  0
LINE
  5
F6
100
AcDbEntity
  8
1
  6
CONTINUOUS
 62
             7
100
AcDbLine
 10
-48.37463688187341
 20
1.60000000000002
 11
-49.07653210695031
 21
2.3000000000003
  0
LINE
  5
F5
100
AcDbEntity
  8
1
  6
CONTINUOUS
 62
             7
100
AcDbLine
 10
-46.55769540786633
 20
1.60000000000002
 11
-48.37463688187341
 21
1.60000000000002
  0
LINE
  5
F4
100
AcDbEntity
  8
1
  6
CONTINUOUS
 62
             7
100
AcDbLine
 10
-45.72449841094527
 20
2.29913529281396
 11
-46.55769540786633
 21
1.60000000000002
  0
LINE
  5
F3
100
AcDbEntity
  8
1
  6
CONTINUOUS
 62
             7
100
AcDbLine
 10
-46.42536311813143
 20
3.00000000000011
 11
-45.72449841094527
 21
2.29913529281396
  0
LINE
  5
F2
100
AcDbEntity
  8
1
  6
CONTINUOUS
 62
             7
100
AcDbLine
 10
-48.24230459213442
 20
3.00000000000011
 11
-46.42536311813143
 21
3.00000000000011
  0
LINE
  5
F1
100
AcDbEntity
  8
1
  6
CONTINUOUS
 62
             7
100
AcDbLine
 10
-46.01978460683046
 20
3.1601069136492
 11
-45.85881619925027
 21
4.99998423138516
  0
LINE
  5
F0
100
AcDbEntity
  8
1
  6
CONTINUOUS
 62
             7
100
AcDbLine
 10
-45.41691016756846
 20
2.55723247438721
 11
-46.01978460683046
 21
3.1601069136492
  0
LINE
  5
EF
100
AcDbEntity
  8
1
  6
CONTINUOUS
 62
             7
100
AcDbLine
 10
-44.60778203739534
 20
3.23617158999025
 11
-45.41691016756846
 21
2.55723247438721
  0
LINE
  5
EE
100
AcDbEntity
  8
1
  6
CONTINUOUS
 62
             7
100
AcDbLine
 10
-45.85881619925027
 20
4.99998423138516
 11
-45.08188353565839
 21
5.65190814285427
  0
LINE
  5
ED
100
AcDbEntity
  8
1
  6
CONTINUOUS
 62
             7
100
AcDbLine
 10
-50.02699318151241
 20
3.25235629963902
 11
-49.83230592696947
 21
5.47764180175102
  0
LINE
  5
EC
100
AcDbEntity
  8
1
  6
CONTINUOUS
 62
             7
100
AcDbLine
 10
-49.35942471474328
 20
2.58478783287103
 11
-50.02699318151241
 21
3.25235629963902
  0
LINE
  5
EB
100
AcDbEntity
  8
1
  6
CONTINUOUS
 62
             7
100
AcDbLine
 10
-48.62622461205939
 20
3.20001576861216
 11
-49.35942471474328
 21
2.58478783287103
  0
LINE
  5
EA
100
AcDbEntity
  8
1
  6
CONTINUOUS
 62
             7
100
AcDbLine
 10
-48.46525620447943
 20
5.03989308634812
 11
-48.62622461205939
 21
3.20001576861216
  0
LINE
  5
E9
100
AcDbEntity
  8
1
  6
CONTINUOUS
 62
             7
100
AcDbLine
 10
-48.05967769317846
 20
5.1999999999972
 11
-48.77683498070229
 21
5.91715728752126
  0
LINE
  5
E8
100
AcDbEntity
  8
1
  6
CONTINUOUS
 62
             7
100
AcDbLine
 10
-46.24273621917547
 20
5.1999999999972
 11
-48.05967769317846
 21
5.1999999999972
  0
LINE
  5
E7
100
AcDbEntity
  8
1
  6
CONTINUOUS
 62
             7
100
AcDbLine
 10
-45.41615711345236
 20
5.89358222274825
 11
-46.24273621917547
 21
5.1999999999972
  0
LINE
  5
E6
100
AcDbEntity
  8
1
  6
CONTINUOUS
 62
             7
100
AcDbLine
 10
-48.4939922682284
 20
6.59999999999593
 11
-45.67327215732627
 21
6.59999999999593
  0
LINE
  5
E5
100
AcDbEntity
  8
1
  6
CONTINUOUS
 62
             7
100
AcDbLine
 10
-44.42629061254735
 20
5.31062806850707
 11
-44.60778203739534
 21
3.23617158999025
  0
LINE
  5
E4
100
AcDbEntity
  8
1
  6
CONTINUOUS
 62
             7
100
AcDbLine
 10
-49.1509853352573
 20
5.7256222171269
 11
-48.46525620447943
 21
5.03989308634812
  0
LINE
  5
E3
100
AcDbEntity
  8
1
  6
CONTINUOUS
 62
             7
100
AcDbLine
 10
-50.37370938745636
 20
-0.71062806850875
 11
-50.19221796260746
 21
1.36382841000807
  0
LINE
  5
E2
100
AcDbEntity
  8
1
  6
CONTINUOUS
 62
             7
100
AcDbLine
 10
-44.96769407303447
 20
-0.87764180175179
 11
-44.77300681849039
 21
1.3476437003593
  0
LINE
  5
E1
100
AcDbEntity
  8
1
  6
CONTINUOUS
 62
             7
100
AcDbLine
 10
-46.02316501929846
 20
-1.31715728752386
 11
-46.74032230682229
 21
-0.5999999999998
  0
LINE
  5
E0
100
AcDbEntity
  8
1
  6
CONTINUOUS
 62
             7
100
AcDbLine
 10
-49.12672784267835
 20
-1.99999999999898
 11
-46.30600773177235
 21
-1.99999999999898
  0
LINE
  5
DF
100
AcDbEntity
  8
1
  6
CONTINUOUS
 62
             7
100
AcDbLine
 10
-42.9267278426783
 20
-1.99999999999898
 11
-40.10600773177231
 21
-1.99999999999898
  0
LINE
  5
DE
100
AcDbEntity
  8
1
  6
CONTINUOUS
 62
             7
100
AcDbLine
 10
-39.82316501929842
 20
-1.31715728752386
 11
-40.54032230682225
 21
-0.5999999999998
  0
LINE
  5
DD
100
AcDbEntity
  8
1
  6
CONTINUOUS
 62
             7
100
AcDbLine
 10
-38.76769407303442
 20
-0.87764180175179
 11
-38.57300681849034
 21
1.3476437003593
  0
LINE
  5
DC
100
AcDbEntity
  8
1
  6
CONTINUOUS
 62
             7
100
AcDbLine
 10
-44.1737093874554
 20
-0.71062806850875
 11
-43.99221796260741
 21
1.36382841000807
  0
LINE
  5
DB
100
AcDbEntity
  8
1
  6
CONTINUOUS
 62
             7
100
AcDbLine
 10
-42.95098533525726
 20
5.7256222171269
 11
-42.26525620447939
 21
5.03989308634812
  0
LINE
  5
DA
100
AcDbEntity
  8
1
  6
CONTINUOUS
 62
             7
100
AcDbLine
 10
-38.22629061254639
 20
5.31062806850707
 11
-38.40778203739529
 21
3.23617158999025
  0
LINE
  5
D9
100
AcDbEntity
  8
1
  6
CONTINUOUS
 62
             7
100
AcDbLine
 10
-42.29399226822835
 20
6.59999999999593
 11
-39.47327215732645
 21
6.59999999999593
  0
LINE
  5
D8
100
AcDbEntity
  8
1
  6
CONTINUOUS
 62
             7
100
AcDbLine
 10
-39.2161571134514
 20
5.89358222274825
 11
-40.04273621917542
 21
5.1999999999972
  0
LINE
  5
D7
100
AcDbEntity
  8
1
  6
CONTINUOUS
 62
             7
100
AcDbLine
 10
-40.04273621917542
 20
5.1999999999972
 11
-41.85967769317841
 21
5.1999999999972
  0
LINE
  5
D6
100
AcDbEntity
  8
1
  6
CONTINUOUS
 62
             7
100
AcDbLine
 10
-41.85967769317841
 20
5.1999999999972
 11
-42.57683498070225
 21
5.91715728752126
  0
LINE
  5
D5
100
AcDbEntity
  8
1
  6
CONTINUOUS
 62
             7
100
AcDbLine
 10
-42.26525620447939
 20
5.03989308634812
 11
-42.42622461205934
 21
3.20001576861216
  0
LINE
  5
D4
100
AcDbEntity
  8
1
  6
CONTINUOUS
 62
             7
100
AcDbLine
 10
-42.42622461205934
 20
3.20001576861216
 11
-43.15942471474347
 21
2.58478783287103
  0
LINE
  5
D3
100
AcDbEntity
  8
1
  6
CONTINUOUS
 62
             7
100
AcDbLine
 10
-43.15942471474347
 20
2.58478783287103
 11
-43.82699318151236
 21
3.25235629963902
  0
LINE
  5
D2
100
AcDbEntity
  8
1
  6
CONTINUOUS
 62
             7
100
AcDbLine
 10
-43.82699318151236
 20
3.25235629963902
 11
-43.63230592696942
 21
5.47764180175102
  0
LINE
  5
D1
100
AcDbEntity
  8
1
  6
CONTINUOUS
 62
             7
100
AcDbLine
 10
-39.65881619925045
 20
4.99998423138516
 11
-38.88188353565835
 21
5.65190814285427
  0
LINE
  5
D0
100
AcDbEntity
  8
1
  6
CONTINUOUS
 62
             7
100
AcDbLine
 10
-38.40778203739529
 20
3.23617158999025
 11
-39.21691016756842
 21
2.55723247438721
  0
LINE
  5
CF
100
AcDbEntity
  8
1
  6
CONTINUOUS
 62
             7
100
AcDbLine
 10
-39.21691016756842
 20
2.55723247438721
 11
-39.81978460683041
 21
3.1601069136492
  0
LINE
  5
CE
100
AcDbEntity
  8
1
  6
CONTINUOUS
 62
             7
100
AcDbLine
 10
-39.81978460683041
 20
3.1601069136492
 11
-39.65881619925045
 21
4.99998423138516
  0
LINE
  5
CD
100
AcDbEntity
  8
1
  6
CONTINUOUS
 62
             7
100
AcDbLine
 10
-42.04230459213437
 20
3.00000000000011
 11
-40.22536311813138
 21
3.00000000000011
  0
LINE
  5
CC
100
AcDbEntity
  8
1
  6
CONTINUOUS
 62
             7
100
AcDbLine
 10
-40.22536311813138
 20
3.00000000000011
 11
-39.52449841094546
 21
2.29913529281396
  0
LINE
  5
CB
100
AcDbEntity
  8
1
  6
CONTINUOUS
 62
             7
100
AcDbLine
 10
-39.52449841094546
 20
2.29913529281396
 11
-40.35769540786538
 21
1.60000000000002
  0
LINE
  5
CA
100
AcDbEntity
  8
1
  6
CONTINUOUS
 62
             7
100
AcDbLine
 10
-40.35769540786538
 20
1.60000000000002
 11
-42.17463688187337
 21
1.60000000000002
  0
LINE
  5
C9
100
AcDbEntity
  8
1
  6
CONTINUOUS
 62
             7
100
AcDbLine
 10
-42.17463688187337
 20
1.60000000000002
 11
-42.87653210695027
 21
2.3000000000003
  0
LINE
  5
C8
100
AcDbEntity
  8
1
  6
CONTINUOUS
 62
             7
100
AcDbLine
 10
-42.87653210695027
 20
2.3000000000003
 11
-42.04230459213437
 21
3.00000000000011
  0
LINE
  5
C7
100
AcDbEntity
  8
1
  6
CONTINUOUS
 62
             7
100
AcDbLine
 10
-43.18308983243429
 20
2.04276752561202
 11
-42.5802153931723
 21
1.43989308634912
  0
LINE
  5
C6
100
AcDbEntity
  8
1
  6
CONTINUOUS
 62
             7
100
AcDbLine
 10
-42.5802153931723
 20
1.43989308634912
 11
-42.74118380075225
 21
-0.39998423138593
  0
LINE
  5
C5
100
AcDbEntity
  8
1
  6
CONTINUOUS
 62
             7
100
AcDbLine
 10
-42.74118380075225
 20
-0.39998423138593
 11
-43.51811646434527
 21
-1.05190814285595
  0
LINE
  5
C4
100
AcDbEntity
  8
1
  6
CONTINUOUS
 62
             7
100
AcDbLine
 10
-43.99221796260741
 20
1.36382841000807
 11
-43.18308983243429
 21
2.04276752561202
  0
LINE
  5
C3
100
AcDbEntity
  8
1
  6
CONTINUOUS
 62
             7
100
AcDbLine
 10
-39.24057528525833
 20
2.0152121671282
 11
-39.97377538794336
 21
1.39998423138616
  0
LINE
  5
C2
100
AcDbEntity
  8
1
  6
CONTINUOUS
 62
             7
100
AcDbLine
 10
-39.97377538794336
 20
1.39998423138616
 11
-40.13474379552332
 21
-0.4398930863498
  0
LINE
  5
C1
100
AcDbEntity
  8
1
  6
CONTINUOUS
 62
             7
100
AcDbLine
 10
-40.13474379552332
 20
-0.4398930863498
 11
-39.44901466474431
 21
-1.12562221712767
  0
LINE
  5
C0
100
AcDbEntity
  8
1
  6
CONTINUOUS
 62
             7
100
AcDbLine
 10
-38.57300681849034
 20
1.3476437003593
 11
-39.24057528525833
 21
2.0152121671282
  0
LINE
  5
BF
100
AcDbEntity
  8
1
  6
CONTINUOUS
 62
             7
100
AcDbLine
 10
-40.54032230682225
 20
-0.5999999999998
 11
-42.35726378082933
 21
-0.5999999999998
  0
LINE
  5
BE
100
AcDbEntity
  8
1
  6
CONTINUOUS
 62
             7
100
AcDbLine
 10
-42.35726378082933
 20
-0.5999999999998
 11
-43.18384288655244
 21
-1.29358222275084
  0
LINE
  5
BD
100
AcDbEntity
  8
1
  6
CONTINUOUS
 62
             7
100
AcDbLine
 10
-63.50000000000028
 20
7.0500000000003
 11
-63.50000000000028
 21
8.30000000000001
  0
LINE
  5
BC
100
AcDbEntity
  8
1
  6
CONTINUOUS
 62
             7
100
AcDbLine
 10
-61.50000000000028
 20
7.0500000000003
 11
-61.50000000000028
 21
8.30000000000001
  0
LINE
  5
BB
100
AcDbEntity
  8
1
  6
CONTINUOUS
 62
             7
100
AcDbLine
 10
-57.30000000000047
 20
7.0500000000003
 11
-57.30000000000047
 21
8.30000000000001
  0
LINE
  5
BA
100
AcDbEntity
  8
1
  6
CONTINUOUS
 62
             7
100
AcDbLine
 10
-55.30000000000047
 20
7.0500000000003
 11
-55.30000000000047
 21
8.30000000000001
  0
LINE
  5
B9
100
AcDbEntity
  8
1
  6
CONTINUOUS
 62
             7
100
AcDbLine
 10
-51.10000000000042
 20
7.0500000000003
 11
-51.10000000000042
 21
8.30000000000001
  0
LINE
  5
B8
100
AcDbEntity
  8
1
  6
CONTINUOUS
 62
             7
100
AcDbLine
 10
-49.10000000000042
 20
7.0500000000003
 11
-49.10000000000042
 21
8.30000000000001
  0
LINE
  5
B7
100
AcDbEntity
  8
1
  6
CONTINUOUS
 62
             7
100
AcDbLine
 10
-44.90000000000038
 20
7.0500000000003
 11
-44.90000000000038
 21
8.30000000000001
  0
LINE
  5
B6
100
AcDbEntity
  8
1
  6
CONTINUOUS
 62
             7
100
AcDbLine
 10
-42.90000000000038
 20
7.0500000000003
 11
-42.90000000000038
 21
8.30000000000001
  0
LINE
  5
B5
100
AcDbEntity
  8
1
  6
CONTINUOUS
 62
             7
100
AcDbLine
 10
-63.50000000000028
 20
7.0500000000003
 11
-61.50000000000028
 21
7.0500000000003
  0
LINE
  5
B4
100
AcDbEntity
  8
1
  6
CONTINUOUS
 62
             7
100
AcDbLine
 10
-57.30000000000047
 20
7.0500000000003
 11
-55.30000000000047
 21
7.0500000000003
  0
LINE
  5
B3
100
AcDbEntity
  8
1
  6
CONTINUOUS
 62
             7
100
AcDbLine
 10
-51.10000000000042
 20
7.0500000000003
 11
-49.10000000000042
 21
7.0500000000003
  0
LINE
  5
B2
100
AcDbEntity
  8
1
  6
CONTINUOUS
 62
             7
100
AcDbLine
 10
-44.90000000000038
 20
7.0500000000003
 11
-42.90000000000038
 21
7.0500000000003
  0
LINE
  5
B1
100
AcDbEntity
  8
1
  6
CONTINUOUS
 62
             7
100
AcDbLine
 10
45.5
 20
-10.80000000000018
 11
16.50000000000001
 21
-10.80000000000013
  0
LINE
  5
B0
100
AcDbEntity
  8
1
  6
CONTINUOUS
 62
             7
100
AcDbLine
 10
50.24999999999999
 20
3.74999999999977
 11
65.75
 21
3.74999999999977
  0
LINE
  5
AF
100
AcDbEntity
  8
1
  6
CONTINUOUS
 62
             7
100
AcDbLine
 10
65.75
 20
6.24999999999977
 11
50.24999999999999
 21
6.24999999999977
  0
LINE
  5
AE
100
AcDbEntity
  8
1
  6
CONTINUOUS
 62
             7
100
AcDbLine
 10
65.75
 20
-3.75000000000023
 11
50.24999999999999
 21
-3.75000000000023
  0
LINE
  5
AD
100
AcDbEntity
  8
1
  6
CONTINUOUS
 62
             7
100
AcDbLine
 10
50.24999999999999
 20
-6.25000000000023
 11
65.75
 21
-6.25000000000023
  0
LINE
  5
AC
100
AcDbEntity
  8
1
  6
CONTINUOUS
 62
             7
100
AcDbLine
 10
50.24999999999999
 20
-1.25000000000023
 11
65.75
 21
-1.25000000000023
  0
LINE
  5
AB
100
AcDbEntity
  8
1
  6
CONTINUOUS
 62
             7
100
AcDbLine
 10
65.75
 20
1.24999999999977
 11
50.24999999999999
 21
1.24999999999977
  0
LINE
  5
AA
100
AcDbEntity
  8
1
  6
CONTINUOUS
 62
             7
100
AcDbLine
 10
-1.5
 20
-12.00000000000023
 11
-1.50000000000001
 21
-8.50000000000023
  0
LINE
  5
A9
100
AcDbEntity
  8
1
  6
CONTINUOUS
 62
             7
100
AcDbLine
 10
-1.50000000000001
 20
11.99999999999977
 11
-1.50000000000001
 21
10.3499999999998
  0
LINE
  5
A8
100
AcDbEntity
  8
1
  6
CONTINUOUS
 62
             7
100
AcDbLine
 10
90.5
 20
2.49999999999977
 11
90.5
 21
-2.50000000000023
  0
LINE
  5
A7
100
AcDbEntity
  8
1
  6
CONTINUOUS
 62
             7
100
AcDbLine
 10
90.5
 20
-2.50000000000023
 11
86.5
 21
-2.50000000000023
  0
LINE
  5
A6
100
AcDbEntity
  8
1
  6
CONTINUOUS
 62
             7
100
AcDbLine
 10
86.5
 20
-2.50000000000023
 11
86.5
 21
2.49999999999977
  0
LINE
  5
A5
100
AcDbEntity
  8
1
  6
CONTINUOUS
 62
             7
100
AcDbLine
 10
86.5
 20
2.49999999999977
 11
90.5
 21
2.49999999999977
  0
LINE
  5
A4
100
AcDbEntity
  8
1
  6
CONTINUOUS
 62
             7
100
AcDbLine
 10
47.47760825243403
 20
10.80000000000018
 11
48.99999999999999
 21
10.80000000000018
  0
LINE
  5
A3
100
AcDbEntity
  8
1
  6
CONTINUOUS
 62
             7
100
AcDbLine
 10
1.49999999999999
 20
10.80000000000018
 11
6.5
 21
10.80000000000018
  0
LINE
  5
A2
100
AcDbEntity
  8
1
  6
CONTINUOUS
 62
             7
100
AcDbLine
 10
45.5
 20
-10.80000000000018
 11
99.0
 21
-10.80000000000017
  0
LINE
  5
A1
100
AcDbEntity
  8
1
  6
CONTINUOUS
 62
             7
100
AcDbLine
 10
49.0
 20
-10.80000000000018
 11
45.5
 21
-10.80000000000018
  0
LINE
  5
A0
100
AcDbEntity
  8
1
  6
CONTINUOUS
 62
             7
100
AcDbLine
 10
-1.50000000000001
 20
11.99999999999977
 11
-0.00000000000001
 21
11.99999999999977
  0
LINE
  5
9F
100
AcDbEntity
  8
1
  6
CONTINUOUS
 62
             7
100
AcDbLine
 10
-1.50000000000001
 20
8.49999999999977
 11
-1.50000000000001
 21
10.3499999999998
  0
LINE
  5
9E
100
AcDbEntity
  8
1
  6
CONTINUOUS
 62
             7
100
AcDbLine
 10
-1.50000000000001
 20
8.49999999999977
 11
-1.50000000000001
 21
10.3499999999998
  0
LINE
  5
9D
100
AcDbEntity
  8
1
  6
CONTINUOUS
 62
             7
100
AcDbLine
 10
-1.5
 20
-12.00000000000023
 11
0.0
 21
-12.00000000000023
  0
LINE
  5
9C
100
AcDbEntity
  8
1
  6
CONTINUOUS
 62
             7
100
AcDbLine
 10
92.0
 20
0.99999999999977
 11
93.0
 21
0.99999999999977
  0
LINE
  5
9B
100
AcDbEntity
  8
1
  6
CONTINUOUS
 62
             7
100
AcDbLine
 10
92.0
 20
-1.00000000000023
 11
92.0
 21
0.99999999999977
  0
LINE
  5
9A
100
AcDbEntity
  8
1
  6
CONTINUOUS
 62
             7
100
AcDbLine
 10
93.0
 20
-1.00000000000023
 11
92.0
 21
-1.00000000000023
  0
LINE
  5
99
100
AcDbEntity
  8
1
  6
CONTINUOUS
 62
             7
100
AcDbLine
 10
93.0
 20
0.99999999999977
 11
93.0
 21
-1.00000000000023
  0
LINE
  5
98
100
AcDbEntity
  8
1
  6
CONTINUOUS
 62
             7
100
AcDbLine
 10
92.0
 20
2.49999999999977
 11
93.0
 21
2.49999999999977
  0
LINE
  5
97
100
AcDbEntity
  8
1
  6
CONTINUOUS
 62
             7
100
AcDbLine
 10
92.0
 20
-2.50000000000023
 11
93.0
 21
-2.50000000000023
  0
LINE
  5
96
100
AcDbEntity
  8
1
  6
CONTINUOUS
 62
             7
100
AcDbLine
 10
86.39999999999964
 20
8.30000000000018
 11
93.0
 21
8.29999999999984
  0
LINE
  5
95
100
AcDbEntity
  8
1
  6
CONTINUOUS
 62
             7
100
AcDbLine
 10
86.39999999999964
 20
7.30000000000018
 11
86.39999999999964
 21
8.30000000000018
  0
LINE
  5
94
100
AcDbEntity
  8
1
  6
CONTINUOUS
 62
             7
100
AcDbLine
 10
92.0
 20
7.29999999999984
 11
86.39999999999964
 21
7.30000000000018
  0
LINE
  5
93
100
AcDbEntity
  8
1
  6
CONTINUOUS
 62
             7
100
AcDbLine
 10
92.0
 20
2.49999999999977
 11
92.0
 21
7.29999999999984
  0
LINE
  5
92
100
AcDbEntity
  8
1
  6
CONTINUOUS
 62
             7
100
AcDbLine
 10
93.0
 20
-8.30000000000018
 11
93.0
 21
-2.50000000000023
  0
LINE
  5
91
100
AcDbEntity
  8
1
  6
CONTINUOUS
 62
             7
100
AcDbLine
 10
86.39999999999964
 20
-8.3000000000003
 11
93.0
 21
-8.30000000000018
  0
LINE
  5
90
100
AcDbEntity
  8
1
  6
CONTINUOUS
 62
             7
100
AcDbLine
 10
86.39999999999964
 20
-7.29999999999996
 11
86.39999999999964
 21
-8.3000000000003
  0
LINE
  5
8F
100
AcDbEntity
  8
1
  6
CONTINUOUS
 62
             7
100
AcDbLine
 10
92.0
 20
-7.3000000000003
 11
86.39999999999964
 21
-7.29999999999996
  0
LINE
  5
8E
100
AcDbEntity
  8
1
  6
CONTINUOUS
 62
             7
100
AcDbLine
 10
92.0
 20
-2.50000000000023
 11
92.0
 21
-7.3000000000003
  0
LINE
  5
8D
100
AcDbEntity
  8
1
  6
CONTINUOUS
 62
             7
100
AcDbLine
 10
47.47760825243403
 20
10.80000000000018
 11
99.0
 21
10.8000000000002
  0
LINE
  5
8C
100
AcDbEntity
  8
1
  6
CONTINUOUS
 62
             7
100
AcDbLine
 10
84.5
 20
10.80000000000018
 11
99.0
 21
10.8000000000002
  0
LINE
  5
8B
100
AcDbEntity
  8
1
  6
CONTINUOUS
 62
             7
100
AcDbLine
 10
93.0
 20
8.29999999999984
 11
93.0
 21
2.49999999999977
  0
LINE
  5
8A
100
AcDbEntity
  8
1
  6
CONTINUOUS
 62
             7
100
AcDbLine
 10
16.50000000000001
 20
10.80000000000018
 11
47.47760825243403
 21
10.80000000000018
  0
LINE
  5
89
100
AcDbEntity
  8
1
  6
CONTINUOUS
 62
             7
100
AcDbLine
 10
6.50000000000001
 20
-10.8000000000001
 11
1.49999999999999
 21
-10.80000000000007
  0
LINE
  5
88
100
AcDbEntity
  8
1
  6
CONTINUOUS
 62
             7
100
AcDbLine
 10
-74.0
 20
-10.5
 11
-74.0
 21
10.5
  0
LINE
  5
87
100
AcDbEntity
  8
1
  6
CONTINUOUS
 62
             7
100
AcDbLine
 10
-73.70000000000005
 20
10.79999999999996
 11
-30.30000000000053
 21
10.79999999999996
  0
LINE
  5
86
100
AcDbEntity
  8
1
  6
CONTINUOUS
 62
             7
100
AcDbLine
 10
-30.00000000000103
 20
10.5
 11
-30.00000000000058
 21
-10.5
  0
LINE
  5
85
100
AcDbEntity
  8
1
  6
CONTINUOUS
 62
             7
100
AcDbLine
 10
-30.30000000000008
 20
-10.80000000000007
 11
-73.70000000000005
 21
-10.80000000000007
  0
LINE
  5
84
100
AcDbEntity
  8
1
  6
CONTINUOUS
 62
             7
100
AcDbLine
 10
-7.626167978122
 20
11.69990425246499
 11
-1.89999999999998
 21
12.0
  0
LINE
  5
83
100
AcDbEntity
  8
1
  6
CONTINUOUS
 62
             7
100
AcDbLine
 10
-8.10000000000048
 20
-8.0
 11
-1.89999999999998
 21
-9.0
  0
LINE
  5
82
100
AcDbEntity
  8
1
  6
CONTINUOUS
 62
             7
100
AcDbLine
 10
-8.10000000000048
 20
8.0
 11
-1.89999999999998
 21
9.0
  0
LINE
  5
81
100
AcDbEntity
  8
1
  6
CONTINUOUS
 62
             7
100
AcDbLine
 10
-1.89999999999998
 20
-12.0
 11
-7.626167978122
 21
-11.69990425246499
  0
LINE
  5
80
100
AcDbEntity
  8
1
  6
CONTINUOUS
 62
             7
100
AcDbLine
 10
-6.5
 20
-2.5
 11
-6.2000000000005
 21
-2.5
  0
LINE
  5
7F
100
AcDbEntity
  8
1
  6
CONTINUOUS
 62
             7
100
AcDbLine
 10
-5.2000000000005
 20
2.5
 11
-6.2000000000005
 21
2.5
  0
LINE
  5
7E
100
AcDbEntity
  8
1
  6
CONTINUOUS
 62
             7
100
AcDbLine
 10
-6.2000000000005
 20
-2.5
 11
-6.2000000000005
 21
2.5
  0
LINE
  5
7D
100
AcDbEntity
  8
1
  6
CONTINUOUS
 62
             7
100
AcDbLine
 10
-6.2000000000005
 20
-2.5
 11
-5.2000000000005
 21
-2.5
  0
LINE
  5
7C
100
AcDbEntity
  8
1
  6
CONTINUOUS
 62
             7
100
AcDbLine
 10
-5.2000000000005
 20
-2.5
 11
-5.2000000000005
 21
2.5
  0
LINE
  5
7B
100
AcDbEntity
  8
1
  6
CONTINUOUS
 62
             7
100
AcDbLine
 10
-6.2000000000005
 20
2.5
 11
-6.5
 21
2.5
  0
LINE
  5
7A
100
AcDbEntity
  8
1
  6
CONTINUOUS
 62
             7
100
AcDbLine
 10
-6.5
 20
-2.5
 11
-6.5
 21
2.5
  0
LINE
  5
79
100
AcDbEntity
  8
1
  6
CONTINUOUS
 62
             7
100
AcDbLine
 10
-75.45000000000005
 20
12.0
 11
-28.55000000000008
 21
12.0
  0
LINE
  5
78
100
AcDbEntity
  8
1
  6
CONTINUOUS
 62
             7
100
AcDbLine
 10
-75.45000000000005
 20
-12.0
 11
-28.55000000000008
 21
-12.00000000000011
  0
LINE
  5
77
100
AcDbEntity
  8
1
  6
CONTINUOUS
 62
             7
100
AcDbLine
 10
-29.20000000000005
 20
8.0
 11
-28.00000000000001
 21
8.0
  0
LINE
  5
76
100
AcDbEntity
  8
1
  6
CONTINUOUS
 62
             7
100
AcDbLine
 10
-29.20000000000005
 20
-8.0
 11
-28.00000000000001
 21
-8.0
  0
LINE
  5
75
100
AcDbEntity
  8
1
  6
CONTINUOUS
 62
             7
100
AcDbLine
 10
-74.80000000000007
 20
8.0
 11
-76.0
 21
8.0
  0
LINE
  5
74
100
AcDbEntity
  8
1
  6
CONTINUOUS
 62
             7
100
AcDbLine
 10
-74.80000000000007
 20
-8.0
 11
-76.0
 21
-8.0
  0
LINE
  5
73
100
AcDbEntity
  8
1
  6
CONTINUOUS
 62
             7
100
AcDbLine
 10
-29.20000000000005
 20
-8.0
 11
-29.20000000000005
 21
8.0
  0
LINE
  5
72
100
AcDbEntity
  8
1
  6
CONTINUOUS
 62
             7
100
AcDbLine
 10
-74.80000000000007
 20
-8.0
 11
-74.80000000000007
 21
8.0
  0
LINE
  5
71
100
AcDbEntity
  8
1
  6
CONTINUOUS
 62
             7
100
AcDbLine
 10
-1.89999999999998
 20
-12.0
 11
-1.89999999999998
 21
-8.43076923076957
  0
LINE
  5
70
100
AcDbEntity
  8
1
  6
CONTINUOUS
 62
             7
100
AcDbLine
 10
-1.89999999999998
 20
12.0
 11
-1.89999999999998
 21
8.43076923076912
  0
LINE
  5
6F
100
AcDbEntity
  8
1
  6
CONTINUOUS
 62
             7
100
AcDbLine
 10
-76.0
 20
11.44999999999993
 11
-76.0
 21
-11.45000000000005
  0
LINE
  5
6E
100
AcDbEntity
  8
1
  6
CONTINUOUS
 62
             7
100
AcDbLine
 10
-28.00000000000001
 20
-11.45000000000005
 11
-28.00000000000001
 21
11.44999999999993
  0
LINE
  5
6D
100
AcDbEntity
  8
1
  6
CONTINUOUS
 62
             7
100
AcDbLine
 10
-0.00000000000001
 20
11.99999999999977
 11
0.0
 21
-12.00000000000023
  0
LINE
  5
6C
100
AcDbEntity
  8
1
  6
CONTINUOUS
 62
             7
100
AcDbLine
 10
1.49999999999999
 20
12.00000000000018
 11
1.49999999999999
 21
-12.00000000000007
  0
LINE
  5
6B
100
AcDbEntity
  8
1
  6
CONTINUOUS
 62
             7
100
AcDbLine
 10
1.49999999999999
 20
12.00000000000018
 11
-0.00000000000001
 21
11.99999999999977
  0
LINE
  5
6A
100
AcDbEntity
  8
1
  6
CONTINUOUS
 62
             7
100
AcDbLine
 10
1.49999999999999
 20
-12.00000000000007
 11
0.0
 21
-12.00000000000023
  0
LINE
  5
69
100
AcDbEntity
  8
1
  6
CONTINUOUS
 62
             7
100
AcDbLine
 10
-6.5
 20
3.0
 11
-3.83622153938215
 21
3.61266904594211
  0
LINE
  5
68
100
AcDbEntity
  8
1
  6
CONTINUOUS
 62
             7
100
AcDbLine
 10
-6.5
 20
-3.0
 11
-3.83622153938215
 21
-3.61266904594211
  0
LINE
  5
67
100
AcDbEntity
  8
1
  6
CONTINUOUS
 62
             7
100
AcDbLine
 10
-2.00000000000001
 20
-2.15083626601976
 11
-2.00000000000001
 21
2.15083626601976
  0
LINE
  5
66
100
AcDbEntity
  8
1
  6
CONTINUOUS
 62
             7
100
AcDbLine
 10
-6.5
 20
-3.0
 11
-6.5
 21
3.0
  0
LINE
  5
65
100
AcDbEntity
  8
1
  6
CONTINUOUS
 62
             7
100
AcDbLine
 10
-1.50000000000001
 20
-8.50000000000023
 11
-8.6
 21
-6.75
  0
LINE
  5
64
100
AcDbEntity
  8
1
  6
CONTINUOUS
 62
             7
100
AcDbLine
 10
-8.60000000000001
 20
6.75
 11
-1.50000000000001
 21
8.49999999999977
  0
LINE
  5
63
100
AcDbEntity
  8
1
  6
CONTINUOUS
 62
             7
100
AcDbLine
 10
-8.1
 20
6.8732394366197
 11
-8.10000000000048
 21
11.20058948508768
  0
LINE
  5
62
100
AcDbEntity
  8
1
  6
CONTINUOUS
 62
             7
100
AcDbLine
 10
-8.1
 20
-6.87323943661973
 11
-8.10000000000048
 21
-11.20058948508768
  0
LINE
  5
61
100
AcDbEntity
  8
1
  6
CONTINUOUS
 62
             7
100
AcDbLine
 10
100.0
 20
9.8000000000002
 11
100.0
 21
-9.80000000000017
  0
LINE
  5
60
100
AcDbEntity
  8
1
  6
CONTINUOUS
 62
             7
100
AcDbLine
 10
20.50000000000001
 20
12.7
 11
20.50000000000001
 21
17.2
  0
LINE
  5
5F
100
AcDbEntity
  8
1
  6
CONTINUOUS
 62
             7
100
AcDbLine
 10
20.50000000000001
 20
17.2
 11
21.22805938922307
 21
17.2
  0
LINE
  5
5E
100
AcDbEntity
  8
1
  6
CONTINUOUS
 62
             7
100
AcDbLine
 10
21.22805938922307
 20
12.7
 11
20.50000000000001
 21
12.7
  0
LINE
  5
5D
100
AcDbEntity
  8
1
  6
CONTINUOUS
 62
             7
100
AcDbLine
 10
20.50000000000001
 20
16.25
 11
16.50000000000001
 21
16.25
  0
LINE
  5
5C
100
AcDbEntity
  8
1
  6
CONTINUOUS
 62
             7
100
AcDbLine
 10
20.50000000000001
 20
15.95
 11
16.50000000000001
 21
15.95
  0
LINE
  5
5B
100
AcDbEntity
  8
1
  6
CONTINUOUS
 62
             7
100
AcDbLine
 10
20.50000000000001
 20
13.95
 11
16.50000000000001
 21
13.95
  0
LINE
  5
5A
100
AcDbEntity
  8
1
  6
CONTINUOUS
 62
             7
100
AcDbLine
 10
20.50000000000001
 20
13.65000000000001
 11
16.50000000000001
 21
13.65000000000001
  0
LINE
  5
59
100
AcDbEntity
  8
1
  6
CONTINUOUS
 62
             7
100
AcDbLine
 10
20.50000000000001
 20
-17.19999999999999
 11
20.50000000000001
 21
-12.69999999999999
  0
LINE
  5
58
100
AcDbEntity
  8
1
  6
CONTINUOUS
 62
             7
100
AcDbLine
 10
20.50000000000001
 20
-12.69999999999999
 11
21.22805938922307
 21
-12.69999999999999
  0
LINE
  5
57
100
AcDbEntity
  8
1
  6
CONTINUOUS
 62
             7
100
AcDbLine
 10
21.22805938922307
 20
-17.19999999999999
 11
20.50000000000001
 21
-17.19999999999999
  0
LINE
  5
56
100
AcDbEntity
  8
1
  6
CONTINUOUS
 62
             7
100
AcDbLine
 10
20.50000000000001
 20
-13.64999999999999
 11
16.50000000000001
 21
-13.64999999999999
  0
LINE
  5
55
100
AcDbEntity
  8
1
  6
CONTINUOUS
 62
             7
100
AcDbLine
 10
20.50000000000001
 20
-13.94999999999999
 11
16.50000000000001
 21
-13.94999999999999
  0
LINE
  5
54
100
AcDbEntity
  8
1
  6
CONTINUOUS
 62
             7
100
AcDbLine
 10
20.50000000000001
 20
-15.94999999999999
 11
16.50000000000001
 21
-15.94999999999999
  0
LINE
  5
53
100
AcDbEntity
  8
1
  6
CONTINUOUS
 62
             7
100
AcDbLine
 10
20.50000000000001
 20
-16.24999999999999
 11
16.50000000000001
 21
-16.24999999999999
  0
LINE
  5
52
100
AcDbEntity
  8
1
  6
CONTINUOUS
 62
             7
100
AcDbLine
 10
16.50000000000001
 20
-13.25
 11
16.50000000000001
 21
-18.24999999999997
  0
LINE
  5
51
100
AcDbEntity
  8
1
  6
CONTINUOUS
 62
             7
100
AcDbLine
 10
6.50000000000001
 20
-13.25
 11
6.50000000000002
 21
13.25
  0
LINE
  5
50
100
AcDbEntity
  8
1
  6
CONTINUOUS
 62
             7
100
AcDbLine
 10
6.50000000000001
 20
-13.25
 11
16.50000000000001
 21
-13.25
  0
LINE
  5
4F
100
AcDbEntity
  8
1
  6
CONTINUOUS
 62
             7
100
AcDbLine
 10
6.50000000000002
 20
13.25
 11
6.50000000000002
 21
14.05000000000004
  0
LINE
  5
4E
100
AcDbEntity
  8
1
  6
CONTINUOUS
 62
             7
100
AcDbLine
 10
16.50000000000001
 20
13.25
 11
16.50000000000001
 21
12.94999999999996
  0
LINE
  5
4D
100
AcDbEntity
  8
1
  6
CONTINUOUS
 62
             7
100
AcDbLine
 10
6.50000000000002
 20
13.25
 11
16.50000000000001
 21
13.25
  0
LINE
  5
4C
100
AcDbEntity
  8
1
  6
CONTINUOUS
 62
             7
100
AcDbLine
 10
16.50000000000001
 20
18.25
 11
16.50000000000001
 21
17.05000000000001
  0
LINE
  5
4B
100
AcDbEntity
  8
1
  6
CONTINUOUS
 62
             7
100
AcDbLine
 10
6.50000000000002
 20
18.25
 11
16.50000000000001
 21
18.25
  0
LINE
  5
4A
100
AcDbEntity
  8
1
  6
CONTINUOUS
 62
             7
100
AcDbLine
 10
6.50000000000002
 20
17.05000000000001
 11
10.49999999999999
 21
17.05000000000001
  0
LINE
  5
49
100
AcDbEntity
  8
1
  6
CONTINUOUS
 62
             7
100
AcDbLine
 10
6.50000000000002
 20
17.05000000000001
 11
6.50000000000002
 21
18.25
  0
LINE
  5
48
100
AcDbEntity
  8
1
  6
CONTINUOUS
 62
             7
100
AcDbLine
 10
6.50000000000001
 20
-18.24999999999997
 11
16.50000000000001
 21
-18.24999999999997
  0
LINE
  5
47
100
AcDbEntity
  8
1
  6
CONTINUOUS
 62
             7
100
AcDbLine
 10
16.50000000000001
 20
-10.94999999999999
 11
16.50000000000001
 21
-13.25
  0
LINE
  5
46
100
AcDbEntity
  8
1
  6
CONTINUOUS
 62
             7
100
AcDbLine
 10
6.50000000000001
 20
-17.05
 11
6.50000000000001
 21
-18.24999999999997
  0
LINE
  5
45
100
AcDbEntity
  8
1
  6
CONTINUOUS
 62
             7
100
AcDbLine
 10
17.00000000000001
 20
12.45
 11
31.5
 21
12.44999999999999
  0
LINE
  5
44
100
AcDbEntity
  8
1
  6
CONTINUOUS
 62
             7
100
AcDbLine
 10
16.50000000000001
 20
10.95
 11
16.50000000000001
 21
12.44999999999996
  0
LINE
  5
43
100
AcDbEntity
  8
1
  6
CONTINUOUS
 62
             7
100
AcDbLine
 10
28.88748866352591
 20
10.95
 11
16.50000000000001
 21
10.95
  0
LINE
  5
42
100
AcDbEntity
  8
1
  6
CONTINUOUS
 62
             7
100
AcDbLine
 10
31.5
 20
11.44999999999999
 11
30.0
 21
10.94999999999999
  0
LINE
  5
41
100
AcDbEntity
  8
1
  6
CONTINUOUS
 62
             7
100
AcDbLine
 10
31.5
 20
12.44999999999999
 11
31.5
 21
11.44999999999999
  0
LINE
  5
40
100
AcDbEntity
  8
1
  6
CONTINUOUS
 62
             7
100
AcDbLine
 10
29.06999093082074
 20
10.95
 11
29.21999093082056
 21
10.80000000000018
  0
LINE
  5
3F
100
AcDbEntity
  8
1
  6
CONTINUOUS
 62
             7
100
AcDbLine
 10
29.06999093082074
 20
10.95
 11
28.88748866352591
 21
10.95
  0
LINE
  5
3E
100
AcDbEntity
  8
1
  6
CONTINUOUS
 62
             7
100
AcDbLine
 10
30.0
 20
10.94999999999999
 11
29.06999093082074
 21
10.95
  0
LINE
  5
3D
100
AcDbEntity
  8
1
  6
CONTINUOUS
 62
             7
100
AcDbLine
 10
29.06999093082072
 20
-10.94999999999999
 11
30.0
 21
-10.94999999999996
  0
LINE
  5
3C
100
AcDbEntity
  8
1
  6
CONTINUOUS
 62
             7
100
AcDbLine
 10
28.88748866352591
 20
-10.94999999999999
 11
29.06999093082072
 21
-10.94999999999999
  0
LINE
  5
3B
100
AcDbEntity
  8
1
  6
CONTINUOUS
 62
             7
100
AcDbLine
 10
30.0
 20
-10.94999999999996
 11
30.01312329952887
 21
-10.80000000000015
  0
LINE
  5
3A
100
AcDbEntity
  8
1
  6
CONTINUOUS
 62
             7
100
AcDbLine
 10
31.5
 20
-11.44999999999996
 11
31.5
 21
-12.45
  0
LINE
  5
39
100
AcDbEntity
  8
1
  6
CONTINUOUS
 62
             7
100
AcDbLine
 10
30.0
 20
-10.94999999999996
 11
31.5
 21
-11.44999999999996
  0
LINE
  5
38
100
AcDbEntity
  8
1
  6
CONTINUOUS
 62
             7
100
AcDbLine
 10
2.49999999999999
 20
14.05000000000003
 11
6.50000000000002
 21
14.05000000000004
  0
LINE
  5
37
100
AcDbEntity
  8
1
  6
CONTINUOUS
 62
             7
100
AcDbLine
 10
2.49999999999999
 20
17.05000000000003
 11
2.49999999999999
 21
14.05000000000003
  0
LINE
  5
36
100
AcDbEntity
  8
1
  6
CONTINUOUS
 62
             7
100
AcDbLine
 10
6.50000000000002
 20
14.05000000000004
 11
10.49999999999999
 21
14.05000000000001
  0
LINE
  5
35
100
AcDbEntity
  8
1
  6
CONTINUOUS
 62
             7
100
AcDbLine
 10
2.49999999999999
 20
17.05000000000003
 11
6.50000000000002
 21
17.05000000000001
  0
LINE
  5
34
100
AcDbEntity
  8
1
  6
CONTINUOUS
 62
             7
100
AcDbLine
 10
10.49999999999999
 20
17.05000000000001
 11
10.49999999999999
 21
14.05000000000001
  0
LINE
  5
33
100
AcDbEntity
  8
1
  6
CONTINUOUS
 62
             7
100
AcDbLine
 10
16.50000000000001
 20
-10.94999999999999
 11
28.88748866352591
 21
-10.94999999999999
  0
LINE
  5
32
100
AcDbEntity
  8
1
  6
CONTINUOUS
 62
             7
100
AcDbLine
 10
6.50000000000001
 20
-14.04999999999998
 11
6.50000000000001
 21
-13.25
  0
LINE
  5
31
100
AcDbEntity
  8
1
  6
CONTINUOUS
 62
             7
100
AcDbLine
 10
6.50000000000001
 20
-17.05
 11
6.50000000000001
 21
-14.04999999999998
  0
LINE
  5
30
100
AcDbEntity
  8
1
  6
CONTINUOUS
 62
             7
100
AcDbLine
 10
2.49999999999998
 20
-14.05
 11
2.49999999999998
 21
-17.04999999999998
  0
LINE
  5
2F
100
AcDbEntity
  8
1
  6
CONTINUOUS
 62
             7
100
AcDbLine
 10
6.50000000000001
 20
-14.04999999999998
 11
2.49999999999998
 21
-14.05
  0
LINE
  5
2E
100
AcDbEntity
  8
1
  6
CONTINUOUS
 62
             7
100
AcDbLine
 10
2.49999999999998
 20
-17.04999999999998
 11
6.50000000000001
 21
-17.05
  0
LINE
  5
2D
100
AcDbEntity
  8
1
  6
CONTINUOUS
 62
             7
100
AcDbLine
 10
10.49999999999999
 20
17.05000000000001
 11
16.50000000000001
 21
17.05000000000001
  0
LINE
  5
2C
100
AcDbEntity
  8
1
  6
CONTINUOUS
 62
             7
100
AcDbLine
 10
16.50000000000001
 20
17.05000000000001
 11
16.50000000000001
 21
13.25
  0
LINE
  5
2B
100
AcDbEntity
  8
1
  6
CONTINUOUS
 62
             7
100
AcDbLine
 10
16.50000000000001
 20
-10.94999999999999
 11
16.50000000000001
 21
12.94999999999996
  0
LINE
  5
2A
100
AcDbEntity
  8
1
  6
CONTINUOUS
 62
             7
100
AcDbLine
 10
31.5
 20
-12.45
 11
17.00000000000002
 21
-12.44999999999999
  0
LINE
  5
29
100
AcDbEntity
  8
1
  6
CONTINUOUS
 62
             7
100
AcDbLine
 10
30.01312329952888
 20
10.80000000000018
 11
30.0
 21
10.94999999999999
  0
LINE
  5
28
100
AcDbEntity
  8
1
  6
CONTINUOUS
 62
             7
100
AcDbLine
 10
29.21999093082056
 20
-10.80000000000015
 11
29.06999093082072
 21
-10.94999999999999
  0
ENDSEC
  0
SECTION
  2
OBJECTS
  0
DICTIONARY
  5
19
100
AcDbDictionary
  3
ACAD_GROUP
350
1A
  3
ACAD_MLINESTYLE
350
1B
  0
DICTIONARY
  5
1A
102
{ACAD_REACTORS
330
19
102
}
100
AcDbDictionary
  0
DICTIONARY
  5
1B
102
{ACAD_REACTORS
330
19
102
}
100
AcDbDictionary
  3
STANDARD
350
1C
  0
MLINESTYLE
  5
1C
102
{ACAD_REACTORS
330
1B
102
}
100
AcDbMlineStyle
  2
STANDARD
 70
             0
  3

 62
             0
 51
90.0
 52
90.0
 71
             2
 49
0.5
 62
           256
  6
BYLAYER
 49
-0.5
 62
           256
  6
BYLAYER
  0
ENDSEC
  0
EOF
