  0
SECTION
  2
HEADER
  9
$ACADVER
  1
AC1014
  9
$ACADMAINTVER
 70
     9
  9
$DWGCODEPAGE
  3
ANSI_1252
  9
$INSBASE
 10
0.0
 20
0.0
 30
0.0
  9
$EXTMIN
 10
-137.3650853313135
 20
-50.13194866986858
 30
0.0
  9
$EXTMAX
 10
123.7349146686865
 20
-2.13194866986856
 30
0.0
  9
$LIMMIN
 10
0.0
 20
0.0
  9
$LIMMAX
 10
12.0
 20
9.0
  9
$ORTHOMODE
 70
     0
  9
$REGENMODE
 70
     1
  9
$FILLMODE
 70
     1
  9
$QTEXTMODE
 70
     0
  9
$MIRRTEXT
 70
     1
  9
$DRAGMODE
 70
     2
  9
$LTSCALE
 40
1.0
  9
$OSMODE
 70
    37
  9
$ATTMODE
 70
     1
  9
$TEXTSIZE
 40
0.2
  9
$TRACEWID
 40
0.05
  9
$TEXTSTYLE
  7
STANDARD
  9
$CLAYER
  8
0
  9
$CELTYPE
  6
BYLAYER
  9
$CECOLOR
 62
   256
  9
$CELTSCALE
 40
1.0
  9
$DELOBJ
 70
     1
  9
$DISPSILH
 70
     0
  9
$DIMSCALE
 40
1.0
  9
$DIMASZ
 40
0.18
  9
$DIMEXO
 40
0.0625
  9
$DIMDLI
 40
0.38
  9
$DIMRND
 40
0.0
  9
$DIMDLE
 40
0.0
  9
$DIMEXE
 40
0.18
  9
$DIMTP
 40
0.0
  9
$DIMTM
 40
0.0
  9
$DIMTXT
 40
0.18
  9
$DIMCEN
 40
0.09
  9
$DIMTSZ
 40
0.0
  9
$DIMTOL
 70
     0
  9
$DIMLIM
 70
     0
  9
$DIMTIH
 70
     1
  9
$DIMTOH
 70
     1
  9
$DIMSE1
 70
     0
  9
$DIMSE2
 70
     0
  9
$DIMTAD
 70
     0
  9
$DIMZIN
 70
     0
  9
$DIMBLK
  1

  9
$DIMASO
 70
     1
  9
$DIMSHO
 70
     1
  9
$DIMPOST
  1

  9
$DIMAPOST
  1

  9
$DIMALT
 70
     0
  9
$DIMALTD
 70
     2
  9
$DIMALTF
 40
25.4
  9
$DIMLFAC
 40
1.0
  9
$DIMTOFL
 70
     0
  9
$DIMTVP
 40
0.0
  9
$DIMTIX
 70
     0
  9
$DIMSOXD
 70
     0
  9
$DIMSAH
 70
     0
  9
$DIMBLK1
  1

  9
$DIMBLK2
  1

  9
$DIMSTYLE
  2
STANDARD
  9
$DIMCLRD
 70
     0
  9
$DIMCLRE
 70
     0
  9
$DIMCLRT
 70
     0
  9
$DIMTFAC
 40
1.0
  9
$DIMGAP
 40
0.09
  9
$DIMJUST
 70
     0
  9
$DIMSD1
 70
     0
  9
$DIMSD2
 70
     0
  9
$DIMTOLJ
 70
     1
  9
$DIMTZIN
 70
     0
  9
$DIMALTZ
 70
     0
  9
$DIMALTTZ
 70
     0
  9
$DIMFIT
 70
     3
  9
$DIMUPT
 70
     0
  9
$DIMUNIT
 70
     2
  9
$DIMDEC
 70
     4
  9
$DIMTDEC
 70
     4
  9
$DIMALTU
 70
     2
  9
$DIMALTTD
 70
     2
  9
$DIMTXSTY
  7
STANDARD
  9
$DIMAUNIT
 70
     0
  9
$LUNITS
 70
     2
  9
$LUPREC
 70
     4
  9
$SKETCHINC
 40
0.1
  9
$FILLETRAD
 40
0.5
  9
$AUNITS
 70
     0
  9
$AUPREC
 70
     0
  9
$MENU
  1
.
  9
$ELEVATION
 40
0.0
  9
$PELEVATION
 40
0.0
  9
$THICKNESS
 40
0.0
  9
$LIMCHECK
 70
     0
  9
$CHAMFERA
 40
0.5
  9
$CHAMFERB
 40
0.5
  9
$CHAMFERC
 40
1.0
  9
$CHAMFERD
 40
0.0
  9
$SKPOLY
 70
     0
  9
$TDCREATE
 40
2458082.560541123
  9
$TDUPDATE
 40
2458082.560541354
  9
$TDINDWG
 40
0.0000000116
  9
$TDUSRTIMER
 40
0.0000000116
  9
$USRTIMER
 70
     1
  9
$ANGBASE
 50
0.0
  9
$ANGDIR
 70
     0
  9
$PDMODE
 70
     0
  9
$PDSIZE
 40
0.0
  9
$PLINEWID
 40
0.0
  9
$COORDS
 70
     1
  9
$SPLFRAME
 70
     0
  9
$SPLINETYPE
 70
     6
  9
$SPLINESEGS
 70
     8
  9
$ATTDIA
 70
     0
  9
$ATTREQ
 70
     1
  9
$HANDLING
 70
     1
  9
$HANDSEED
  5
4B9
  9
$SURFTAB1
 70
     6
  9
$SURFTAB2
 70
     6
  9
$SURFTYPE
 70
     6
  9
$SURFU
 70
     6
  9
$SURFV
 70
     6
  9
$UCSNAME
  2

  9
$UCSORG
 10
0.0
 20
0.0
 30
0.0
  9
$UCSXDIR
 10
1.0
 20
0.0
 30
0.0
  9
$UCSYDIR
 10
0.0
 20
1.0
 30
0.0
  9
$PUCSNAME
  2

  9
$PUCSORG
 10
0.0
 20
0.0
 30
0.0
  9
$PUCSXDIR
 10
1.0
 20
0.0
 30
0.0
  9
$PUCSYDIR
 10
0.0
 20
1.0
 30
0.0
  9
$USERI1
 70
     0
  9
$USERI2
 70
     0
  9
$USERI3
 70
     0
  9
$USERI4
 70
     0
  9
$USERI5
 70
     0
  9
$USERR1
 40
18.1
  9
$USERR2
 40
0.0
  9
$USERR3
 40
0.0
  9
$USERR4
 40
0.0
  9
$USERR5
 40
0.0
  9
$WORLDVIEW
 70
     1
  9
$SHADEDGE
 70
     3
  9
$SHADEDIF
 70
    70
  9
$TILEMODE
 70
     1
  9
$MAXACTVP
 70
    64
  9
$PINSBASE
 10
0.0
 20
0.0
 30
0.0
  9
$PLIMCHECK
 70
     0
  9
$PEXTMIN
 10
1.00000000000000E+20
 20
1.00000000000000E+20
 30
1.00000000000000E+20
  9
$PEXTMAX
 10
-1.00000000000000E+20
 20
-1.00000000000000E+20
 30
-1.00000000000000E+20
  9
$PLIMMIN
 10
0.0
 20
0.0
  9
$PLIMMAX
 10
12.0
 20
9.0
  9
$UNITMODE
 70
     0
  9
$VISRETAIN
 70
     1
  9
$PLINEGEN
 70
     0
  9
$PSLTSCALE
 70
     1
  9
$TREEDEPTH
 70
  3020
  9
$PICKSTYLE
 70
     1
  9
$CMLSTYLE
  2
STANDARD
  9
$CMLJUST
 70
     0
  9
$CMLSCALE
 40
1.0
  9
$PROXYGRAPHICS
 70
     1
  9
$MEASUREMENT
 70
     1
  0
ENDSEC
  0
SECTION
  2
CLASSES
  0
CLASS
  1
ACDBDICTIONARYWDFLT
  2
AcDbDictionaryWithDefault
  3
ObjectDBX Classes
 90
        0
280
     0
281
     0
  0
CLASS
  1
VISUALSTYLE
  2
AcDbVisualStyle
  3
ObjectDBX Classes
 90
     4095
280
     0
281
     0
  0
CLASS
  1
MATERIAL
  2
AcDbMaterial
  3
ObjectDBX Classes
 90
     1153
280
     0
281
     0
  0
CLASS
  1
DICTIONARYVAR
  2
AcDbDictionaryVar
  3
ObjectDBX Classes
 90
        0
280
     0
281
     0
  0
CLASS
  1
XRECORD
  2
AcDbXrecord
  3
AutoCAD 2000
 90
        0
280
     0
281
     0
  0
CLASS
  1
LWPOLYLINE
  2
AcDbPolyline
  3
AutoCAD 2000
 90
        0
280
     0
281
     1
  0
CLASS
  1
HATCH
  2
AcDbHatch
  3
AutoCAD 2000
 90
        0
280
     0
281
     1
  0
CLASS
  1
ACDBPLACEHOLDER
  2
AcDbPlaceHolder
  3
ObjectDBX Classes
 90
        0
280
     0
281
     0
  0
CLASS
  1
LAYOUT
  2
AcDbLayout
  3
ObjectDBX Classes
 90
        0
280
     0
281
     0
  0
ENDSEC
  0
SECTION
  2
TABLES
  0
TABLE
  2
VPORT
  5
8
330
0
100
AcDbSymbolTable
 70
     1
  0
VPORT
  5
29
330
8
100
AcDbSymbolTableRecord
100
AcDbViewportTableRecord
  2
*ACTIVE
 70
     0
 10
0.0
 20
0.0
 11
1.0
 21
1.0
 12
-6.8150853313135
 22
-26.13194866986857
 13
0.0
 23
0.0
 14
0.5
 24
0.5
 15
0.5
 25
0.5
 16
0.0
 26
0.0
 36
1.0
 17
0.0
 27
0.0
 37
0.0
 40
179.2062395543176
 41
1.60267857142857
 42
50.0
 43
0.0
 44
0.0
 50
0.0
 51
0.0
 71
     0
 72
   100
 73
     1
 74
     3
 75
     0
 76
     0
 77
     0
 78
     0
  0
ENDTAB
  0
TABLE
  2
LTYPE
  5
5
330
0
100
AcDbSymbolTable
 70
     8
  0
LTYPE
  5
14
330
5
100
AcDbSymbolTableRecord
100
AcDbLinetypeTableRecord
  2
BYBLOCK
 70
     0
  3

 72
    65
 73
     0
 40
0.0
  0
LTYPE
  5
15
330
5
100
AcDbSymbolTableRecord
100
AcDbLinetypeTableRecord
  2
BYLAYER
 70
     0
  3

 72
    65
 73
     0
 40
0.0
  0
LTYPE
  5
16
330
5
100
AcDbSymbolTableRecord
100
AcDbLinetypeTableRecord
  2
CONTINUOUS
 70
     0
  3
Solid line
 72
    65
 73
     0
 40
0.0
  0
LTYPE
  5
3F
330
5
100
AcDbSymbolTableRecord
100
AcDbLinetypeTableRecord
  2
DASHED
 70
     0
  3
Dashed
 72
    65
 73
     2
 40
15.0
 49
7.0
 74
     0
 49
-8.0
 74
     0
  0
LTYPE
  5
40
330
5
100
AcDbSymbolTableRecord
100
AcDbLinetypeTableRecord
  2
DOTTED
 70
     0
  3
Dotted
 72
    65
 73
     2
 40
1.0
 49
0.0
 74
     0
 49
-1.0
 74
     0
  0
LTYPE
  5
41
330
5
100
AcDbSymbolTableRecord
100
AcDbLinetypeTableRecord
  2
DOT_CENTER
 70
     0
  3
Dot_Center
 72
    65
 73
     4
 40
14.0
 49
12.0
 74
     0
 49
-1.0
 74
     0
 49
0.0
 74
     0
 49
-1.0
 74
     0
  0
LTYPE
  5
42
330
5
100
AcDbSymbolTableRecord
100
AcDbLinetypeTableRecord
  2
LONG_DASHED
 70
     0
  3
Long_Dashed
 72
    65
 73
     2
 40
15.0
 49
10.0
 74
     0
 49
-5.0
 74
     0
  0
LTYPE
  5
43
330
5
100
AcDbSymbolTableRecord
100
AcDbLinetypeTableRecord
  2
DASH_CENTER
 70
     0
  3
Dash_Center
 72
    65
 73
     4
 40
14.0
 49
11.0
 74
     0
 49
-1.0
 74
     0
 49
1.0
 74
     0
 49
-1.0
 74
     0
  0
LTYPE
  5
44
330
5
100
AcDbSymbolTableRecord
100
AcDbLinetypeTableRecord
  2
PHANTOM
 70
     0
  3
Phantom
 72
    65
 73
     6
 40
13.0
 49
10.0
 74
     0
 49
-1.0
 74
     0
 49
0.0
 74
     0
 49
-1.0
 74
     0
 49
0.0
 74
     0
 49
-1.0
 74
     0
  0
LTYPE
  5
45
330
5
100
AcDbSymbolTableRecord
100
AcDbLinetypeTableRecord
  2
CENTER_DASH_DASH
 70
     0
  3
Center_Dash_Dash
 72
    65
 73
     6
 40
14.0
 49
9.0
 74
     0
 49
-1.0
 74
     0
 49
1.0
 74
     0
 49
-1.0
 74
     0
 49
1.0
 74
     0
 49
-1.0
 74
     0
  0
ENDTAB
  0
TABLE
  2
LAYER
  5
2
330
0
100
AcDbSymbolTable
 70
     2
  0
LAYER
  5
10
330
2
100
AcDbSymbolTableRecord
100
AcDbLayerTableRecord
  2
0
 70
     0
 62
     7
  6
CONTINUOUS
  0
LAYER
  5
46
330
2
100
AcDbSymbolTableRecord
100
AcDbLayerTableRecord
  2
1
 70
     0
 62
     7
  6
CONTINUOUS
  0
ENDTAB
  0
TABLE
  2
STYLE
  5
3
330
0
100
AcDbSymbolTable
 70
     1
  0
STYLE
  5
11
330
3
100
AcDbSymbolTableRecord
100
AcDbTextStyleTableRecord
  2
STANDARD
 70
     0
 40
0.0
 41
1.0
 50
0.0
 71
     0
 42
0.2
  3
txt
  4

  0
ENDTAB
  0
TABLE
  2
VIEW
  5
6
330
0
100
AcDbSymbolTable
 70
     0
  0
ENDTAB
  0
TABLE
  2
UCS
  5
7
330
0
100
AcDbSymbolTable
 70
     0
  0
ENDTAB
  0
TABLE
  2
APPID
  5
9
330
0
100
AcDbSymbolTable
 70
     1
  0
APPID
  5
12
330
9
100
AcDbSymbolTableRecord
100
AcDbRegAppTableRecord
  2
ACAD
 70
     0
  0
ENDTAB
  0
TABLE
  2
DIMSTYLE
  5
A
330
0
100
AcDbSymbolTable
 70
     1
  0
DIMSTYLE
105
27
330
A
100
AcDbSymbolTableRecord
100
AcDbDimStyleTableRecord
  2
STANDARD
 70
     0
  3

  4

  5

  6

  7

 40
1.0
 41
0.18
 42
0.0625
 43
0.38
 44
0.18
 45
0.0
 46
0.0
 47
0.0
 48
0.0
140
0.18
141
0.09
142
0.0
143
25.4
144
1.0
145
0.0
146
1.0
147
0.09
 71
     0
 72
     0
 73
     1
 74
     1
 75
     0
 76
     0
 77
     0
 78
     0
170
     0
171
     2
172
     0
173
     0
174
     0
175
     0
176
     0
177
     0
178
     0
270
     2
271
     4
272
     4
273
     2
274
     2
340
11
275
     0
280
     0
281
     0
282
     0
283
     1
284
     0
285
     0
286
     0
287
     3
288
     0
  0
ENDTAB
  0
TABLE
  2
BLOCK_RECORD
  5
1
330
0
100
AcDbSymbolTable
 70
     1
  0
BLOCK_RECORD
  5
1F
330
1
100
AcDbSymbolTableRecord
100
AcDbBlockTableRecord
  2
*MODEL_SPACE
  0
BLOCK_RECORD
  5
1B
330
1
100
AcDbSymbolTableRecord
100
AcDbBlockTableRecord
  2
*PAPER_SPACE
  0
ENDTAB
  0
ENDSEC
  0
SECTION
  2
BLOCKS
  0
BLOCK
  5
20
330
1F
100
AcDbEntity
  8
0
100
AcDbBlockBegin
  2
*MODEL_SPACE
 70
     0
 10
0.0
 20
0.0
 30
0.0
  3
*MODEL_SPACE
  1

  0
ENDBLK
  5
21
330
1F
100
AcDbEntity
  8
0
100
AcDbBlockEnd
  0
BLOCK
  5
1C
330
1B
100
AcDbEntity
 67
     1
  8
0
100
AcDbBlockBegin
  2
*PAPER_SPACE
 70
     0
 10
0.0
 20
0.0
 30
0.0
  3
*PAPER_SPACE
  1

  0
ENDBLK
  5
1D
330
1B
100
AcDbEntity
 67
     1
  8
0
100
AcDbBlockEnd
  0
ENDSEC
  0
SECTION
  2
ENTITIES
  0
LINE
  5
47
330
1F
100
AcDbEntity
  8
1
  6
CONTINUOUS
 62
     2
100
AcDbLine
 10
-73.01508533131347
 20
-41.28194866986862
 30
0.0
 11
-73.01508533131347
 21
-41.88194866986862
 31
0.0
  0
LINE
  5
48
330
1F
100
AcDbEntity
  8
1
  6
CONTINUOUS
 62
     2
100
AcDbLine
 10
-73.69008533131347
 20
-41.58194866986862
 30
0.0
 11
-72.79008533131346
 21
-41.58194866986862
 31
0.0
  0
LINE
  5
49
330
1F
100
AcDbEntity
  8
1
  6
CONTINUOUS
 62
     2
100
AcDbLine
 10
-73.01508533131347
 20
-40.38194866986862
 30
0.0
 11
-73.69008533131347
 21
-41.58194866986862
 31
0.0
  0
LINE
  5
4A
330
1F
100
AcDbEntity
  8
1
  6
CONTINUOUS
 62
     2
100
AcDbLine
 10
-74.74008533131348
 20
-40.38194866986862
 30
0.0
 11
-74.14008533131347
 21
-41.88194866986862
 31
0.0
  0
LINE
  5
4B
330
1F
100
AcDbEntity
  8
1
  6
CONTINUOUS
 62
     2
100
AcDbLine
 10
-75.34008533131347
 20
-41.88194866986862
 30
0.0
 11
-74.74008533131348
 21
-40.38194866986862
 31
0.0
  0
LINE
  5
4C
330
1F
100
AcDbEntity
  8
1
  6
CONTINUOUS
 62
     2
100
AcDbLine
 10
-75.15258533131347
 20
-41.43194866986862
 30
0.0
 11
-74.32758533131347
 21
-41.43194866986862
 31
0.0
  0
LINE
  5
4D
330
1F
100
AcDbEntity
  8
1
  6
CONTINUOUS
 62
     2
100
AcDbLine
 10
-111.0150853313136
 20
-41.28194866986862
 30
0.0
 11
-111.0150853313136
 21
-41.88194866986862
 31
0.0
  0
LINE
  5
4E
330
1F
100
AcDbEntity
  8
1
  6
CONTINUOUS
 62
     2
100
AcDbLine
 10
-111.6900853313136
 20
-41.58194866986862
 30
0.0
 11
-110.7900853313136
 21
-41.58194866986862
 31
0.0
  0
LINE
  5
4F
330
1F
100
AcDbEntity
  8
1
  6
CONTINUOUS
 62
     2
100
AcDbLine
 10
-111.0150853313136
 20
-40.38194866986862
 30
0.0
 11
-111.6900853313136
 21
-41.58194866986862
 31
0.0
  0
LINE
  5
50
330
1F
100
AcDbEntity
  8
1
  6
CONTINUOUS
 62
     2
100
AcDbLine
 10
-112.7400853313136
 20
-40.38194866986862
 30
0.0
 11
-112.1400853313136
 21
-41.88194866986862
 31
0.0
  0
LINE
  5
51
330
1F
100
AcDbEntity
  8
1
  6
CONTINUOUS
 62
     2
100
AcDbLine
 10
-113.3400853313136
 20
-41.88194866986862
 30
0.0
 11
-112.7400853313136
 21
-40.38194866986862
 31
0.0
  0
LINE
  5
52
330
1F
100
AcDbEntity
  8
1
  6
CONTINUOUS
 62
     2
100
AcDbLine
 10
-113.1525853313136
 20
-41.43194866986862
 30
0.0
 11
-112.3275853313136
 21
-41.43194866986862
 31
0.0
  0
LINE
  5
53
330
1F
100
AcDbEntity
  8
1
  6
CONTINUOUS
 62
     2
100
AcDbLine
 10
-118.2025853313136
 20
-33.38194866986856
 30
0.0
 11
-117.5200853313136
 21
-34.88194866986856
 31
0.0
  0
LINE
  5
54
330
1F
100
AcDbEntity
  8
1
  6
CONTINUOUS
 62
     2
100
AcDbLine
 10
-118.2025853313136
 20
-34.88194866986856
 30
0.0
 11
-117.5200853313136
 21
-33.38194866986856
 31
0.0
  0
LINE
  5
55
330
1F
100
AcDbEntity
  8
1
  6
CONTINUOUS
 62
     2
100
AcDbLine
 10
-119.1775853313136
 20
-34.88194866986856
 30
0.0
 11
-119.1775853313136
 21
-34.13194866986856
 31
0.0
  0
LINE
  5
56
330
1F
100
AcDbEntity
  8
1
  6
CONTINUOUS
 62
     2
100
AcDbLine
 10
-118.7875853313136
 20
-34.13194866986856
 30
0.0
 11
-118.4950853313136
 21
-34.88194866986856
 31
0.0
  0
LINE
  5
57
330
1F
100
AcDbEntity
  8
1
  6
CONTINUOUS
 62
     2
100
AcDbLine
 10
-118.7144603313136
 20
-34.13194866986856
 30
0.0
 11
-118.7875853313136
 21
-34.13194866986856
 31
0.0
  0
LINE
  5
58
330
1F
100
AcDbEntity
  8
1
  6
CONTINUOUS
 62
     2
100
AcDbLine
 10
-118.6169603313136
 20
-34.09444866986856
 30
0.0
 11
-118.7144603313136
 21
-34.13194866986856
 31
0.0
  0
LINE
  5
59
330
1F
100
AcDbEntity
  8
1
  6
CONTINUOUS
 62
     2
100
AcDbLine
 10
-118.5438353313136
 20
-34.01944866986856
 30
0.0
 11
-118.6169603313136
 21
-34.09444866986856
 31
0.0
  0
LINE
  5
5A
330
1F
100
AcDbEntity
  8
1
  6
CONTINUOUS
 62
     2
100
AcDbLine
 10
-118.5194603313136
 20
-33.94444866986856
 30
0.0
 11
-118.5438353313136
 21
-34.01944866986856
 31
0.0
  0
LINE
  5
5B
330
1F
100
AcDbEntity
  8
1
  6
CONTINUOUS
 62
     2
100
AcDbLine
 10
-118.4950853313136
 20
-33.83194866986856
 30
0.0
 11
-118.5194603313136
 21
-33.94444866986856
 31
0.0
  0
LINE
  5
5C
330
1F
100
AcDbEntity
  8
1
  6
CONTINUOUS
 62
     2
100
AcDbLine
 10
-118.4950853313136
 20
-33.68194866986855
 30
0.0
 11
-118.4950853313136
 21
-33.83194866986856
 31
0.0
  0
LINE
  5
5D
330
1F
100
AcDbEntity
  8
1
  6
CONTINUOUS
 62
     2
100
AcDbLine
 10
-118.5194603313136
 20
-33.56944866986856
 30
0.0
 11
-118.4950853313136
 21
-33.68194866986855
 31
0.0
  0
LINE
  5
5E
330
1F
100
AcDbEntity
  8
1
  6
CONTINUOUS
 62
     2
100
AcDbLine
 10
-118.5438353313136
 20
-33.49444866986855
 30
0.0
 11
-118.5194603313136
 21
-33.56944866986856
 31
0.0
  0
LINE
  5
5F
330
1F
100
AcDbEntity
  8
1
  6
CONTINUOUS
 62
     2
100
AcDbLine
 10
-118.6169603313136
 20
-33.41944866986856
 30
0.0
 11
-118.5438353313136
 21
-33.49444866986855
 31
0.0
  0
LINE
  5
60
330
1F
100
AcDbEntity
  8
1
  6
CONTINUOUS
 62
     2
100
AcDbLine
 10
-118.7144603313136
 20
-33.38194866986856
 30
0.0
 11
-118.6169603313136
 21
-33.41944866986856
 31
0.0
  0
LINE
  5
61
330
1F
100
AcDbEntity
  8
1
  6
CONTINUOUS
 62
     2
100
AcDbLine
 10
-119.1775853313136
 20
-33.38194866986856
 30
0.0
 11
-118.7144603313136
 21
-33.38194866986856
 31
0.0
  0
LINE
  5
62
330
1F
100
AcDbEntity
  8
1
  6
CONTINUOUS
 62
     2
100
AcDbLine
 10
-119.1775853313136
 20
-34.13194866986856
 30
0.0
 11
-119.1775853313136
 21
-33.38194866986856
 31
0.0
  0
LINE
  5
63
330
1F
100
AcDbEntity
  8
1
  6
CONTINUOUS
 62
     2
100
AcDbLine
 10
-118.7875853313136
 20
-34.13194866986856
 30
0.0
 11
-119.1775853313136
 21
-34.13194866986856
 31
0.0
  0
LINE
  5
64
330
1F
100
AcDbEntity
  8
1
  6
CONTINUOUS
 62
     2
100
AcDbLine
 10
-119.8600853313136
 20
-34.88194866986856
 30
0.0
 11
-119.4700853313136
 21
-33.38194866986856
 31
0.0
  0
LINE
  5
65
330
1F
100
AcDbEntity
  8
1
  6
CONTINUOUS
 62
     2
100
AcDbLine
 10
-120.8350853313136
 20
-33.38194866986856
 30
0.0
 11
-120.1525853313136
 21
-34.88194866986856
 31
0.0
  0
LINE
  5
66
330
1F
100
AcDbEntity
  8
1
  6
CONTINUOUS
 62
     2
100
AcDbLine
 10
-120.8350853313136
 20
-34.88194866986856
 30
0.0
 11
-120.1525853313136
 21
-33.38194866986856
 31
0.0
  0
LINE
  5
67
330
1F
100
AcDbEntity
  8
1
  6
CONTINUOUS
 62
     2
100
AcDbLine
 10
-121.4688353313136
 20
-33.38194866986856
 30
0.0
 11
-121.4688353313136
 21
-34.88194866986856
 31
0.0
  0
LINE
  5
68
330
1F
100
AcDbEntity
  8
1
  6
CONTINUOUS
 62
     2
100
AcDbLine
 10
-121.8100853313136
 20
-33.38194866986856
 30
0.0
 11
-121.4688353313136
 21
-33.38194866986856
 31
0.0
  0
LINE
  5
69
330
1F
100
AcDbEntity
  8
1
  6
CONTINUOUS
 62
     2
100
AcDbLine
 10
-121.4688353313136
 20
-33.38194866986856
 30
0.0
 11
-121.1275853313136
 21
-33.38194866986856
 31
0.0
  0
LINE
  5
6A
330
1F
100
AcDbEntity
  8
1
  6
CONTINUOUS
 62
     7
100
AcDbLine
 10
-46.36508533131351
 20
-10.63194866986856
 30
0.0
 11
-46.36508533131351
 21
-9.38194866986856
 31
0.0
  0
LINE
  5
6B
330
1F
100
AcDbEntity
  8
1
  6
CONTINUOUS
 62
     7
100
AcDbLine
 10
-45.16508533131351
 20
-9.38194866986856
 30
0.0
 11
-44.26508533131351
 21
-10.63194866986856
 31
0.0
  0
LINE
  5
6C
330
1F
100
AcDbEntity
  8
1
  6
CONTINUOUS
 62
     7
100
AcDbLine
 10
-44.94008533131351
 20
-9.38194866986856
 30
0.0
 11
-45.16508533131351
 21
-9.38194866986856
 31
0.0
  0
LINE
  5
6D
330
1F
100
AcDbEntity
  8
1
  6
CONTINUOUS
 62
     7
100
AcDbLine
 10
-44.64008533131351
 20
-9.31944866986856
 30
0.0
 11
-44.94008533131351
 21
-9.38194866986856
 31
0.0
  0
LINE
  5
6E
330
1F
100
AcDbEntity
  8
1
  6
CONTINUOUS
 62
     7
100
AcDbLine
 10
-44.41508533131351
 20
-9.19444866986856
 30
0.0
 11
-44.64008533131351
 21
-9.31944866986856
 31
0.0
  0
LINE
  5
6F
330
1F
100
AcDbEntity
  8
1
  6
CONTINUOUS
 62
     7
100
AcDbLine
 10
-44.34008533131351
 20
-9.06944866986856
 30
0.0
 11
-44.41508533131351
 21
-9.19444866986856
 31
0.0
  0
LINE
  5
70
330
1F
100
AcDbEntity
  8
1
  6
CONTINUOUS
 62
     7
100
AcDbLine
 10
-44.26508533131351
 20
-8.88194866986856
 30
0.0
 11
-44.34008533131351
 21
-9.06944866986856
 31
0.0
  0
LINE
  5
71
330
1F
100
AcDbEntity
  8
1
  6
CONTINUOUS
 62
     7
100
AcDbLine
 10
-44.26508533131351
 20
-8.63194866986856
 30
0.0
 11
-44.26508533131351
 21
-8.88194866986856
 31
0.0
  0
LINE
  5
72
330
1F
100
AcDbEntity
  8
1
  6
CONTINUOUS
 62
     7
100
AcDbLine
 10
-44.34008533131351
 20
-8.44444866986856
 30
0.0
 11
-44.26508533131351
 21
-8.63194866986856
 31
0.0
  0
LINE
  5
73
330
1F
100
AcDbEntity
  8
1
  6
CONTINUOUS
 62
     7
100
AcDbLine
 10
-44.41508533131351
 20
-8.31944866986856
 30
0.0
 11
-44.34008533131351
 21
-8.44444866986856
 31
0.0
  0
LINE
  5
74
330
1F
100
AcDbEntity
  8
1
  6
CONTINUOUS
 62
     7
100
AcDbLine
 10
-44.64008533131351
 20
-8.19444866986856
 30
0.0
 11
-44.41508533131351
 21
-8.31944866986856
 31
0.0
  0
LINE
  5
75
330
1F
100
AcDbEntity
  8
1
  6
CONTINUOUS
 62
     7
100
AcDbLine
 10
-44.94008533131351
 20
-8.13194866986856
 30
0.0
 11
-44.64008533131351
 21
-8.19444866986856
 31
0.0
  0
LINE
  5
76
330
1F
100
AcDbEntity
  8
1
  6
CONTINUOUS
 62
     7
100
AcDbLine
 10
-46.36508533131351
 20
-8.13194866986856
 30
0.0
 11
-44.94008533131351
 21
-8.13194866986856
 31
0.0
  0
LINE
  5
77
330
1F
100
AcDbEntity
  8
1
  6
CONTINUOUS
 62
     7
100
AcDbLine
 10
-46.36508533131351
 20
-9.38194866986856
 30
0.0
 11
-46.36508533131351
 21
-8.13194866986856
 31
0.0
  0
LINE
  5
78
330
1F
100
AcDbEntity
  8
1
  6
CONTINUOUS
 62
     7
100
AcDbLine
 10
-45.16508533131351
 20
-9.38194866986856
 30
0.0
 11
-46.36508533131351
 21
-9.38194866986856
 31
0.0
  0
LINE
  5
79
330
1F
100
AcDbEntity
  8
1
  6
CONTINUOUS
 62
     7
100
AcDbLine
 10
-47.26508533131351
 20
-10.63194866986856
 30
0.0
 11
-47.26508533131351
 21
-8.13194866986856
 31
0.0
  0
LINE
  5
7A
330
1F
100
AcDbEntity
  8
1
  6
CONTINUOUS
 62
     7
100
AcDbLine
 10
-48.76508533131351
 20
-10.63194866986856
 30
0.0
 11
-49.36508533131351
 21
-10.63194866986856
 31
0.0
  0
LINE
  5
7B
330
1F
100
AcDbEntity
  8
1
  6
CONTINUOUS
 62
     7
100
AcDbLine
 10
-48.54008533131351
 20
-10.56944866986856
 30
0.0
 11
-48.76508533131351
 21
-10.63194866986856
 31
0.0
  0
LINE
  5
7C
330
1F
100
AcDbEntity
  8
1
  6
CONTINUOUS
 62
     7
100
AcDbLine
 10
-48.31508533131351
 20
-10.44444866986856
 30
0.0
 11
-48.54008533131351
 21
-10.56944866986856
 31
0.0
  0
LINE
  5
7D
330
1F
100
AcDbEntity
  8
1
  6
CONTINUOUS
 62
     7
100
AcDbLine
 10
-48.16508533131351
 20
-10.19444866986856
 30
0.0
 11
-48.31508533131351
 21
-10.44444866986856
 31
0.0
  0
LINE
  5
7E
330
1F
100
AcDbEntity
  8
1
  6
CONTINUOUS
 62
     7
100
AcDbLine
 10
-48.16508533131351
 20
-8.13194866986856
 30
0.0
 11
-48.16508533131351
 21
-10.19444866986856
 31
0.0
  0
LINE
  5
7F
330
1F
100
AcDbEntity
  8
1
  6
CONTINUOUS
 62
     7
100
AcDbLine
 10
-48.96508533131351
 20
-30.78194866986868
 30
0.0
 11
-48.96508533131351
 21
-30.88194866986868
 31
0.0
  0
LINE
  5
80
330
1F
100
AcDbEntity
  8
1
  6
CONTINUOUS
 62
     7
100
AcDbLine
 10
-48.96508533131351
 20
-31.88194866986868
 30
0.0
 11
-47.56508533131351
 21
-31.88194866986868
 31
0.0
  0
LINE
  5
81
330
1F
100
AcDbEntity
  8
1
  6
CONTINUOUS
 62
     7
100
AcDbLine
 10
-48.96508533131351
 20
-30.88194866986868
 30
0.0
 11
-48.96508533131351
 21
-31.88194866986868
 31
0.0
  0
LINE
  5
82
330
1F
100
AcDbEntity
  8
1
  6
CONTINUOUS
 62
     7
100
AcDbLine
 10
-48.96508533131351
 20
-29.88194866986868
 30
0.0
 11
-48.96508533131351
 21
-30.78194866986868
 31
0.0
  0
LINE
  5
83
330
1F
100
AcDbEntity
  8
1
  6
CONTINUOUS
 62
     7
100
AcDbLine
 10
-47.56508533131351
 20
-29.88194866986868
 30
0.0
 11
-48.96508533131351
 21
-29.88194866986868
 31
0.0
  0
LINE
  5
84
330
1F
100
AcDbEntity
  8
1
  6
CONTINUOUS
 62
     7
100
AcDbLine
 10
-47.76508533131351
 20
-30.78194866986868
 30
0.0
 11
-48.96508533131351
 21
-30.78194866986868
 31
0.0
  0
LINE
  5
85
330
1F
100
AcDbEntity
  8
1
  6
CONTINUOUS
 62
     7
100
AcDbLine
 10
-49.61508533131351
 20
-30.28194866986868
 30
0.0
 11
-49.56508533131351
 21
-30.48194866986868
 31
0.0
  0
LINE
  5
86
330
1F
100
AcDbEntity
  8
1
  6
CONTINUOUS
 62
     7
100
AcDbLine
 10
-49.71508533131351
 20
-30.13194866986868
 30
0.0
 11
-49.61508533131351
 21
-30.28194866986868
 31
0.0
  0
LINE
  5
87
330
1F
100
AcDbEntity
  8
1
  6
CONTINUOUS
 62
     7
100
AcDbLine
 10
-49.81508533131351
 20
-30.03194866986868
 30
0.0
 11
-49.71508533131351
 21
-30.13194866986868
 31
0.0
  0
LINE
  5
88
330
1F
100
AcDbEntity
  8
1
  6
CONTINUOUS
 62
     7
100
AcDbLine
 10
-49.96508533131351
 20
-29.93194866986868
 30
0.0
 11
-49.81508533131351
 21
-30.03194866986868
 31
0.0
  0
LINE
  5
89
330
1F
100
AcDbEntity
  8
1
  6
CONTINUOUS
 62
     7
100
AcDbLine
 10
-50.16508533131351
 20
-29.88194866986868
 30
0.0
 11
-49.96508533131351
 21
-29.93194866986868
 31
0.0
  0
LINE
  5
8A
330
1F
100
AcDbEntity
  8
1
  6
CONTINUOUS
 62
     7
100
AcDbLine
 10
-50.96508533131351
 20
-29.88194866986868
 30
0.0
 11
-50.16508533131351
 21
-29.88194866986868
 31
0.0
  0
LINE
  5
8B
330
1F
100
AcDbEntity
  8
1
  6
CONTINUOUS
 62
     7
100
AcDbLine
 10
-50.96508533131351
 20
-31.88194866986868
 30
0.0
 11
-50.96508533131351
 21
-29.88194866986868
 31
0.0
  0
LINE
  5
8C
330
1F
100
AcDbEntity
  8
1
  6
CONTINUOUS
 62
     7
100
AcDbLine
 10
-50.16508533131351
 20
-31.88194866986868
 30
0.0
 11
-50.96508533131351
 21
-31.88194866986868
 31
0.0
  0
LINE
  5
8D
330
1F
100
AcDbEntity
  8
1
  6
CONTINUOUS
 62
     7
100
AcDbLine
 10
-49.96508533131351
 20
-31.83194866986868
 30
0.0
 11
-50.16508533131351
 21
-31.88194866986868
 31
0.0
  0
LINE
  5
8E
330
1F
100
AcDbEntity
  8
1
  6
CONTINUOUS
 62
     7
100
AcDbLine
 10
-49.81508533131351
 20
-31.73194866986868
 30
0.0
 11
-49.96508533131351
 21
-31.83194866986868
 31
0.0
  0
LINE
  5
8F
330
1F
100
AcDbEntity
  8
1
  6
CONTINUOUS
 62
     7
100
AcDbLine
 10
-49.71508533131351
 20
-31.63194866986868
 30
0.0
 11
-49.81508533131351
 21
-31.73194866986868
 31
0.0
  0
LINE
  5
90
330
1F
100
AcDbEntity
  8
1
  6
CONTINUOUS
 62
     7
100
AcDbLine
 10
-49.61508533131351
 20
-31.48194866986868
 30
0.0
 11
-49.71508533131351
 21
-31.63194866986868
 31
0.0
  0
LINE
  5
91
330
1F
100
AcDbEntity
  8
1
  6
CONTINUOUS
 62
     7
100
AcDbLine
 10
-49.56508533131351
 20
-31.28194866986868
 30
0.0
 11
-49.61508533131351
 21
-31.48194866986868
 31
0.0
  0
LINE
  5
92
330
1F
100
AcDbEntity
  8
1
  6
CONTINUOUS
 62
     7
100
AcDbLine
 10
-49.56508533131351
 20
-30.48194866986868
 30
0.0
 11
-49.56508533131351
 21
-31.28194866986868
 31
0.0
  0
LINE
  5
93
330
1F
100
AcDbEntity
  8
1
  6
CONTINUOUS
 62
     7
100
AcDbLine
 10
-51.81508533131351
 20
-30.03194866986868
 30
0.0
 11
-51.96508533131351
 21
-29.93194866986868
 31
0.0
  0
LINE
  5
94
330
1F
100
AcDbEntity
  8
1
  6
CONTINUOUS
 62
     7
100
AcDbLine
 10
-51.71508533131351
 20
-30.13194866986868
 30
0.0
 11
-51.81508533131351
 21
-30.03194866986868
 31
0.0
  0
LINE
  5
95
330
1F
100
AcDbEntity
  8
1
  6
CONTINUOUS
 62
     7
100
AcDbLine
 10
-51.61508533131351
 20
-30.28194866986868
 30
0.0
 11
-51.71508533131351
 21
-30.13194866986868
 31
0.0
  0
LINE
  5
96
330
1F
100
AcDbEntity
  8
1
  6
CONTINUOUS
 62
     7
100
AcDbLine
 10
-51.56508533131351
 20
-30.48194866986868
 30
0.0
 11
-51.61508533131351
 21
-30.28194866986868
 31
0.0
  0
LINE
  5
97
330
1F
100
AcDbEntity
  8
1
  6
CONTINUOUS
 62
     7
100
AcDbLine
 10
-51.56508533131351
 20
-31.28194866986868
 30
0.0
 11
-51.56508533131351
 21
-30.48194866986868
 31
0.0
  0
LINE
  5
98
330
1F
100
AcDbEntity
  8
1
  6
CONTINUOUS
 62
     7
100
AcDbLine
 10
-51.61508533131351
 20
-31.48194866986868
 30
0.0
 11
-51.56508533131351
 21
-31.28194866986868
 31
0.0
  0
LINE
  5
99
330
1F
100
AcDbEntity
  8
1
  6
CONTINUOUS
 62
     7
100
AcDbLine
 10
-51.71508533131351
 20
-31.63194866986868
 30
0.0
 11
-51.61508533131351
 21
-31.48194866986868
 31
0.0
  0
LINE
  5
9A
330
1F
100
AcDbEntity
  8
1
  6
CONTINUOUS
 62
     7
100
AcDbLine
 10
-51.81508533131351
 20
-31.73194866986868
 30
0.0
 11
-51.71508533131351
 21
-31.63194866986868
 31
0.0
  0
LINE
  5
9B
330
1F
100
AcDbEntity
  8
1
  6
CONTINUOUS
 62
     7
100
AcDbLine
 10
-51.96508533131351
 20
-31.83194866986868
 30
0.0
 11
-51.81508533131351
 21
-31.73194866986868
 31
0.0
  0
LINE
  5
9C
330
1F
100
AcDbEntity
  8
1
  6
CONTINUOUS
 62
     7
100
AcDbLine
 10
-52.11508533131351
 20
-31.88194866986868
 30
0.0
 11
-51.96508533131351
 21
-31.83194866986868
 31
0.0
  0
LINE
  5
9D
330
1F
100
AcDbEntity
  8
1
  6
CONTINUOUS
 62
     7
100
AcDbLine
 10
-52.41508533131351
 20
-31.88194866986868
 30
0.0
 11
-52.11508533131351
 21
-31.88194866986868
 31
0.0
  0
LINE
  5
9E
330
1F
100
AcDbEntity
  8
1
  6
CONTINUOUS
 62
     7
100
AcDbLine
 10
-52.56508533131351
 20
-31.83194866986868
 30
0.0
 11
-52.41508533131351
 21
-31.88194866986868
 31
0.0
  0
LINE
  5
9F
330
1F
100
AcDbEntity
  8
1
  6
CONTINUOUS
 62
     7
100
AcDbLine
 10
-52.71508533131351
 20
-31.73194866986868
 30
0.0
 11
-52.56508533131351
 21
-31.83194866986868
 31
0.0
  0
LINE
  5
A0
330
1F
100
AcDbEntity
  8
1
  6
CONTINUOUS
 62
     7
100
AcDbLine
 10
-52.81508533131351
 20
-31.63194866986868
 30
0.0
 11
-52.71508533131351
 21
-31.73194866986868
 31
0.0
  0
LINE
  5
A1
330
1F
100
AcDbEntity
  8
1
  6
CONTINUOUS
 62
     7
100
AcDbLine
 10
-52.91508533131351
 20
-31.48194866986868
 30
0.0
 11
-52.81508533131351
 21
-31.63194866986868
 31
0.0
  0
LINE
  5
A2
330
1F
100
AcDbEntity
  8
1
  6
CONTINUOUS
 62
     7
100
AcDbLine
 10
-52.96508533131351
 20
-31.28194866986868
 30
0.0
 11
-52.91508533131351
 21
-31.48194866986868
 31
0.0
  0
LINE
  5
A3
330
1F
100
AcDbEntity
  8
1
  6
CONTINUOUS
 62
     7
100
AcDbLine
 10
-52.96508533131351
 20
-30.48194866986868
 30
0.0
 11
-52.96508533131351
 21
-31.28194866986868
 31
0.0
  0
LINE
  5
A4
330
1F
100
AcDbEntity
  8
1
  6
CONTINUOUS
 62
     7
100
AcDbLine
 10
-52.91508533131351
 20
-30.28194866986868
 30
0.0
 11
-52.96508533131351
 21
-30.48194866986868
 31
0.0
  0
LINE
  5
A5
330
1F
100
AcDbEntity
  8
1
  6
CONTINUOUS
 62
     7
100
AcDbLine
 10
-52.81508533131351
 20
-30.13194866986868
 30
0.0
 11
-52.91508533131351
 21
-30.28194866986868
 31
0.0
  0
LINE
  5
A6
330
1F
100
AcDbEntity
  8
1
  6
CONTINUOUS
 62
     7
100
AcDbLine
 10
-52.71508533131351
 20
-30.03194866986868
 30
0.0
 11
-52.81508533131351
 21
-30.13194866986868
 31
0.0
  0
LINE
  5
A7
330
1F
100
AcDbEntity
  8
1
  6
CONTINUOUS
 62
     7
100
AcDbLine
 10
-52.56508533131351
 20
-29.93194866986868
 30
0.0
 11
-52.71508533131351
 21
-30.03194866986868
 31
0.0
  0
LINE
  5
A8
330
1F
100
AcDbEntity
  8
1
  6
CONTINUOUS
 62
     7
100
AcDbLine
 10
-52.41508533131351
 20
-29.88194866986868
 30
0.0
 11
-52.56508533131351
 21
-29.93194866986868
 31
0.0
  0
LINE
  5
A9
330
1F
100
AcDbEntity
  8
1
  6
CONTINUOUS
 62
     7
100
AcDbLine
 10
-52.11508533131351
 20
-29.88194866986868
 30
0.0
 11
-52.41508533131351
 21
-29.88194866986868
 31
0.0
  0
LINE
  5
AA
330
1F
100
AcDbEntity
  8
1
  6
CONTINUOUS
 62
     7
100
AcDbLine
 10
-51.96508533131351
 20
-29.93194866986868
 30
0.0
 11
-52.11508533131351
 21
-29.88194866986868
 31
0.0
  0
LINE
  5
AB
330
1F
100
AcDbEntity
  8
1
  6
CONTINUOUS
 62
     7
100
AcDbLine
 10
-53.56508533131351
 20
-29.88194866986868
 30
0.0
 11
-53.56508533131351
 21
-31.88194866986868
 31
0.0
  0
LINE
  5
AC
330
1F
100
AcDbEntity
  8
1
  6
CONTINUOUS
 62
     7
100
AcDbLine
 10
-54.26508533131351
 20
-30.98194866986868
 30
0.0
 11
-53.56508533131351
 21
-29.88194866986868
 31
0.0
  0
LINE
  5
AD
330
1F
100
AcDbEntity
  8
1
  6
CONTINUOUS
 62
     7
100
AcDbLine
 10
-54.96508533131351
 20
-29.88194866986868
 30
0.0
 11
-54.26508533131351
 21
-30.98194866986868
 31
0.0
  0
LINE
  5
AE
330
1F
100
AcDbEntity
  8
1
  6
CONTINUOUS
 62
     7
100
AcDbLine
 10
-54.96508533131351
 20
-31.88194866986868
 30
0.0
 11
-54.96508533131351
 21
-29.88194866986868
 31
0.0
  0
LINE
  5
AF
330
1F
100
AcDbEntity
  8
1
  6
CONTINUOUS
 62
     7
100
AcDbLine
 10
-48.16508533131351
 20
-20.38194866986856
 30
0.0
 11
-48.16508533131351
 21
-22.38194866986856
 31
0.0
  0
LINE
  5
B0
330
1F
100
AcDbEntity
  8
1
  6
CONTINUOUS
 62
     7
100
AcDbLine
 10
-48.86508533131351
 20
-20.38194866986856
 30
0.0
 11
-48.16508533131351
 21
-20.38194866986856
 31
0.0
  0
LINE
  5
B1
330
1F
100
AcDbEntity
  8
1
  6
CONTINUOUS
 62
     7
100
AcDbLine
 10
-48.16508533131351
 20
-20.38194866986856
 30
0.0
 11
-47.46508533131351
 21
-20.38194866986856
 31
0.0
  0
LINE
  5
B2
330
1F
100
AcDbEntity
  8
1
  6
CONTINUOUS
 62
     7
100
AcDbLine
 10
-50.76508533131351
 20
-22.23194866986856
 30
0.0
 11
-50.86508533131351
 21
-22.13194866986856
 31
0.0
  0
LINE
  5
B3
330
1F
100
AcDbEntity
  8
1
  6
CONTINUOUS
 62
     7
100
AcDbLine
 10
-50.56508533131351
 20
-22.33194866986856
 30
0.0
 11
-50.76508533131351
 21
-22.23194866986856
 31
0.0
  0
LINE
  5
B4
330
1F
100
AcDbEntity
  8
1
  6
CONTINUOUS
 62
     7
100
AcDbLine
 10
-50.31508533131351
 20
-22.38194866986856
 30
0.0
 11
-50.56508533131351
 21
-22.33194866986856
 31
0.0
  0
LINE
  5
B5
330
1F
100
AcDbEntity
  8
1
  6
CONTINUOUS
 62
     7
100
AcDbLine
 10
-50.01508533131351
 20
-22.38194866986856
 30
0.0
 11
-50.31508533131351
 21
-22.38194866986856
 31
0.0
  0
LINE
  5
B6
330
1F
100
AcDbEntity
  8
1
  6
CONTINUOUS
 62
     7
100
AcDbLine
 10
-49.76508533131351
 20
-22.33194866986856
 30
0.0
 11
-50.01508533131351
 21
-22.38194866986856
 31
0.0
  0
LINE
  5
B7
330
1F
100
AcDbEntity
  8
1
  6
CONTINUOUS
 62
     7
100
AcDbLine
 10
-49.61508533131351
 20
-22.23194866986856
 30
0.0
 11
-49.76508533131351
 21
-22.33194866986856
 31
0.0
  0
LINE
  5
B8
330
1F
100
AcDbEntity
  8
1
  6
CONTINUOUS
 62
     7
100
AcDbLine
 10
-49.51508533131351
 20
-22.08194866986856
 30
0.0
 11
-49.61508533131351
 21
-22.23194866986856
 31
0.0
  0
LINE
  5
B9
330
1F
100
AcDbEntity
  8
1
  6
CONTINUOUS
 62
     7
100
AcDbLine
 10
-49.46508533131351
 20
-21.93194866986856
 30
0.0
 11
-49.51508533131351
 21
-22.08194866986856
 31
0.0
  0
LINE
  5
BA
330
1F
100
AcDbEntity
  8
1
  6
CONTINUOUS
 62
     7
100
AcDbLine
 10
-49.46508533131351
 20
-21.83194866986856
 30
0.0
 11
-49.46508533131351
 21
-21.93194866986856
 31
0.0
  0
LINE
  5
BB
330
1F
100
AcDbEntity
  8
1
  6
CONTINUOUS
 62
     7
100
AcDbLine
 10
-49.51508533131351
 20
-21.68194866986856
 30
0.0
 11
-49.46508533131351
 21
-21.83194866986856
 31
0.0
  0
LINE
  5
BC
330
1F
100
AcDbEntity
  8
1
  6
CONTINUOUS
 62
     7
100
AcDbLine
 10
-49.61508533131351
 20
-21.53194866986856
 30
0.0
 11
-49.51508533131351
 21
-21.68194866986856
 31
0.0
  0
LINE
  5
BD
330
1F
100
AcDbEntity
  8
1
  6
CONTINUOUS
 62
     7
100
AcDbLine
 10
-49.76508533131351
 20
-21.43194866986856
 30
0.0
 11
-49.61508533131351
 21
-21.53194866986856
 31
0.0
  0
LINE
  5
BE
330
1F
100
AcDbEntity
  8
1
  6
CONTINUOUS
 62
     7
100
AcDbLine
 10
-50.61508533131351
 20
-21.08194866986856
 30
0.0
 11
-49.76508533131351
 21
-21.43194866986856
 31
0.0
  0
LINE
  5
BF
330
1F
100
AcDbEntity
  8
1
  6
CONTINUOUS
 62
     7
100
AcDbLine
 10
-50.76508533131351
 20
-20.98194866986856
 30
0.0
 11
-50.61508533131351
 21
-21.08194866986856
 31
0.0
  0
LINE
  5
C0
330
1F
100
AcDbEntity
  8
1
  6
CONTINUOUS
 62
     7
100
AcDbLine
 10
-50.81508533131351
 20
-20.83194866986856
 30
0.0
 11
-50.76508533131351
 21
-20.98194866986856
 31
0.0
  0
LINE
  5
C1
330
1F
100
AcDbEntity
  8
1
  6
CONTINUOUS
 62
     7
100
AcDbLine
 10
-50.81508533131351
 20
-20.73194866986856
 30
0.0
 11
-50.81508533131351
 21
-20.83194866986856
 31
0.0
  0
LINE
  5
C2
330
1F
100
AcDbEntity
  8
1
  6
CONTINUOUS
 62
     7
100
AcDbLine
 10
-50.76508533131351
 20
-20.58194866986856
 30
0.0
 11
-50.81508533131351
 21
-20.73194866986856
 31
0.0
  0
LINE
  5
C3
330
1F
100
AcDbEntity
  8
1
  6
CONTINUOUS
 62
     7
100
AcDbLine
 10
-50.61508533131351
 20
-20.48194866986856
 30
0.0
 11
-50.76508533131351
 21
-20.58194866986856
 31
0.0
  0
LINE
  5
C4
330
1F
100
AcDbEntity
  8
1
  6
CONTINUOUS
 62
     7
100
AcDbLine
 10
-50.46508533131351
 20
-20.43194866986856
 30
0.0
 11
-50.61508533131351
 21
-20.48194866986856
 31
0.0
  0
LINE
  5
C5
330
1F
100
AcDbEntity
  8
1
  6
CONTINUOUS
 62
     7
100
AcDbLine
 10
-50.26508533131351
 20
-20.38194866986856
 30
0.0
 11
-50.46508533131351
 21
-20.43194866986856
 31
0.0
  0
LINE
  5
C6
330
1F
100
AcDbEntity
  8
1
  6
CONTINUOUS
 62
     7
100
AcDbLine
 10
-50.06508533131351
 20
-20.38194866986856
 30
0.0
 11
-50.26508533131351
 21
-20.38194866986856
 31
0.0
  0
LINE
  5
C7
330
1F
100
AcDbEntity
  8
1
  6
CONTINUOUS
 62
     7
100
AcDbLine
 10
-49.81508533131351
 20
-20.43194866986856
 30
0.0
 11
-50.06508533131351
 21
-20.38194866986856
 31
0.0
  0
LINE
  5
C8
330
1F
100
AcDbEntity
  8
1
  6
CONTINUOUS
 62
     7
100
AcDbLine
 10
-49.66508533131351
 20
-20.48194866986856
 30
0.0
 11
-49.81508533131351
 21
-20.43194866986856
 31
0.0
  0
LINE
  5
C9
330
1F
100
AcDbEntity
  8
1
  6
CONTINUOUS
 62
     7
100
AcDbLine
 10
-49.51508533131351
 20
-20.58194866986856
 30
0.0
 11
-49.66508533131351
 21
-20.48194866986856
 31
0.0
  0
LINE
  5
CA
330
1F
100
AcDbEntity
  8
1
  6
CONTINUOUS
 62
     7
100
AcDbLine
 10
-52.26508533131351
 20
-20.38194866986856
 30
0.0
 11
-51.4650853313135
 21
-22.38194866986856
 31
0.0
  0
LINE
  5
CB
330
1F
100
AcDbEntity
  8
1
  6
CONTINUOUS
 62
     7
100
AcDbLine
 10
-53.0650853313135
 20
-22.38194866986856
 30
0.0
 11
-52.26508533131351
 21
-20.38194866986856
 31
0.0
  0
LINE
  5
CC
330
1F
100
AcDbEntity
  8
1
  6
CONTINUOUS
 62
     7
100
AcDbLine
 10
-52.8150853313135
 20
-21.78194866986856
 30
0.0
 11
-51.7150853313135
 21
-21.78194866986856
 31
0.0
  0
LINE
  5
CD
330
1F
100
AcDbEntity
  8
1
  6
CONTINUOUS
 62
     7
100
AcDbLine
 10
-55.0650853313135
 20
-21.28194866986856
 30
0.0
 11
-55.0650853313135
 21
-22.38194866986856
 31
0.0
  0
LINE
  5
CE
330
1F
100
AcDbEntity
  8
1
  6
CONTINUOUS
 62
     7
100
AcDbLine
 10
-55.0650853313135
 20
-20.38194866986856
 30
0.0
 11
-55.0650853313135
 21
-21.28194866986856
 31
0.0
  0
LINE
  5
CF
330
1F
100
AcDbEntity
  8
1
  6
CONTINUOUS
 62
     7
100
AcDbLine
 10
-53.66508533131351
 20
-20.38194866986856
 30
0.0
 11
-55.0650853313135
 21
-20.38194866986856
 31
0.0
  0
LINE
  5
D0
330
1F
100
AcDbEntity
  8
1
  6
CONTINUOUS
 62
     7
100
AcDbLine
 10
-55.0650853313135
 20
-21.28194866986856
 30
0.0
 11
-53.66508533131351
 21
-21.28194866986856
 31
0.0
  0
LINE
  5
D1
330
1F
100
AcDbEntity
  8
1
  6
CONTINUOUS
 62
     7
100
AcDbLine
 10
-104.6400853313135
 20
-31.63194866986856
 30
0.0
 11
-103.7650853313135
 21
-29.13194866986856
 31
0.0
  0
LINE
  5
D2
330
1F
100
AcDbEntity
  8
1
  6
CONTINUOUS
 62
     7
100
AcDbLine
 10
-105.5150853313135
 20
-29.13194866986856
 30
0.0
 11
-104.6400853313135
 21
-31.63194866986856
 31
0.0
  0
LINE
  5
D3
330
1F
100
AcDbEntity
  8
1
  6
CONTINUOUS
 62
     7
100
AcDbLine
 10
-107.8900853313135
 20
-31.44444866986856
 30
0.0
 11
-108.0150853313135
 21
-31.31944866986856
 31
0.0
  0
LINE
  5
D4
330
1F
100
AcDbEntity
  8
1
  6
CONTINUOUS
 62
     7
100
AcDbLine
 10
-107.6400853313135
 20
-31.56944866986856
 30
0.0
 11
-107.8900853313135
 21
-31.44444866986856
 31
0.0
  0
LINE
  5
D5
330
1F
100
AcDbEntity
  8
1
  6
CONTINUOUS
 62
     7
100
AcDbLine
 10
-107.3275853313135
 20
-31.63194866986856
 30
0.0
 11
-107.6400853313135
 21
-31.56944866986856
 31
0.0
  0
LINE
  5
D6
330
1F
100
AcDbEntity
  8
1
  6
CONTINUOUS
 62
     7
100
AcDbLine
 10
-106.9525853313135
 20
-31.63194866986856
 30
0.0
 11
-107.3275853313135
 21
-31.63194866986856
 31
0.0
  0
LINE
  5
D7
330
1F
100
AcDbEntity
  8
1
  6
CONTINUOUS
 62
     7
100
AcDbLine
 10
-106.6400853313135
 20
-31.56944866986856
 30
0.0
 11
-106.9525853313135
 21
-31.63194866986856
 31
0.0
  0
LINE
  5
D8
330
1F
100
AcDbEntity
  8
1
  6
CONTINUOUS
 62
     7
100
AcDbLine
 10
-106.4525853313135
 20
-31.44444866986856
 30
0.0
 11
-106.6400853313135
 21
-31.56944866986856
 31
0.0
  0
LINE
  5
D9
330
1F
100
AcDbEntity
  8
1
  6
CONTINUOUS
 62
     7
100
AcDbLine
 10
-106.3275853313135
 20
-31.25694866986856
 30
0.0
 11
-106.4525853313135
 21
-31.44444866986856
 31
0.0
  0
LINE
  5
DA
330
1F
100
AcDbEntity
  8
1
  6
CONTINUOUS
 62
     7
100
AcDbLine
 10
-106.2650853313135
 20
-31.06944866986856
 30
0.0
 11
-106.3275853313135
 21
-31.25694866986856
 31
0.0
  0
LINE
  5
DB
330
1F
100
AcDbEntity
  8
1
  6
CONTINUOUS
 62
     7
100
AcDbLine
 10
-106.2650853313135
 20
-30.94444866986856
 30
0.0
 11
-106.2650853313135
 21
-31.06944866986856
 31
0.0
  0
LINE
  5
DC
330
1F
100
AcDbEntity
  8
1
  6
CONTINUOUS
 62
     7
100
AcDbLine
 10
-106.3275853313135
 20
-30.75694866986856
 30
0.0
 11
-106.2650853313135
 21
-30.94444866986856
 31
0.0
  0
LINE
  5
DD
330
1F
100
AcDbEntity
  8
1
  6
CONTINUOUS
 62
     7
100
AcDbLine
 10
-106.4525853313135
 20
-30.56944866986856
 30
0.0
 11
-106.3275853313135
 21
-30.75694866986856
 31
0.0
  0
LINE
  5
DE
330
1F
100
AcDbEntity
  8
1
  6
CONTINUOUS
 62
     7
100
AcDbLine
 10
-106.6400853313135
 20
-30.44444866986856
 30
0.0
 11
-106.4525853313135
 21
-30.56944866986856
 31
0.0
  0
LINE
  5
DF
330
1F
100
AcDbEntity
  8
1
  6
CONTINUOUS
 62
     7
100
AcDbLine
 10
-107.7025853313135
 20
-30.00694866986856
 30
0.0
 11
-106.6400853313135
 21
-30.44444866986856
 31
0.0
  0
LINE
  5
E0
330
1F
100
AcDbEntity
  8
1
  6
CONTINUOUS
 62
     7
100
AcDbLine
 10
-107.8900853313135
 20
-29.88194866986856
 30
0.0
 11
-107.7025853313135
 21
-30.00694866986856
 31
0.0
  0
LINE
  5
E1
330
1F
100
AcDbEntity
  8
1
  6
CONTINUOUS
 62
     7
100
AcDbLine
 10
-107.9525853313135
 20
-29.69444866986856
 30
0.0
 11
-107.8900853313135
 21
-29.88194866986856
 31
0.0
  0
LINE
  5
E2
330
1F
100
AcDbEntity
  8
1
  6
CONTINUOUS
 62
     7
100
AcDbLine
 10
-107.9525853313135
 20
-29.56944866986856
 30
0.0
 11
-107.9525853313135
 21
-29.69444866986856
 31
0.0
  0
LINE
  5
E3
330
1F
100
AcDbEntity
  8
1
  6
CONTINUOUS
 62
     7
100
AcDbLine
 10
-107.8900853313135
 20
-29.38194866986856
 30
0.0
 11
-107.9525853313135
 21
-29.56944866986856
 31
0.0
  0
LINE
  5
E4
330
1F
100
AcDbEntity
  8
1
  6
CONTINUOUS
 62
     7
100
AcDbLine
 10
-107.7025853313135
 20
-29.25694866986856
 30
0.0
 11
-107.8900853313135
 21
-29.38194866986856
 31
0.0
  0
LINE
  5
E5
330
1F
100
AcDbEntity
  8
1
  6
CONTINUOUS
 62
     7
100
AcDbLine
 10
-107.5150853313135
 20
-29.19444866986856
 30
0.0
 11
-107.7025853313135
 21
-29.25694866986856
 31
0.0
  0
LINE
  5
E6
330
1F
100
AcDbEntity
  8
1
  6
CONTINUOUS
 62
     7
100
AcDbLine
 10
-107.2650853313135
 20
-29.13194866986856
 30
0.0
 11
-107.5150853313135
 21
-29.19444866986856
 31
0.0
  0
LINE
  5
E7
330
1F
100
AcDbEntity
  8
1
  6
CONTINUOUS
 62
     7
100
AcDbLine
 10
-107.0150853313135
 20
-29.13194866986856
 30
0.0
 11
-107.2650853313135
 21
-29.13194866986856
 31
0.0
  0
LINE
  5
E8
330
1F
100
AcDbEntity
  8
1
  6
CONTINUOUS
 62
     7
100
AcDbLine
 10
-106.7025853313135
 20
-29.19444866986856
 30
0.0
 11
-107.0150853313135
 21
-29.13194866986856
 31
0.0
  0
LINE
  5
E9
330
1F
100
AcDbEntity
  8
1
  6
CONTINUOUS
 62
     7
100
AcDbLine
 10
-106.5150853313135
 20
-29.25694866986856
 30
0.0
 11
-106.7025853313135
 21
-29.19444866986856
 31
0.0
  0
LINE
  5
EA
330
1F
100
AcDbEntity
  8
1
  6
CONTINUOUS
 62
     7
100
AcDbLine
 10
-106.3275853313135
 20
-29.38194866986856
 30
0.0
 11
-106.5150853313135
 21
-29.25694866986856
 31
0.0
  0
LINE
  5
EB
330
1F
100
AcDbEntity
  8
1
  6
CONTINUOUS
 62
     7
100
AcDbLine
 10
-118.7400853313137
 20
-13.13194866986856
 30
0.0
 11
-117.8650853313137
 21
-10.63194866986856
 31
0.0
  0
LINE
  5
EC
330
1F
100
AcDbEntity
  8
1
  6
CONTINUOUS
 62
     7
100
AcDbLine
 10
-119.6150853313137
 20
-10.63194866986856
 30
0.0
 11
-118.7400853313137
 21
-13.13194866986856
 31
0.0
  0
LINE
  5
ED
330
1F
100
AcDbEntity
  8
1
  6
CONTINUOUS
 62
     7
100
AcDbLine
 10
-120.9275853313137
 20
-11.88194866986856
 30
0.0
 11
-122.1150853313137
 21
-11.88194866986856
 31
0.0
  0
LINE
  5
EE
330
1F
100
AcDbEntity
  8
1
  6
CONTINUOUS
 62
     7
100
AcDbLine
 10
-120.6775853313137
 20
-11.81944866986856
 30
0.0
 11
-120.9275853313137
 21
-11.88194866986856
 31
0.0
  0
LINE
  5
EF
330
1F
100
AcDbEntity
  8
1
  6
CONTINUOUS
 62
     7
100
AcDbLine
 10
-120.4900853313137
 20
-11.69444866986856
 30
0.0
 11
-120.6775853313137
 21
-11.81944866986856
 31
0.0
  0
LINE
  5
F0
330
1F
100
AcDbEntity
  8
1
  6
CONTINUOUS
 62
     7
100
AcDbLine
 10
-120.4275853313137
 20
-11.56944866986856
 30
0.0
 11
-120.4900853313137
 21
-11.69444866986856
 31
0.0
  0
LINE
  5
F1
330
1F
100
AcDbEntity
  8
1
  6
CONTINUOUS
 62
     7
100
AcDbLine
 10
-120.3650853313137
 20
-11.38194866986856
 30
0.0
 11
-120.4275853313137
 21
-11.56944866986856
 31
0.0
  0
LINE
  5
F2
330
1F
100
AcDbEntity
  8
1
  6
CONTINUOUS
 62
     7
100
AcDbLine
 10
-120.3650853313137
 20
-11.13194866986856
 30
0.0
 11
-120.3650853313137
 21
-11.38194866986856
 31
0.0
  0
LINE
  5
F3
330
1F
100
AcDbEntity
  8
1
  6
CONTINUOUS
 62
     7
100
AcDbLine
 10
-120.4275853313137
 20
-10.94444866986856
 30
0.0
 11
-120.3650853313137
 21
-11.13194866986856
 31
0.0
  0
LINE
  5
F4
330
1F
100
AcDbEntity
  8
1
  6
CONTINUOUS
 62
     7
100
AcDbLine
 10
-120.4900853313137
 20
-10.81944866986856
 30
0.0
 11
-120.4275853313137
 21
-10.94444866986856
 31
0.0
  0
LINE
  5
F5
330
1F
100
AcDbEntity
  8
1
  6
CONTINUOUS
 62
     7
100
AcDbLine
 10
-120.6775853313137
 20
-10.69444866986856
 30
0.0
 11
-120.4900853313137
 21
-10.81944866986856
 31
0.0
  0
LINE
  5
F6
330
1F
100
AcDbEntity
  8
1
  6
CONTINUOUS
 62
     7
100
AcDbLine
 10
-120.9275853313137
 20
-10.63194866986856
 30
0.0
 11
-120.6775853313137
 21
-10.69444866986856
 31
0.0
  0
LINE
  5
F7
330
1F
100
AcDbEntity
  8
1
  6
CONTINUOUS
 62
     7
100
AcDbLine
 10
-122.1150853313137
 20
-10.63194866986856
 30
0.0
 11
-120.9275853313137
 21
-10.63194866986856
 31
0.0
  0
LINE
  5
F8
330
1F
100
AcDbEntity
  8
1
  6
CONTINUOUS
 62
     7
100
AcDbLine
 10
-122.1150853313137
 20
-11.88194866986856
 30
0.0
 11
-122.1150853313137
 21
-10.63194866986856
 31
0.0
  0
LINE
  5
F9
330
1F
100
AcDbEntity
  8
1
  6
CONTINUOUS
 62
     7
100
AcDbLine
 10
-122.1150853313137
 20
-13.13194866986856
 30
0.0
 11
-122.1150853313137
 21
-11.88194866986856
 31
0.0
  0
LINE
  5
FA
330
1F
100
AcDbEntity
  8
1
  6
CONTINUOUS
 62
     2
100
AcDbLine
 10
-117.6682103313136
 20
-30.18194866986862
 30
0.0
 11
-117.6400853313136
 21
-30.33194866986862
 31
0.0
  0
LINE
  5
FB
330
1F
100
AcDbEntity
  8
1
  6
CONTINUOUS
 62
     2
100
AcDbLine
 10
-117.7244603313136
 20
-30.06944866986862
 30
0.0
 11
-117.6682103313136
 21
-30.18194866986862
 31
0.0
  0
LINE
  5
FC
330
1F
100
AcDbEntity
  8
1
  6
CONTINUOUS
 62
     2
100
AcDbLine
 10
-117.7807103313136
 20
-29.99444866986862
 30
0.0
 11
-117.7244603313136
 21
-30.06944866986862
 31
0.0
  0
LINE
  5
FD
330
1F
100
AcDbEntity
  8
1
  6
CONTINUOUS
 62
     2
100
AcDbLine
 10
-117.8650853313136
 20
-29.91944866986862
 30
0.0
 11
-117.7807103313136
 21
-29.99444866986862
 31
0.0
  0
LINE
  5
FE
330
1F
100
AcDbEntity
  8
1
  6
CONTINUOUS
 62
     2
100
AcDbLine
 10
-117.9775853313136
 20
-29.88194866986862
 30
0.0
 11
-117.8650853313136
 21
-29.91944866986862
 31
0.0
  0
LINE
  5
FF
330
1F
100
AcDbEntity
  8
1
  6
CONTINUOUS
 62
     2
100
AcDbLine
 10
-118.4275853313136
 20
-29.88194866986862
 30
0.0
 11
-117.9775853313136
 21
-29.88194866986862
 31
0.0
  0
LINE
  5
100
330
1F
100
AcDbEntity
  8
1
  6
CONTINUOUS
 62
     2
100
AcDbLine
 10
-118.4275853313136
 20
-31.38194866986862
 30
0.0
 11
-118.4275853313136
 21
-29.88194866986862
 31
0.0
  0
LINE
  5
101
330
1F
100
AcDbEntity
  8
1
  6
CONTINUOUS
 62
     2
100
AcDbLine
 10
-117.9775853313136
 20
-31.38194866986862
 30
0.0
 11
-118.4275853313136
 21
-31.38194866986862
 31
0.0
  0
LINE
  5
102
330
1F
100
AcDbEntity
  8
1
  6
CONTINUOUS
 62
     2
100
AcDbLine
 10
-117.8650853313136
 20
-31.34444866986862
 30
0.0
 11
-117.9775853313136
 21
-31.38194866986862
 31
0.0
  0
LINE
  5
103
330
1F
100
AcDbEntity
  8
1
  6
CONTINUOUS
 62
     2
100
AcDbLine
 10
-117.7807103313136
 20
-31.26944866986862
 30
0.0
 11
-117.8650853313136
 21
-31.34444866986862
 31
0.0
  0
LINE
  5
104
330
1F
100
AcDbEntity
  8
1
  6
CONTINUOUS
 62
     2
100
AcDbLine
 10
-117.7244603313136
 20
-31.19444866986862
 30
0.0
 11
-117.7807103313136
 21
-31.26944866986862
 31
0.0
  0
LINE
  5
105
330
1F
100
AcDbEntity
  8
1
  6
CONTINUOUS
 62
     2
100
AcDbLine
 10
-117.6682103313136
 20
-31.08194866986862
 30
0.0
 11
-117.7244603313136
 21
-31.19444866986862
 31
0.0
  0
LINE
  5
106
330
1F
100
AcDbEntity
  8
1
  6
CONTINUOUS
 62
     2
100
AcDbLine
 10
-117.6400853313136
 20
-30.93194866986862
 30
0.0
 11
-117.6682103313136
 21
-31.08194866986862
 31
0.0
  0
LINE
  5
107
330
1F
100
AcDbEntity
  8
1
  6
CONTINUOUS
 62
     2
100
AcDbLine
 10
-117.6400853313136
 20
-30.33194866986862
 30
0.0
 11
-117.6400853313136
 21
-30.93194866986862
 31
0.0
  0
LINE
  5
108
330
1F
100
AcDbEntity
  8
1
  6
CONTINUOUS
 62
     2
100
AcDbLine
 10
-119.4400853313136
 20
-31.38194866986862
 30
0.0
 11
-119.4400853313136
 21
-29.88194866986862
 31
0.0
  0
LINE
  5
109
330
1F
100
AcDbEntity
  8
1
  6
CONTINUOUS
 62
     2
100
AcDbLine
 10
-118.7650853313136
 20
-31.38194866986862
 30
0.0
 11
-119.4400853313136
 21
-31.38194866986862
 31
0.0
  0
LINE
  5
10A
330
1F
100
AcDbEntity
  8
1
  6
CONTINUOUS
 62
     2
100
AcDbLine
 10
-119.9182103313136
 20
-29.99444866986862
 30
0.0
 11
-120.0025853313136
 21
-29.91944866986862
 31
0.0
  0
LINE
  5
10B
330
1F
100
AcDbEntity
  8
1
  6
CONTINUOUS
 62
     2
100
AcDbLine
 10
-119.8619603313136
 20
-30.06944866986862
 30
0.0
 11
-119.9182103313136
 21
-29.99444866986862
 31
0.0
  0
LINE
  5
10C
330
1F
100
AcDbEntity
  8
1
  6
CONTINUOUS
 62
     2
100
AcDbLine
 10
-119.8057103313136
 20
-30.18194866986862
 30
0.0
 11
-119.8619603313136
 21
-30.06944866986862
 31
0.0
  0
LINE
  5
10D
330
1F
100
AcDbEntity
  8
1
  6
CONTINUOUS
 62
     2
100
AcDbLine
 10
-119.7775853313136
 20
-30.33194866986862
 30
0.0
 11
-119.8057103313136
 21
-30.18194866986862
 31
0.0
  0
LINE
  5
10E
330
1F
100
AcDbEntity
  8
1
  6
CONTINUOUS
 62
     2
100
AcDbLine
 10
-119.7775853313136
 20
-30.93194866986862
 30
0.0
 11
-119.7775853313136
 21
-30.33194866986862
 31
0.0
  0
LINE
  5
10F
330
1F
100
AcDbEntity
  8
1
  6
CONTINUOUS
 62
     2
100
AcDbLine
 10
-119.8057103313136
 20
-31.08194866986862
 30
0.0
 11
-119.7775853313136
 21
-30.93194866986862
 31
0.0
  0
LINE
  5
110
330
1F
100
AcDbEntity
  8
1
  6
CONTINUOUS
 62
     2
100
AcDbLine
 10
-119.8619603313136
 20
-31.19444866986862
 30
0.0
 11
-119.8057103313136
 21
-31.08194866986862
 31
0.0
  0
LINE
  5
111
330
1F
100
AcDbEntity
  8
1
  6
CONTINUOUS
 62
     2
100
AcDbLine
 10
-119.9182103313136
 20
-31.26944866986862
 30
0.0
 11
-119.8619603313136
 21
-31.19444866986862
 31
0.0
  0
LINE
  5
112
330
1F
100
AcDbEntity
  8
1
  6
CONTINUOUS
 62
     2
100
AcDbLine
 10
-120.0025853313136
 20
-31.34444866986862
 30
0.0
 11
-119.9182103313136
 21
-31.26944866986862
 31
0.0
  0
LINE
  5
113
330
1F
100
AcDbEntity
  8
1
  6
CONTINUOUS
 62
     2
100
AcDbLine
 10
-120.0869603313136
 20
-31.38194866986862
 30
0.0
 11
-120.0025853313136
 21
-31.34444866986862
 31
0.0
  0
LINE
  5
114
330
1F
100
AcDbEntity
  8
1
  6
CONTINUOUS
 62
     2
100
AcDbLine
 10
-120.2557103313136
 20
-31.38194866986862
 30
0.0
 11
-120.0869603313136
 21
-31.38194866986862
 31
0.0
  0
LINE
  5
115
330
1F
100
AcDbEntity
  8
1
  6
CONTINUOUS
 62
     2
100
AcDbLine
 10
-120.3400853313136
 20
-31.34444866986862
 30
0.0
 11
-120.2557103313136
 21
-31.38194866986862
 31
0.0
  0
LINE
  5
116
330
1F
100
AcDbEntity
  8
1
  6
CONTINUOUS
 62
     2
100
AcDbLine
 10
-120.4244603313136
 20
-31.26944866986862
 30
0.0
 11
-120.3400853313136
 21
-31.34444866986862
 31
0.0
  0
LINE
  5
117
330
1F
100
AcDbEntity
  8
1
  6
CONTINUOUS
 62
     2
100
AcDbLine
 10
-120.4807103313136
 20
-31.19444866986862
 30
0.0
 11
-120.4244603313136
 21
-31.26944866986862
 31
0.0
  0
LINE
  5
118
330
1F
100
AcDbEntity
  8
1
  6
CONTINUOUS
 62
     2
100
AcDbLine
 10
-120.5369603313136
 20
-31.08194866986862
 30
0.0
 11
-120.4807103313136
 21
-31.19444866986862
 31
0.0
  0
LINE
  5
119
330
1F
100
AcDbEntity
  8
1
  6
CONTINUOUS
 62
     2
100
AcDbLine
 10
-120.5650853313136
 20
-30.93194866986862
 30
0.0
 11
-120.5369603313136
 21
-31.08194866986862
 31
0.0
  0
LINE
  5
11A
330
1F
100
AcDbEntity
  8
1
  6
CONTINUOUS
 62
     2
100
AcDbLine
 10
-120.5650853313136
 20
-30.33194866986862
 30
0.0
 11
-120.5650853313136
 21
-30.93194866986862
 31
0.0
  0
LINE
  5
11B
330
1F
100
AcDbEntity
  8
1
  6
CONTINUOUS
 62
     2
100
AcDbLine
 10
-120.5369603313136
 20
-30.18194866986862
 30
0.0
 11
-120.5650853313136
 21
-30.33194866986862
 31
0.0
  0
LINE
  5
11C
330
1F
100
AcDbEntity
  8
1
  6
CONTINUOUS
 62
     2
100
AcDbLine
 10
-120.4807103313136
 20
-30.06944866986862
 30
0.0
 11
-120.5369603313136
 21
-30.18194866986862
 31
0.0
  0
LINE
  5
11D
330
1F
100
AcDbEntity
  8
1
  6
CONTINUOUS
 62
     2
100
AcDbLine
 10
-120.4244603313136
 20
-29.99444866986862
 30
0.0
 11
-120.4807103313136
 21
-30.06944866986862
 31
0.0
  0
LINE
  5
11E
330
1F
100
AcDbEntity
  8
1
  6
CONTINUOUS
 62
     2
100
AcDbLine
 10
-120.3400853313136
 20
-29.91944866986862
 30
0.0
 11
-120.4244603313136
 21
-29.99444866986862
 31
0.0
  0
LINE
  5
11F
330
1F
100
AcDbEntity
  8
1
  6
CONTINUOUS
 62
     2
100
AcDbLine
 10
-120.2557103313136
 20
-29.88194866986862
 30
0.0
 11
-120.3400853313136
 21
-29.91944866986862
 31
0.0
  0
LINE
  5
120
330
1F
100
AcDbEntity
  8
1
  6
CONTINUOUS
 62
     2
100
AcDbLine
 10
-120.0869603313136
 20
-29.88194866986862
 30
0.0
 11
-120.2557103313136
 21
-29.88194866986862
 31
0.0
  0
LINE
  5
121
330
1F
100
AcDbEntity
  8
1
  6
CONTINUOUS
 62
     2
100
AcDbLine
 10
-120.0025853313136
 20
-29.91944866986862
 30
0.0
 11
-120.0869603313136
 21
-29.88194866986862
 31
0.0
  0
LINE
  5
122
330
1F
100
AcDbEntity
  8
1
  6
CONTINUOUS
 62
     2
100
AcDbLine
 10
-121.6900853313136
 20
-30.55694866986862
 30
0.0
 11
-121.6900853313136
 21
-30.63194866986862
 31
0.0
  0
LINE
  5
123
330
1F
100
AcDbEntity
  8
1
  6
CONTINUOUS
 62
     2
100
AcDbLine
 10
-120.9025853313136
 20
-30.55694866986862
 30
0.0
 11
-120.9025853313136
 21
-31.38194866986862
 31
0.0
  0
LINE
  5
124
330
1F
100
AcDbEntity
  8
1
  6
CONTINUOUS
 62
     2
100
AcDbLine
 10
-121.6900853313136
 20
-30.63194866986862
 30
0.0
 11
-121.6900853313136
 21
-31.38194866986862
 31
0.0
  0
LINE
  5
125
330
1F
100
AcDbEntity
  8
1
  6
CONTINUOUS
 62
     2
100
AcDbLine
 10
-121.6900853313136
 20
-29.88194866986862
 30
0.0
 11
-121.6900853313136
 21
-30.55694866986862
 31
0.0
  0
LINE
  5
126
330
1F
100
AcDbEntity
  8
1
  6
CONTINUOUS
 62
     2
100
AcDbLine
 10
-121.6900853313136
 20
-30.55694866986862
 30
0.0
 11
-120.9025853313136
 21
-30.55694866986862
 31
0.0
  0
LINE
  5
127
330
1F
100
AcDbEntity
  8
1
  6
CONTINUOUS
 62
     2
100
AcDbLine
 10
-120.9025853313136
 20
-29.88194866986862
 30
0.0
 11
-120.9025853313136
 21
-30.55694866986862
 31
0.0
  0
LINE
  5
128
330
1F
100
AcDbEntity
  8
1
  6
CONTINUOUS
 62
     2
100
AcDbLine
 10
-111.1275853313136
 20
-38.38194866986862
 30
0.0
 11
-111.6900853313136
 21
-38.38194866986862
 31
0.0
  0
LINE
  5
129
330
1F
100
AcDbEntity
  8
1
  6
CONTINUOUS
 62
     2
100
AcDbLine
 10
-111.0150853313136
 20
-38.34444866986862
 30
0.0
 11
-111.1275853313136
 21
-38.38194866986862
 31
0.0
  0
LINE
  5
12A
330
1F
100
AcDbEntity
  8
1
  6
CONTINUOUS
 62
     2
100
AcDbLine
 10
-110.9025853313136
 20
-38.26944866986862
 30
0.0
 11
-111.0150853313136
 21
-38.34444866986862
 31
0.0
  0
LINE
  5
12B
330
1F
100
AcDbEntity
  8
1
  6
CONTINUOUS
 62
     2
100
AcDbLine
 10
-110.8275853313136
 20
-38.15694866986862
 30
0.0
 11
-110.9025853313136
 21
-38.26944866986862
 31
0.0
  0
LINE
  5
12C
330
1F
100
AcDbEntity
  8
1
  6
CONTINUOUS
 62
     2
100
AcDbLine
 10
-110.7900853313136
 20
-38.00694866986862
 30
0.0
 11
-110.8275853313136
 21
-38.15694866986862
 31
0.0
  0
LINE
  5
12D
330
1F
100
AcDbEntity
  8
1
  6
CONTINUOUS
 62
     2
100
AcDbLine
 10
-110.7900853313136
 20
-37.81944866986862
 30
0.0
 11
-110.7900853313136
 21
-38.00694866986862
 31
0.0
  0
LINE
  5
12E
330
1F
100
AcDbEntity
  8
1
  6
CONTINUOUS
 62
     2
100
AcDbLine
 10
-110.8275853313136
 20
-37.66944866986862
 30
0.0
 11
-110.7900853313136
 21
-37.81944866986862
 31
0.0
  0
LINE
  5
12F
330
1F
100
AcDbEntity
  8
1
  6
CONTINUOUS
 62
     2
100
AcDbLine
 10
-110.8650853313136
 20
-37.59444866986862
 30
0.0
 11
-110.8275853313136
 21
-37.66944866986862
 31
0.0
  0
LINE
  5
130
330
1F
100
AcDbEntity
  8
1
  6
CONTINUOUS
 62
     2
100
AcDbLine
 10
-110.9400853313136
 20
-37.51944866986862
 30
0.0
 11
-110.8650853313136
 21
-37.59444866986862
 31
0.0
  0
LINE
  5
131
330
1F
100
AcDbEntity
  8
1
  6
CONTINUOUS
 62
     2
100
AcDbLine
 10
-111.0900853313136
 20
-37.48194866986862
 30
0.0
 11
-110.9400853313136
 21
-37.51944866986862
 31
0.0
  0
LINE
  5
132
330
1F
100
AcDbEntity
  8
1
  6
CONTINUOUS
 62
     2
100
AcDbLine
 10
-110.9775853313136
 20
-37.44444866986862
 30
0.0
 11
-111.0900853313136
 21
-37.48194866986862
 31
0.0
  0
LINE
  5
133
330
1F
100
AcDbEntity
  8
1
  6
CONTINUOUS
 62
     2
100
AcDbLine
 10
-110.9025853313136
 20
-37.40694866986862
 30
0.0
 11
-110.9775853313136
 21
-37.44444866986862
 31
0.0
  0
LINE
  5
134
330
1F
100
AcDbEntity
  8
1
  6
CONTINUOUS
 62
     2
100
AcDbLine
 10
-110.8275853313136
 20
-37.33194866986862
 30
0.0
 11
-110.9025853313136
 21
-37.40694866986862
 31
0.0
  0
LINE
  5
135
330
1F
100
AcDbEntity
  8
1
  6
CONTINUOUS
 62
     2
100
AcDbLine
 10
-110.7900853313136
 20
-37.21944866986862
 30
0.0
 11
-110.8275853313136
 21
-37.33194866986862
 31
0.0
  0
LINE
  5
136
330
1F
100
AcDbEntity
  8
1
  6
CONTINUOUS
 62
     2
100
AcDbLine
 10
-110.7900853313136
 20
-37.10694866986862
 30
0.0
 11
-110.7900853313136
 21
-37.21944866986862
 31
0.0
  0
LINE
  5
137
330
1F
100
AcDbEntity
  8
1
  6
CONTINUOUS
 62
     2
100
AcDbLine
 10
-110.8275853313136
 20
-36.99444866986862
 30
0.0
 11
-110.7900853313136
 21
-37.10694866986862
 31
0.0
  0
LINE
  5
138
330
1F
100
AcDbEntity
  8
1
  6
CONTINUOUS
 62
     2
100
AcDbLine
 10
-110.9400853313136
 20
-36.91944866986862
 30
0.0
 11
-110.8275853313136
 21
-36.99444866986862
 31
0.0
  0
LINE
  5
139
330
1F
100
AcDbEntity
  8
1
  6
CONTINUOUS
 62
     2
100
AcDbLine
 10
-111.1275853313136
 20
-36.88194866986862
 30
0.0
 11
-110.9400853313136
 21
-36.91944866986862
 31
0.0
  0
LINE
  5
13A
330
1F
100
AcDbEntity
  8
1
  6
CONTINUOUS
 62
     2
100
AcDbLine
 10
-111.6900853313136
 20
-36.88194866986862
 30
0.0
 11
-111.1275853313136
 21
-36.88194866986862
 31
0.0
  0
LINE
  5
13B
330
1F
100
AcDbEntity
  8
1
  6
CONTINUOUS
 62
     2
100
AcDbLine
 10
-111.4650853313136
 20
-37.48194866986862
 30
0.0
 11
-111.0900853313136
 21
-37.48194866986862
 31
0.0
  0
LINE
  5
13C
330
1F
100
AcDbEntity
  8
1
  6
CONTINUOUS
 62
     2
100
AcDbLine
 10
-112.7400853313136
 20
-36.88194866986862
 30
0.0
 11
-112.1400853313136
 21
-38.38194866986862
 31
0.0
  0
LINE
  5
13D
330
1F
100
AcDbEntity
  8
1
  6
CONTINUOUS
 62
     2
100
AcDbLine
 10
-113.3400853313136
 20
-38.38194866986862
 30
0.0
 11
-112.7400853313136
 21
-36.88194866986862
 31
0.0
  0
LINE
  5
13E
330
1F
100
AcDbEntity
  8
1
  6
CONTINUOUS
 62
     2
100
AcDbLine
 10
-113.1525853313136
 20
-37.93194866986862
 30
0.0
 11
-112.3275853313136
 21
-37.93194866986862
 31
0.0
  0
LINE
  5
13F
330
1F
100
AcDbEntity
  8
1
  6
CONTINUOUS
 62
     2
100
AcDbLine
 10
-111.6900853313136
 20
-34.88194866986862
 30
0.0
 11
-110.7900853313136
 21
-34.88194866986862
 31
0.0
  0
LINE
  5
140
330
1F
100
AcDbEntity
  8
1
  6
CONTINUOUS
 62
     2
100
AcDbLine
 10
-110.8650853313136
 20
-33.90694866986862
 30
0.0
 11
-111.6900853313136
 21
-34.88194866986862
 31
0.0
  0
LINE
  5
141
330
1F
100
AcDbEntity
  8
1
  6
CONTINUOUS
 62
     2
100
AcDbLine
 10
-110.7900853313136
 20
-33.75694866986862
 30
0.0
 11
-110.8650853313136
 21
-33.90694866986862
 31
0.0
  0
LINE
  5
142
330
1F
100
AcDbEntity
  8
1
  6
CONTINUOUS
 62
     2
100
AcDbLine
 10
-110.7900853313136
 20
-33.60694866986862
 30
0.0
 11
-110.7900853313136
 21
-33.75694866986862
 31
0.0
  0
LINE
  5
143
330
1F
100
AcDbEntity
  8
1
  6
CONTINUOUS
 62
     2
100
AcDbLine
 10
-110.8650853313136
 20
-33.49444866986862
 30
0.0
 11
-110.7900853313136
 21
-33.60694866986862
 31
0.0
  0
LINE
  5
144
330
1F
100
AcDbEntity
  8
1
  6
CONTINUOUS
 62
     2
100
AcDbLine
 10
-110.9775853313136
 20
-33.41944866986862
 30
0.0
 11
-110.8650853313136
 21
-33.49444866986862
 31
0.0
  0
LINE
  5
145
330
1F
100
AcDbEntity
  8
1
  6
CONTINUOUS
 62
     2
100
AcDbLine
 10
-111.1275853313136
 20
-33.38194866986862
 30
0.0
 11
-110.9775853313136
 21
-33.41944866986862
 31
0.0
  0
LINE
  5
146
330
1F
100
AcDbEntity
  8
1
  6
CONTINUOUS
 62
     2
100
AcDbLine
 10
-111.3525853313136
 20
-33.38194866986862
 30
0.0
 11
-111.1275853313136
 21
-33.38194866986862
 31
0.0
  0
LINE
  5
147
330
1F
100
AcDbEntity
  8
1
  6
CONTINUOUS
 62
     2
100
AcDbLine
 10
-111.5025853313136
 20
-33.41944866986862
 30
0.0
 11
-111.3525853313136
 21
-33.38194866986862
 31
0.0
  0
LINE
  5
148
330
1F
100
AcDbEntity
  8
1
  6
CONTINUOUS
 62
     2
100
AcDbLine
 10
-111.6150853313136
 20
-33.49444866986862
 30
0.0
 11
-111.5025853313136
 21
-33.41944866986862
 31
0.0
  0
LINE
  5
149
330
1F
100
AcDbEntity
  8
1
  6
CONTINUOUS
 62
     2
100
AcDbLine
 10
-111.6900853313136
 20
-33.60694866986862
 30
0.0
 11
-111.6150853313136
 21
-33.49444866986862
 31
0.0
  0
LINE
  5
14A
330
1F
100
AcDbEntity
  8
1
  6
CONTINUOUS
 62
     2
100
AcDbLine
 10
-112.7400853313136
 20
-33.38194866986862
 30
0.0
 11
-112.1400853313136
 21
-34.88194866986862
 31
0.0
  0
LINE
  5
14B
330
1F
100
AcDbEntity
  8
1
  6
CONTINUOUS
 62
     2
100
AcDbLine
 10
-113.3400853313136
 20
-34.88194866986862
 30
0.0
 11
-112.7400853313136
 21
-33.38194866986862
 31
0.0
  0
LINE
  5
14C
330
1F
100
AcDbEntity
  8
1
  6
CONTINUOUS
 62
     2
100
AcDbLine
 10
-113.1525853313136
 20
-34.43194866986862
 30
0.0
 11
-112.3275853313136
 21
-34.43194866986862
 31
0.0
  0
LINE
  5
14D
330
1F
100
AcDbEntity
  8
1
  6
CONTINUOUS
 62
     2
100
AcDbLine
 10
-111.0150853313136
 20
-29.88194866986862
 30
0.0
 11
-111.0150853313136
 21
-31.38194866986862
 31
0.0
  0
LINE
  5
14E
330
1F
100
AcDbEntity
  8
1
  6
CONTINUOUS
 62
     2
100
AcDbLine
 10
-111.4650853313136
 20
-30.33194866986862
 30
0.0
 11
-111.0150853313136
 21
-29.88194866986862
 31
0.0
  0
LINE
  5
14F
330
1F
100
AcDbEntity
  8
1
  6
CONTINUOUS
 62
     2
100
AcDbLine
 10
-112.5150853313136
 20
-29.88194866986862
 30
0.0
 11
-111.9150853313136
 21
-31.38194866986862
 31
0.0
  0
LINE
  5
150
330
1F
100
AcDbEntity
  8
1
  6
CONTINUOUS
 62
     2
100
AcDbLine
 10
-113.1150853313136
 20
-31.38194866986862
 30
0.0
 11
-112.5150853313136
 21
-29.88194866986862
 31
0.0
  0
LINE
  5
151
330
1F
100
AcDbEntity
  8
1
  6
CONTINUOUS
 62
     2
100
AcDbLine
 10
-112.9275853313136
 20
-30.93194866986862
 30
0.0
 11
-112.1025853313136
 21
-30.93194866986862
 31
0.0
  0
LINE
  5
152
330
1F
100
AcDbEntity
  8
1
  6
CONTINUOUS
 62
     2
100
AcDbLine
 10
-95.81508533131348
 20
-40.38194866986862
 30
0.0
 11
-95.81508533131348
 21
-41.88194866986862
 31
0.0
  0
LINE
  5
153
330
1F
100
AcDbEntity
  8
1
  6
CONTINUOUS
 62
     2
100
AcDbLine
 10
-96.26508533131349
 20
-40.83194866986862
 30
0.0
 11
-95.81508533131348
 21
-40.38194866986862
 31
0.0
  0
LINE
  5
154
330
1F
100
AcDbEntity
  8
1
  6
CONTINUOUS
 62
     2
100
AcDbLine
 10
-97.31508533131348
 20
-40.38194866986862
 30
0.0
 11
-96.71508533131347
 21
-41.88194866986862
 31
0.0
  0
LINE
  5
155
330
1F
100
AcDbEntity
  8
1
  6
CONTINUOUS
 62
     2
100
AcDbLine
 10
-97.91508533131348
 20
-41.88194866986862
 30
0.0
 11
-97.31508533131348
 21
-40.38194866986862
 31
0.0
  0
LINE
  5
156
330
1F
100
AcDbEntity
  8
1
  6
CONTINUOUS
 62
     2
100
AcDbLine
 10
-97.72758533131348
 20
-41.43194866986862
 30
0.0
 11
-96.90258533131347
 21
-41.43194866986862
 31
0.0
  0
LINE
  5
157
330
1F
100
AcDbEntity
  8
1
  6
CONTINUOUS
 62
     2
100
AcDbLine
 10
-88.89008533131351
 20
-41.88194866986862
 30
0.0
 11
-87.99008533131351
 21
-41.88194866986862
 31
0.0
  0
LINE
  5
158
330
1F
100
AcDbEntity
  8
1
  6
CONTINUOUS
 62
     2
100
AcDbLine
 10
-88.06508533131351
 20
-40.90694866986862
 30
0.0
 11
-88.89008533131351
 21
-41.88194866986862
 31
0.0
  0
LINE
  5
159
330
1F
100
AcDbEntity
  8
1
  6
CONTINUOUS
 62
     2
100
AcDbLine
 10
-87.99008533131351
 20
-40.75694866986862
 30
0.0
 11
-88.06508533131351
 21
-40.90694866986862
 31
0.0
  0
LINE
  5
15A
330
1F
100
AcDbEntity
  8
1
  6
CONTINUOUS
 62
     2
100
AcDbLine
 10
-87.99008533131351
 20
-40.60694866986862
 30
0.0
 11
-87.99008533131351
 21
-40.75694866986862
 31
0.0
  0
LINE
  5
15B
330
1F
100
AcDbEntity
  8
1
  6
CONTINUOUS
 62
     2
100
AcDbLine
 10
-88.06508533131351
 20
-40.49444866986862
 30
0.0
 11
-87.99008533131351
 21
-40.60694866986862
 31
0.0
  0
LINE
  5
15C
330
1F
100
AcDbEntity
  8
1
  6
CONTINUOUS
 62
     2
100
AcDbLine
 10
-88.17758533131351
 20
-40.41944866986862
 30
0.0
 11
-88.06508533131351
 21
-40.49444866986862
 31
0.0
  0
LINE
  5
15D
330
1F
100
AcDbEntity
  8
1
  6
CONTINUOUS
 62
     2
100
AcDbLine
 10
-88.32758533131351
 20
-40.38194866986862
 30
0.0
 11
-88.17758533131351
 21
-40.41944866986862
 31
0.0
  0
LINE
  5
15E
330
1F
100
AcDbEntity
  8
1
  6
CONTINUOUS
 62
     2
100
AcDbLine
 10
-88.55258533131351
 20
-40.38194866986862
 30
0.0
 11
-88.32758533131351
 21
-40.38194866986862
 31
0.0
  0
LINE
  5
15F
330
1F
100
AcDbEntity
  8
1
  6
CONTINUOUS
 62
     2
100
AcDbLine
 10
-88.70258533131351
 20
-40.41944866986862
 30
0.0
 11
-88.55258533131351
 21
-40.38194866986862
 31
0.0
  0
LINE
  5
160
330
1F
100
AcDbEntity
  8
1
  6
CONTINUOUS
 62
     2
100
AcDbLine
 10
-88.81508533131351
 20
-40.49444866986862
 30
0.0
 11
-88.70258533131351
 21
-40.41944866986862
 31
0.0
  0
LINE
  5
161
330
1F
100
AcDbEntity
  8
1
  6
CONTINUOUS
 62
     2
100
AcDbLine
 10
-88.89008533131351
 20
-40.60694866986862
 30
0.0
 11
-88.81508533131351
 21
-40.49444866986862
 31
0.0
  0
LINE
  5
162
330
1F
100
AcDbEntity
  8
1
  6
CONTINUOUS
 62
     2
100
AcDbLine
 10
-89.94008533131353
 20
-40.38194866986862
 30
0.0
 11
-89.34008533131352
 21
-41.88194866986862
 31
0.0
  0
LINE
  5
163
330
1F
100
AcDbEntity
  8
1
  6
CONTINUOUS
 62
     2
100
AcDbLine
 10
-90.54008533131352
 20
-41.88194866986862
 30
0.0
 11
-89.94008533131353
 21
-40.38194866986862
 31
0.0
  0
LINE
  5
164
330
1F
100
AcDbEntity
  8
1
  6
CONTINUOUS
 62
     2
100
AcDbLine
 10
-90.35258533131352
 20
-41.43194866986862
 30
0.0
 11
-89.52758533131352
 21
-41.43194866986862
 31
0.0
  0
LINE
  5
165
330
1F
100
AcDbEntity
  8
1
  6
CONTINUOUS
 62
     2
100
AcDbLine
 10
-80.72758533131349
 20
-41.88194866986862
 30
0.0
 11
-81.29008533131349
 21
-41.88194866986862
 31
0.0
  0
LINE
  5
166
330
1F
100
AcDbEntity
  8
1
  6
CONTINUOUS
 62
     2
100
AcDbLine
 10
-80.6150853313135
 20
-41.84444866986862
 30
0.0
 11
-80.72758533131349
 21
-41.88194866986862
 31
0.0
  0
LINE
  5
167
330
1F
100
AcDbEntity
  8
1
  6
CONTINUOUS
 62
     2
100
AcDbLine
 10
-80.5025853313135
 20
-41.76944866986862
 30
0.0
 11
-80.6150853313135
 21
-41.84444866986862
 31
0.0
  0
LINE
  5
168
330
1F
100
AcDbEntity
  8
1
  6
CONTINUOUS
 62
     2
100
AcDbLine
 10
-80.4275853313135
 20
-41.65694866986862
 30
0.0
 11
-80.5025853313135
 21
-41.76944866986862
 31
0.0
  0
LINE
  5
169
330
1F
100
AcDbEntity
  8
1
  6
CONTINUOUS
 62
     2
100
AcDbLine
 10
-80.39008533131349
 20
-41.50694866986862
 30
0.0
 11
-80.4275853313135
 21
-41.65694866986862
 31
0.0
  0
LINE
  5
16A
330
1F
100
AcDbEntity
  8
1
  6
CONTINUOUS
 62
     2
100
AcDbLine
 10
-80.39008533131349
 20
-41.31944866986862
 30
0.0
 11
-80.39008533131349
 21
-41.50694866986862
 31
0.0
  0
LINE
  5
16B
330
1F
100
AcDbEntity
  8
1
  6
CONTINUOUS
 62
     2
100
AcDbLine
 10
-80.4275853313135
 20
-41.16944866986862
 30
0.0
 11
-80.39008533131349
 21
-41.31944866986862
 31
0.0
  0
LINE
  5
16C
330
1F
100
AcDbEntity
  8
1
  6
CONTINUOUS
 62
     2
100
AcDbLine
 10
-80.46508533131349
 20
-41.09444866986862
 30
0.0
 11
-80.4275853313135
 21
-41.16944866986862
 31
0.0
  0
LINE
  5
16D
330
1F
100
AcDbEntity
  8
1
  6
CONTINUOUS
 62
     2
100
AcDbLine
 10
-80.54008533131349
 20
-41.01944866986862
 30
0.0
 11
-80.46508533131349
 21
-41.09444866986862
 31
0.0
  0
LINE
  5
16E
330
1F
100
AcDbEntity
  8
1
  6
CONTINUOUS
 62
     2
100
AcDbLine
 10
-80.6900853313135
 20
-40.98194866986862
 30
0.0
 11
-80.54008533131349
 21
-41.01944866986862
 31
0.0
  0
LINE
  5
16F
330
1F
100
AcDbEntity
  8
1
  6
CONTINUOUS
 62
     2
100
AcDbLine
 10
-80.57758533131349
 20
-40.94444866986862
 30
0.0
 11
-80.6900853313135
 21
-40.98194866986862
 31
0.0
  0
LINE
  5
170
330
1F
100
AcDbEntity
  8
1
  6
CONTINUOUS
 62
     2
100
AcDbLine
 10
-80.5025853313135
 20
-40.90694866986862
 30
0.0
 11
-80.57758533131349
 21
-40.94444866986862
 31
0.0
  0
LINE
  5
171
330
1F
100
AcDbEntity
  8
1
  6
CONTINUOUS
 62
     2
100
AcDbLine
 10
-80.4275853313135
 20
-40.83194866986862
 30
0.0
 11
-80.5025853313135
 21
-40.90694866986862
 31
0.0
  0
LINE
  5
172
330
1F
100
AcDbEntity
  8
1
  6
CONTINUOUS
 62
     2
100
AcDbLine
 10
-80.39008533131349
 20
-40.71944866986862
 30
0.0
 11
-80.4275853313135
 21
-40.83194866986862
 31
0.0
  0
LINE
  5
173
330
1F
100
AcDbEntity
  8
1
  6
CONTINUOUS
 62
     2
100
AcDbLine
 10
-80.39008533131349
 20
-40.60694866986862
 30
0.0
 11
-80.39008533131349
 21
-40.71944866986862
 31
0.0
  0
LINE
  5
174
330
1F
100
AcDbEntity
  8
1
  6
CONTINUOUS
 62
     2
100
AcDbLine
 10
-80.4275853313135
 20
-40.49444866986862
 30
0.0
 11
-80.39008533131349
 21
-40.60694866986862
 31
0.0
  0
LINE
  5
175
330
1F
100
AcDbEntity
  8
1
  6
CONTINUOUS
 62
     2
100
AcDbLine
 10
-80.54008533131349
 20
-40.41944866986862
 30
0.0
 11
-80.4275853313135
 21
-40.49444866986862
 31
0.0
  0
LINE
  5
176
330
1F
100
AcDbEntity
  8
1
  6
CONTINUOUS
 62
     2
100
AcDbLine
 10
-80.72758533131349
 20
-40.38194866986862
 30
0.0
 11
-80.54008533131349
 21
-40.41944866986862
 31
0.0
  0
LINE
  5
177
330
1F
100
AcDbEntity
  8
1
  6
CONTINUOUS
 62
     2
100
AcDbLine
 10
-81.29008533131349
 20
-40.38194866986862
 30
0.0
 11
-80.72758533131349
 21
-40.38194866986862
 31
0.0
  0
LINE
  5
178
330
1F
100
AcDbEntity
  8
1
  6
CONTINUOUS
 62
     2
100
AcDbLine
 10
-81.0650853313135
 20
-40.98194866986862
 30
0.0
 11
-80.6900853313135
 21
-40.98194866986862
 31
0.0
  0
LINE
  5
179
330
1F
100
AcDbEntity
  8
1
  6
CONTINUOUS
 62
     2
100
AcDbLine
 10
-82.3400853313135
 20
-40.38194866986862
 30
0.0
 11
-81.7400853313135
 21
-41.88194866986862
 31
0.0
  0
LINE
  5
17A
330
1F
100
AcDbEntity
  8
1
  6
CONTINUOUS
 62
     2
100
AcDbLine
 10
-82.9400853313135
 20
-41.88194866986862
 30
0.0
 11
-82.3400853313135
 21
-40.38194866986862
 31
0.0
  0
LINE
  5
17B
330
1F
100
AcDbEntity
  8
1
  6
CONTINUOUS
 62
     2
100
AcDbLine
 10
-82.7525853313135
 20
-41.43194866986862
 30
0.0
 11
-81.9275853313135
 21
-41.43194866986862
 31
0.0
  0
LINE
  5
17C
330
1F
100
AcDbEntity
  8
1
  6
CONTINUOUS
 62
     7
100
AcDbLine
 10
-40.16508533131349
 20
-47.78194866986857
 30
0.0
 11
-40.16508533131349
 21
-4.48194866986856
 31
0.0
  0
LINE
  5
17D
330
1F
100
AcDbEntity
  8
1
  6
CONTINUOUS
 62
     7
100
AcDbLine
 10
-128.3650853313135
 20
-47.78194866986857
 30
0.0
 11
-40.16508533131349
 21
-47.78194866986857
 31
0.0
  0
LINE
  5
17E
330
1F
100
AcDbEntity
  8
1
  6
CONTINUOUS
 62
     7
100
AcDbLine
 10
-102.2163344557045
 20
-35.19969787172252
 30
0.0
 11
-102.6911341835777
 21
-37.89242093636898
 31
0.0
  0
LINE
  5
17F
330
1F
100
AcDbEntity
  8
1
  6
CONTINUOUS
 62
     7
100
AcDbLine
 10
-102.9264337785883
 20
-38.47317069677044
 30
0.0
 11
-103.7936617356795
 21
-37.23464081845953
 31
0.0
  0
LINE
  5
180
330
1F
100
AcDbEntity
  8
1
  6
CONTINUOUS
 62
     7
100
AcDbLine
 10
-103.7936617356795
 20
-37.23464081845953
 30
0.0
 11
-103.4796022523078
 21
-35.45352098013478
 31
0.0
  0
LINE
  5
181
330
1F
100
AcDbEntity
  8
1
  6
CONTINUOUS
 62
     7
100
AcDbLine
 10
-102.6320606327695
 20
-34.60597936059656
 30
0.0
 11
-102.2163344557045
 21
-35.19969787172252
 31
0.0
  0
LINE
  5
182
330
1F
100
AcDbEntity
  8
1
  6
CONTINUOUS
 62
     7
100
AcDbLine
 10
-103.4796022523078
 20
-35.45352098013478
 30
0.0
 11
-102.6320606327695
 21
-34.60597936059656
 31
0.0
  0
LINE
  5
183
330
1F
100
AcDbEntity
  8
1
  6
CONTINUOUS
 62
     7
100
AcDbLine
 10
-101.3947615667438
 20
-30.54032648306887
 30
0.0
 11
-101.7883161388786
 21
-32.77228537304447
 31
0.0
  0
LINE
  5
184
330
1F
100
AcDbEntity
  8
1
  6
CONTINUOUS
 62
     7
100
AcDbLine
 10
-102.7037635371905
 20
-31.05352098013478
 30
0.0
 11
-101.484571707331
 21
-29.83432915027521
 31
0.0
  0
LINE
  5
185
330
1F
100
AcDbEntity
  8
1
  6
CONTINUOUS
 62
     7
100
AcDbLine
 10
-103.0178230205623
 20
-32.83464081845952
 30
0.0
 11
-102.7037635371905
 21
-31.05352098013478
 31
0.0
  0
LINE
  5
186
330
1F
100
AcDbEntity
  8
1
  6
CONTINUOUS
 62
     7
100
AcDbLine
 10
-102.5371474468214
 20
-33.52111668098721
 30
0.0
 11
-103.0178230205623
 21
-32.83464081845952
 31
0.0
  0
LINE
  5
187
330
1F
100
AcDbEntity
  8
1
  6
CONTINUOUS
 62
     7
100
AcDbLine
 10
-101.7883161388786
 20
-32.77228537304447
 30
0.0
 11
-102.5371474468214
 21
-33.52111668098721
 31
0.0
  0
LINE
  5
188
330
1F
100
AcDbEntity
  8
1
  6
CONTINUOUS
 62
     7
100
AcDbLine
 10
-103.0397579769646
 20
-34.02372721113039
 30
0.0
 11
-103.7479794357027
 21
-34.73194866986856
 31
0.0
  0
LINE
  5
189
330
1F
100
AcDbEntity
  8
1
  6
CONTINUOUS
 62
     7
100
AcDbLine
 10
-103.3841050186859
 20
-33.53194866986857
 30
0.0
 11
-103.0397579769646
 21
-34.02372721113039
 31
0.0
  0
LINE
  5
18A
330
1F
100
AcDbEntity
  8
1
  6
CONTINUOUS
 62
     7
100
AcDbLine
 10
-105.1821912269243
 20
-33.53194866986857
 30
0.0
 11
-103.3841050186859
 21
-33.53194866986857
 31
0.0
  0
LINE
  5
18B
330
1F
100
AcDbEntity
  8
1
  6
CONTINUOUS
 62
     7
100
AcDbLine
 10
-105.8904126856625
 20
-34.24017012860674
 30
0.0
 11
-105.1821912269243
 21
-33.53194866986857
 31
0.0
  0
LINE
  5
18C
330
1F
100
AcDbEntity
  8
1
  6
CONTINUOUS
 62
     7
100
AcDbLine
 10
-105.5460656439412
 20
-34.73194866986856
 30
0.0
 11
-105.8904126856625
 21
-34.24017012860674
 31
0.0
  0
LINE
  5
18D
330
1F
100
AcDbEntity
  8
1
  6
CONTINUOUS
 62
     7
100
AcDbLine
 10
-103.7479794357027
 20
-34.73194866986856
 30
0.0
 11
-105.5460656439412
 21
-34.73194866986856
 31
0.0
  0
LINE
  5
18E
330
1F
100
AcDbEntity
  8
1
  6
CONTINUOUS
 62
     7
100
AcDbLine
 10
-76.06508533131347
 20
-42.13194866986862
 30
0.0
 11
-72.06508533131347
 21
-42.13194866986862
 31
0.0
  0
LINE
  5
18F
330
1F
100
AcDbEntity
  8
1
  6
CONTINUOUS
 62
     7
100
AcDbLine
 10
-71.56508533131347
 20
-41.63194866986862
 30
0.0
 11
-71.56508533131347
 21
-40.63194866986862
 31
0.0
  0
LINE
  5
190
330
1F
100
AcDbEntity
  8
1
  6
CONTINUOUS
 62
     7
100
AcDbLine
 10
-72.06508533131347
 20
-40.13194866986862
 30
0.0
 11
-76.06508533131347
 21
-40.13194866986862
 31
0.0
  0
LINE
  5
191
330
1F
100
AcDbEntity
  8
1
  6
CONTINUOUS
 62
     7
100
AcDbLine
 10
-76.56508533131347
 20
-40.63194866986862
 30
0.0
 11
-76.56508533131347
 21
-41.63194866986862
 31
0.0
  0
LINE
  5
192
330
1F
100
AcDbEntity
  8
1
  6
CONTINUOUS
 62
     7
100
AcDbLine
 10
-114.5650853313136
 20
-40.63194866986862
 30
0.0
 11
-114.5650853313136
 21
-41.63194866986862
 31
0.0
  0
LINE
  5
193
330
1F
100
AcDbEntity
  8
1
  6
CONTINUOUS
 62
     7
100
AcDbLine
 10
-110.0650853313136
 20
-40.13194866986862
 30
0.0
 11
-114.0650853313136
 21
-40.13194866986862
 31
0.0
  0
LINE
  5
194
330
1F
100
AcDbEntity
  8
1
  6
CONTINUOUS
 62
     7
100
AcDbLine
 10
-109.5650853313136
 20
-41.63194866986862
 30
0.0
 11
-109.5650853313136
 21
-40.63194866986862
 31
0.0
  0
LINE
  5
195
330
1F
100
AcDbEntity
  8
1
  6
CONTINUOUS
 62
     7
100
AcDbLine
 10
-114.0650853313136
 20
-42.13194866986862
 30
0.0
 11
-110.0650853313136
 21
-42.13194866986862
 31
0.0
  0
LINE
  5
196
330
1F
100
AcDbEntity
  8
1
  6
CONTINUOUS
 62
     7
100
AcDbLine
 10
-122.1650853313136
 20
-33.63194866986856
 30
0.0
 11
-122.1650853313136
 21
-34.63194866986856
 31
0.0
  0
LINE
  5
197
330
1F
100
AcDbEntity
  8
1
  6
CONTINUOUS
 62
     7
100
AcDbLine
 10
-117.6650853313136
 20
-33.13194866986856
 30
0.0
 11
-121.6650853313136
 21
-33.13194866986856
 31
0.0
  0
LINE
  5
198
330
1F
100
AcDbEntity
  8
1
  6
CONTINUOUS
 62
     7
100
AcDbLine
 10
-117.1650853313136
 20
-34.63194866986856
 30
0.0
 11
-117.1650853313136
 21
-33.63194866986856
 31
0.0
  0
LINE
  5
199
330
1F
100
AcDbEntity
  8
1
  6
CONTINUOUS
 62
     7
100
AcDbLine
 10
-121.6650853313136
 20
-35.13194866986856
 30
0.0
 11
-117.6650853313136
 21
-35.13194866986856
 31
0.0
  0
LINE
  5
19A
330
1F
100
AcDbEntity
  8
1
  6
CONTINUOUS
 62
     7
100
AcDbLine
 10
-115.2901380410894
 20
-26.05212396040338
 30
0.0
 11
-116.249586622383
 21
-24.39031027035301
 31
0.0
  0
LINE
  5
19B
330
1F
100
AcDbEntity
  8
1
  6
CONTINUOUS
 62
     7
100
AcDbLine
 10
-113.9245573250349
 20
-20.41844665925375
 30
0.0
 11
-114.7287491305227
 21
-24.97924502520243
 31
0.0
  0
LINE
  5
19C
330
1F
100
AcDbEntity
  8
1
  6
CONTINUOUS
 62
     7
100
AcDbLine
 10
-116.249586622383
 20
-24.39031027035301
 30
0.0
 11
-115.5402175838423
 21
-20.36727853867748
 31
0.0
  0
LINE
  5
19D
330
1F
100
AcDbEntity
  8
1
  6
CONTINUOUS
 62
     7
100
AcDbLine
 10
-114.5346588556381
 20
-19.36171981047332
 30
0.0
 11
-113.9245573250349
 21
-20.41844665925375
 31
0.0
  0
LINE
  5
19E
330
1F
100
AcDbEntity
  8
1
  6
CONTINUOUS
 62
     7
100
AcDbLine
 10
-115.5402175838423
 20
-20.36727853867748
 30
0.0
 11
-114.5346588556381
 21
-19.36171981047332
 31
0.0
  0
LINE
  5
19F
330
1F
100
AcDbEntity
  8
1
  6
CONTINUOUS
 62
     7
100
AcDbLine
 10
-114.3845699534834
 20
-18.22168141465745
 30
0.0
 11
-114.980032361282
 21
-17.190310270353
 31
0.0
  0
LINE
  5
1A0
330
1F
100
AcDbEntity
  8
1
  6
CONTINUOUS
 62
     7
100
AcDbLine
 10
-113.3558102496845
 20
-17.1929217108585
 30
0.0
 11
-114.3845699534834
 21
-18.22168141465745
 31
0.0
  0
LINE
  5
1A1
330
1F
100
AcDbEntity
  8
1
  6
CONTINUOUS
 62
     7
100
AcDbLine
 10
-112.5093524422301
 20
-12.39242093636895
 30
0.0
 11
-113.3558102496845
 21
-17.1929217108585
 31
0.0
  0
LINE
  5
1A2
330
1F
100
AcDbEntity
  8
1
  6
CONTINUOUS
 62
     7
100
AcDbLine
 10
-114.980032361282
 20
-17.190310270353
 30
0.0
 11
-114.2706633227414
 21
-13.16727853867748
 31
0.0
  0
LINE
  5
1A3
330
1F
100
AcDbEntity
  8
1
  6
CONTINUOUS
 62
     7
100
AcDbLine
 10
-114.2706633227414
 20
-13.16727853867748
 30
0.0
 11
-112.6190248042055
 21
-11.51564002014163
 31
0.0
  0
LINE
  5
1A4
330
1F
100
AcDbEntity
  8
1
  6
CONTINUOUS
 62
     7
100
AcDbLine
 10
-114.8970055187817
 20
-18.73411697995567
 30
0.0
 11
-115.5948372086946
 21
-19.43194866986856
 31
0.0
  0
LINE
  5
1A5
330
1F
100
AcDbEntity
  8
1
  6
CONTINUOUS
 62
     7
100
AcDbLine
 10
-119.1122980271622
 20
-19.43194866986856
 30
0.0
 11
-119.6331651438453
 21
-18.52978035978146
 31
0.0
  0
LINE
  5
1A6
330
1F
100
AcDbEntity
  8
1
  6
CONTINUOUS
 62
     7
100
AcDbLine
 10
-115.5948372086946
 20
-19.43194866986856
 30
0.0
 11
-119.1122980271622
 21
-19.43194866986856
 31
0.0
  0
LINE
  5
1A7
330
1F
100
AcDbEntity
  8
1
  6
CONTINUOUS
 62
     7
100
AcDbLine
 10
-119.6331651438453
 20
-18.52978035978146
 30
0.0
 11
-118.9353334539325
 21
-17.83194866986857
 31
0.0
  0
LINE
  5
1A8
330
1F
100
AcDbEntity
  8
1
  6
CONTINUOUS
 62
     7
100
AcDbLine
 10
-115.4178726354648
 20
-17.83194866986857
 30
0.0
 11
-114.8970055187817
 21
-18.73411697995567
 31
0.0
  0
LINE
  5
1A9
330
1F
100
AcDbEntity
  8
1
  6
CONTINUOUS
 62
     7
100
AcDbLine
 10
-118.9353334539325
 20
-17.83194866986857
 30
0.0
 11
-115.4178726354648
 21
-17.83194866986857
 31
0.0
  0
LINE
  5
1AA
330
1F
100
AcDbEntity
  8
1
  6
CONTINUOUS
 62
     7
100
AcDbLine
 10
-62.26508533131351
 20
-32.36133265135408
 30
0.0
 11
-64.76508533131351
 21
-29.38194866986856
 31
0.0
  0
LINE
  5
1AB
330
1F
100
AcDbEntity
  8
1
  6
CONTINUOUS
 62
     7
100
AcDbLine
 10
-59.76508533131351
 20
-29.38194866986856
 30
0.0
 11
-62.26508533131351
 21
-32.36133265135408
 31
0.0
  0
LINE
  5
1AC
330
1F
100
AcDbEntity
  8
1
  6
CONTINUOUS
 62
     7
100
AcDbLine
 10
-64.76508533131351
 20
-29.38194866986856
 30
0.0
 11
-59.76508533131351
 21
-29.38194866986856
 31
0.0
  0
LINE
  5
1AD
330
1F
100
AcDbEntity
  8
1
  6
CONTINUOUS
 62
     7
100
AcDbLine
 10
-59.76508533131351
 20
-22.88194866986856
 30
0.0
 11
-64.76508533131351
 21
-22.88194866986856
 31
0.0
  0
LINE
  5
1AE
330
1F
100
AcDbEntity
  8
1
  6
CONTINUOUS
 62
     7
100
AcDbLine
 10
-62.26508533131351
 20
-19.90256468838304
 30
0.0
 11
-59.76508533131351
 21
-22.88194866986856
 31
0.0
  0
LINE
  5
1AF
330
1F
100
AcDbEntity
  8
1
  6
CONTINUOUS
 62
     7
100
AcDbLine
 10
-64.76508533131351
 20
-22.88194866986856
 30
0.0
 11
-62.26508533131351
 21
-19.90256468838304
 31
0.0
  0
LINE
  5
1B0
330
1F
100
AcDbEntity
  8
1
  6
CONTINUOUS
 62
     7
100
AcDbLine
 10
-47.06508533131352
 20
-35.93194866986858
 30
0.0
 11
-66.4650853313135
 21
-35.93194866986858
 31
0.0
  0
LINE
  5
1B1
330
1F
100
AcDbEntity
  8
1
  6
CONTINUOUS
 62
     7
100
AcDbLine
 10
-66.4650853313135
 20
-35.33194866986855
 30
0.0
 11
-47.06508533131352
 21
-35.33194866986855
 31
0.0
  0
LINE
  5
1B2
330
1F
100
AcDbEntity
  8
1
  6
CONTINUOUS
 62
     7
100
AcDbLine
 10
-66.4650853313135
 20
-34.13194866986856
 30
0.0
 11
-47.06508533131352
 21
-34.13194866986856
 31
0.0
  0
LINE
  5
1B3
330
1F
100
AcDbEntity
  8
1
  6
CONTINUOUS
 62
     7
100
AcDbLine
 10
-47.06508533131352
 20
-34.73194866986856
 30
0.0
 11
-66.4650853313135
 21
-34.73194866986856
 31
0.0
  0
LINE
  5
1B4
330
1F
100
AcDbEntity
  8
1
  6
CONTINUOUS
 62
     7
100
AcDbLine
 10
-66.4650853313135
 20
-36.53194866986857
 30
0.0
 11
-47.06508533131352
 21
-36.53194866986857
 31
0.0
  0
LINE
  5
1B5
330
1F
100
AcDbEntity
  8
1
  6
CONTINUOUS
 62
     7
100
AcDbLine
 10
-47.06508533131352
 20
-37.13194866986856
 30
0.0
 11
-66.4650853313135
 21
-37.13194866986856
 31
0.0
  0
LINE
  5
1B6
330
1F
100
AcDbEntity
  8
1
  6
CONTINUOUS
 62
     7
100
AcDbLine
 10
-47.06508533131352
 20
-16.93194866986856
 30
0.0
 11
-66.4650853313135
 21
-16.93194866986856
 31
0.0
  0
LINE
  5
1B7
330
1F
100
AcDbEntity
  8
1
  6
CONTINUOUS
 62
     7
100
AcDbLine
 10
-66.4650853313135
 20
-16.33194866986857
 30
0.0
 11
-47.06508533131352
 21
-16.33194866986857
 31
0.0
  0
LINE
  5
1B8
330
1F
100
AcDbEntity
  8
1
  6
CONTINUOUS
 62
     7
100
AcDbLine
 10
-66.4650853313135
 20
-15.13194866986856
 30
0.0
 11
-47.06508533131352
 21
-15.13194866986856
 31
0.0
  0
LINE
  5
1B9
330
1F
100
AcDbEntity
  8
1
  6
CONTINUOUS
 62
     7
100
AcDbLine
 10
-47.06508533131352
 20
-15.73194866986856
 30
0.0
 11
-66.4650853313135
 21
-15.73194866986856
 31
0.0
  0
LINE
  5
1BA
330
1F
100
AcDbEntity
  8
1
  6
CONTINUOUS
 62
     7
100
AcDbLine
 10
-66.4650853313135
 20
-17.53194866986857
 30
0.0
 11
-47.06508533131352
 21
-17.53194866986857
 31
0.0
  0
LINE
  5
1BB
330
1F
100
AcDbEntity
  8
1
  6
CONTINUOUS
 62
     7
100
AcDbLine
 10
-47.06508533131352
 20
-18.13194866986856
 30
0.0
 11
-66.4650853313135
 21
-18.13194866986856
 31
0.0
  0
LINE
  5
1BC
330
1F
100
AcDbEntity
  8
1
  6
CONTINUOUS
 62
     7
100
AcDbLine
 10
-47.06508533131352
 20
-27.63194866986856
 30
0.0
 11
-66.4650853313135
 21
-27.63194866986856
 31
0.0
  0
LINE
  5
1BD
330
1F
100
AcDbEntity
  8
1
  6
CONTINUOUS
 62
     7
100
AcDbLine
 10
-66.4650853313135
 20
-27.03194866986857
 30
0.0
 11
-47.06508533131352
 21
-27.03194866986857
 31
0.0
  0
LINE
  5
1BE
330
1F
100
AcDbEntity
  8
1
  6
CONTINUOUS
 62
     7
100
AcDbLine
 10
-47.06508533131352
 20
-25.23194866986856
 30
0.0
 11
-66.4650853313135
 21
-25.23194866986856
 31
0.0
  0
LINE
  5
1BF
330
1F
100
AcDbEntity
  8
1
  6
CONTINUOUS
 62
     7
100
AcDbLine
 10
-66.4650853313135
 20
-24.63194866986856
 30
0.0
 11
-47.06508533131352
 21
-24.63194866986856
 31
0.0
  0
LINE
  5
1C0
330
1F
100
AcDbEntity
  8
1
  6
CONTINUOUS
 62
     7
100
AcDbLine
 10
-66.4650853313135
 20
-25.83194866986855
 30
0.0
 11
-47.06508533131352
 21
-25.83194866986855
 31
0.0
  0
LINE
  5
1C1
330
1F
100
AcDbEntity
  8
1
  6
CONTINUOUS
 62
     7
100
AcDbLine
 10
-47.06508533131352
 20
-26.43194866986858
 30
0.0
 11
-66.4650853313135
 21
-26.43194866986858
 31
0.0
  0
LINE
  5
1C2
330
1F
100
AcDbEntity
  8
1
  6
CONTINUOUS
 62
     7
100
AcDbLine
 10
-126.2650853313135
 20
-8.13194866986856
 30
0.0
 11
-126.2650853313135
 21
-44.13194866986856
 31
0.0
  0
LINE
  5
1C3
330
1F
100
AcDbEntity
  8
1
  6
CONTINUOUS
 62
     7
100
AcDbLine
 10
-44.26508533131351
 20
-6.13194866986856
 30
0.0
 11
-124.2650853313135
 21
-6.13194866986856
 31
0.0
  0
LINE
  5
1C4
330
1F
100
AcDbEntity
  8
1
  6
CONTINUOUS
 62
     7
100
AcDbLine
 10
-42.26508533131351
 20
-44.13194866986856
 30
0.0
 11
-42.26508533131351
 21
-8.13194866986856
 31
0.0
  0
LINE
  5
1C5
330
1F
100
AcDbEntity
  8
1
  6
CONTINUOUS
 62
     7
100
AcDbLine
 10
-124.2650853313135
 20
-46.13194866986856
 30
0.0
 11
-44.26508533131351
 21
-46.13194866986856
 31
0.0
  0
LINE
  5
1C6
330
1F
100
AcDbEntity
  8
1
  6
CONTINUOUS
 62
     7
100
AcDbLine
 10
-124.2650853313135
 20
-10.13194866986845
 30
0.0
 11
-124.2650853313135
 21
-42.13194866986856
 31
0.0
  0
LINE
  5
1C7
330
1F
100
AcDbEntity
  8
1
  6
CONTINUOUS
 62
     7
100
AcDbLine
 10
-70.26508533131351
 20
-8.13194866986845
 30
0.0
 11
-122.2650853313135
 21
-8.13194866986845
 31
0.0
  0
LINE
  5
1C8
330
1F
100
AcDbEntity
  8
1
  6
CONTINUOUS
 62
     7
100
AcDbLine
 10
-68.26508533131351
 20
-42.13194866986856
 30
0.0
 11
-68.26508533131351
 21
-10.13194866986845
 31
0.0
  0
LINE
  5
1C9
330
1F
100
AcDbEntity
  8
1
  6
CONTINUOUS
 62
     7
100
AcDbLine
 10
-122.2650853313135
 20
-44.13194866986856
 30
0.0
 11
-70.26508533131351
 21
-44.13194866986856
 31
0.0
  0
LINE
  5
1CA
330
1F
100
AcDbEntity
  8
1
  6
CONTINUOUS
 62
     7
100
AcDbLine
 10
-121.6650853313136
 20
-31.63194866986862
 30
0.0
 11
-117.6650853313136
 21
-31.63194866986862
 31
0.0
  0
LINE
  5
1CB
330
1F
100
AcDbEntity
  8
1
  6
CONTINUOUS
 62
     7
100
AcDbLine
 10
-117.1650853313136
 20
-31.13194866986862
 30
0.0
 11
-117.1650853313136
 21
-30.13194866986862
 31
0.0
  0
LINE
  5
1CC
330
1F
100
AcDbEntity
  8
1
  6
CONTINUOUS
 62
     7
100
AcDbLine
 10
-117.6650853313136
 20
-29.63194866986862
 30
0.0
 11
-121.6650853313136
 21
-29.63194866986862
 31
0.0
  0
LINE
  5
1CD
330
1F
100
AcDbEntity
  8
1
  6
CONTINUOUS
 62
     7
100
AcDbLine
 10
-122.1650853313136
 20
-30.13194866986862
 30
0.0
 11
-122.1650853313136
 21
-31.13194866986862
 31
0.0
  0
LINE
  5
1CE
330
1F
100
AcDbEntity
  8
1
  6
CONTINUOUS
 62
     7
100
AcDbLine
 10
-114.0650853313136
 20
-38.63194866986862
 30
0.0
 11
-110.0650853313136
 21
-38.63194866986862
 31
0.0
  0
LINE
  5
1CF
330
1F
100
AcDbEntity
  8
1
  6
CONTINUOUS
 62
     7
100
AcDbLine
 10
-109.5650853313136
 20
-38.13194866986862
 30
0.0
 11
-109.5650853313136
 21
-37.13194866986862
 31
0.0
  0
LINE
  5
1D0
330
1F
100
AcDbEntity
  8
1
  6
CONTINUOUS
 62
     7
100
AcDbLine
 10
-110.0650853313136
 20
-36.63194866986862
 30
0.0
 11
-114.0650853313136
 21
-36.63194866986862
 31
0.0
  0
LINE
  5
1D1
330
1F
100
AcDbEntity
  8
1
  6
CONTINUOUS
 62
     7
100
AcDbLine
 10
-114.5650853313136
 20
-37.13194866986862
 30
0.0
 11
-114.5650853313136
 21
-38.13194866986862
 31
0.0
  0
LINE
  5
1D2
330
1F
100
AcDbEntity
  8
1
  6
CONTINUOUS
 62
     7
100
AcDbLine
 10
-114.0650853313136
 20
-35.13194866986862
 30
0.0
 11
-110.0650853313136
 21
-35.13194866986862
 31
0.0
  0
LINE
  5
1D3
330
1F
100
AcDbEntity
  8
1
  6
CONTINUOUS
 62
     7
100
AcDbLine
 10
-109.5650853313136
 20
-34.63194866986862
 30
0.0
 11
-109.5650853313136
 21
-33.63194866986862
 31
0.0
  0
LINE
  5
1D4
330
1F
100
AcDbEntity
  8
1
  6
CONTINUOUS
 62
     7
100
AcDbLine
 10
-110.0650853313136
 20
-33.13194866986862
 30
0.0
 11
-114.0650853313136
 21
-33.13194866986862
 31
0.0
  0
LINE
  5
1D5
330
1F
100
AcDbEntity
  8
1
  6
CONTINUOUS
 62
     7
100
AcDbLine
 10
-114.5650853313136
 20
-33.63194866986862
 30
0.0
 11
-114.5650853313136
 21
-34.63194866986862
 31
0.0
  0
LINE
  5
1D6
330
1F
100
AcDbEntity
  8
1
  6
CONTINUOUS
 62
     7
100
AcDbLine
 10
-114.0650853313136
 20
-31.63194866986862
 30
0.0
 11
-110.0650853313136
 21
-31.63194866986862
 31
0.0
  0
LINE
  5
1D7
330
1F
100
AcDbEntity
  8
1
  6
CONTINUOUS
 62
     7
100
AcDbLine
 10
-109.5650853313136
 20
-31.13194866986862
 30
0.0
 11
-109.5650853313136
 21
-30.13194866986862
 31
0.0
  0
LINE
  5
1D8
330
1F
100
AcDbEntity
  8
1
  6
CONTINUOUS
 62
     7
100
AcDbLine
 10
-110.0650853313136
 20
-29.63194866986862
 30
0.0
 11
-114.0650853313136
 21
-29.63194866986862
 31
0.0
  0
LINE
  5
1D9
330
1F
100
AcDbEntity
  8
1
  6
CONTINUOUS
 62
     7
100
AcDbLine
 10
-114.5650853313136
 20
-30.13194866986862
 30
0.0
 11
-114.5650853313136
 21
-31.13194866986862
 31
0.0
  0
LINE
  5
1DA
330
1F
100
AcDbEntity
  8
1
  6
CONTINUOUS
 62
     7
100
AcDbLine
 10
-98.86508533131348
 20
-42.13194866986862
 30
0.0
 11
-94.86508533131348
 21
-42.13194866986862
 31
0.0
  0
LINE
  5
1DB
330
1F
100
AcDbEntity
  8
1
  6
CONTINUOUS
 62
     7
100
AcDbLine
 10
-94.36508533131348
 20
-41.63194866986862
 30
0.0
 11
-94.36508533131348
 21
-40.63194866986862
 31
0.0
  0
LINE
  5
1DC
330
1F
100
AcDbEntity
  8
1
  6
CONTINUOUS
 62
     7
100
AcDbLine
 10
-94.86508533131348
 20
-40.13194866986862
 30
0.0
 11
-98.86508533131348
 21
-40.13194866986862
 31
0.0
  0
LINE
  5
1DD
330
1F
100
AcDbEntity
  8
1
  6
CONTINUOUS
 62
     7
100
AcDbLine
 10
-99.36508533131348
 20
-40.63194866986862
 30
0.0
 11
-99.36508533131348
 21
-41.63194866986862
 31
0.0
  0
LINE
  5
1DE
330
1F
100
AcDbEntity
  8
1
  6
CONTINUOUS
 62
     7
100
AcDbLine
 10
-91.26508533131351
 20
-42.13194866986862
 30
0.0
 11
-87.26508533131351
 21
-42.13194866986862
 31
0.0
  0
LINE
  5
1DF
330
1F
100
AcDbEntity
  8
1
  6
CONTINUOUS
 62
     7
100
AcDbLine
 10
-86.76508533131351
 20
-41.63194866986862
 30
0.0
 11
-86.76508533131351
 21
-40.63194866986862
 31
0.0
  0
LINE
  5
1E0
330
1F
100
AcDbEntity
  8
1
  6
CONTINUOUS
 62
     7
100
AcDbLine
 10
-87.26508533131351
 20
-40.13194866986862
 30
0.0
 11
-91.26508533131346
 21
-40.13194866986862
 31
0.0
  0
LINE
  5
1E1
330
1F
100
AcDbEntity
  8
1
  6
CONTINUOUS
 62
     7
100
AcDbLine
 10
-91.76508533131346
 20
-40.63194866986862
 30
0.0
 11
-91.76508533131346
 21
-41.63194866986862
 31
0.0
  0
LINE
  5
1E2
330
1F
100
AcDbEntity
  8
1
  6
CONTINUOUS
 62
     7
100
AcDbLine
 10
-84.16508533131349
 20
-40.63194866986862
 30
0.0
 11
-84.16508533131349
 21
-41.63194866986862
 31
0.0
  0
LINE
  5
1E3
330
1F
100
AcDbEntity
  8
1
  6
CONTINUOUS
 62
     7
100
AcDbLine
 10
-79.66508533131349
 20
-40.13194866986862
 30
0.0
 11
-83.66508533131349
 21
-40.13194866986862
 31
0.0
  0
LINE
  5
1E4
330
1F
100
AcDbEntity
  8
1
  6
CONTINUOUS
 62
     7
100
AcDbLine
 10
-79.16508533131349
 20
-41.63194866986862
 30
0.0
 11
-79.16508533131349
 21
-40.63194866986862
 31
0.0
  0
LINE
  5
1E5
330
1F
100
AcDbEntity
  8
1
  6
CONTINUOUS
 62
     7
100
AcDbLine
 10
-83.66508533131349
 20
-42.13194866986862
 30
0.0
 11
-79.66508533131349
 21
-42.13194866986862
 31
0.0
  0
LINE
  5
1E6
330
1F
100
AcDbEntity
  8
1
  6
CONTINUOUS
 62
     7
100
AcDbLine
 10
-98.29041268566243
 20
-34.24017012860674
 30
0.0
 11
-97.5821912269243
 21
-33.53194866986857
 31
0.0
  0
LINE
  5
1E7
330
1F
100
AcDbEntity
  8
1
  6
CONTINUOUS
 62
     7
100
AcDbLine
 10
-97.5821912269243
 20
-33.53194866986857
 30
0.0
 11
-95.78410501868586
 21
-33.53194866986857
 31
0.0
  0
LINE
  5
1E8
330
1F
100
AcDbEntity
  8
1
  6
CONTINUOUS
 62
     7
100
AcDbLine
 10
-95.78410501868586
 20
-33.53194866986857
 30
0.0
 11
-95.43975797696453
 21
-34.02372721113039
 31
0.0
  0
LINE
  5
1E9
330
1F
100
AcDbEntity
  8
1
  6
CONTINUOUS
 62
     7
100
AcDbLine
 10
-95.43975797696453
 20
-34.02372721113039
 30
0.0
 11
-96.14797943570267
 21
-34.73194866986856
 31
0.0
  0
LINE
  5
1EA
330
1F
100
AcDbEntity
  8
1
  6
CONTINUOUS
 62
     7
100
AcDbLine
 10
-96.14797943570267
 20
-34.73194866986856
 30
0.0
 11
-97.94606564394115
 21
-34.73194866986856
 31
0.0
  0
LINE
  5
1EB
330
1F
100
AcDbEntity
  8
1
  6
CONTINUOUS
 62
     7
100
AcDbLine
 10
-97.94606564394115
 20
-34.73194866986856
 30
0.0
 11
-98.29041268566243
 21
-34.24017012860674
 31
0.0
  0
LINE
  5
1EC
330
1F
100
AcDbEntity
  8
1
  6
CONTINUOUS
 62
     7
100
AcDbLine
 10
-98.31234764206471
 20
-35.42925652127761
 30
0.0
 11
-98.62640712543646
 21
-37.21037635960235
 31
0.0
  0
LINE
  5
1ED
330
1F
100
AcDbEntity
  8
1
  6
CONTINUOUS
 62
     7
100
AcDbLine
 10
-98.62640712543646
 20
-37.21037635960235
 30
0.0
 11
-99.84559895529605
 21
-38.42956818946192
 31
0.0
  0
LINE
  5
1EE
330
1F
100
AcDbEntity
  8
1
  6
CONTINUOUS
 62
     7
100
AcDbLine
 10
-99.93540909588319
 20
-37.72357085666826
 30
0.0
 11
-99.54185452374838
 21
-35.49161196669266
 31
0.0
  0
LINE
  5
1EF
330
1F
100
AcDbEntity
  8
1
  6
CONTINUOUS
 62
     7
100
AcDbLine
 10
-99.54185452374838
 20
-35.49161196669266
 30
0.0
 11
-98.79302321580565
 21
-34.74278065874992
 31
0.0
  0
LINE
  5
1F0
330
1F
100
AcDbEntity
  8
1
  6
CONTINUOUS
 62
     7
100
AcDbLine
 10
-98.79302321580565
 20
-34.74278065874992
 30
0.0
 11
-98.31234764206471
 21
-35.42925652127761
 31
0.0
  0
LINE
  5
1F1
330
1F
100
AcDbEntity
  8
1
  6
CONTINUOUS
 62
     7
100
AcDbLine
 10
-98.35802994204153
 20
-37.93194866986858
 30
0.0
 11
-96.5599437338031
 21
-37.93194866986858
 31
0.0
  0
LINE
  5
1F2
330
1F
100
AcDbEntity
  8
1
  6
CONTINUOUS
 62
     7
100
AcDbLine
 10
-96.5599437338031
 20
-37.93194866986858
 30
0.0
 11
-95.84853030999705
 21
-38.94795233304677
 31
0.0
  0
LINE
  5
1F3
330
1F
100
AcDbEntity
  8
1
  6
CONTINUOUS
 62
     7
100
AcDbLine
 10
-96.56834581309596
 20
-39.13194866986856
 30
0.0
 11
-98.75363979226853
 21
-39.13194866986856
 31
0.0
  0
LINE
  5
1F4
330
1F
100
AcDbEntity
  8
1
  6
CONTINUOUS
 62
     7
100
AcDbLine
 10
-99.3809852847159
 20
-38.95490401254293
 30
0.0
 11
-98.35802994204153
 21
-37.93194866986858
 31
0.0
  0
LINE
  5
1F5
330
1F
100
AcDbEntity
  8
1
  6
CONTINUOUS
 62
     7
100
AcDbLine
 10
-96.19366173567948
 20
-37.23464081845953
 30
0.0
 11
-95.87960225230773
 21
-35.45352098013478
 31
0.0
  0
LINE
  5
1F6
330
1F
100
AcDbEntity
  8
1
  6
CONTINUOUS
 62
     7
100
AcDbLine
 10
-95.87960225230773
 20
-35.45352098013478
 30
0.0
 11
-95.03206063276951
 21
-34.60597936059656
 31
0.0
  0
LINE
  5
1F7
330
1F
100
AcDbEntity
  8
1
  6
CONTINUOUS
 62
     7
100
AcDbLine
 10
-95.03206063276951
 20
-34.60597936059656
 30
0.0
 11
-94.61633445570448
 21
-35.19969787172252
 31
0.0
  0
LINE
  5
1F8
330
1F
100
AcDbEntity
  8
1
  6
CONTINUOUS
 62
     7
100
AcDbLine
 10
-94.61633445570448
 20
-35.19969787172252
 30
0.0
 11
-95.09113418357765
 21
-37.89242093636898
 31
0.0
  0
LINE
  5
1F9
330
1F
100
AcDbEntity
  8
1
  6
CONTINUOUS
 62
     7
100
AcDbLine
 10
-95.32643377858824
 20
-38.47317069677044
 30
0.0
 11
-96.19366173567948
 21
-37.23464081845953
 31
0.0
  0
LINE
  5
1FA
330
1F
100
AcDbEntity
  8
1
  6
CONTINUOUS
 62
     7
100
AcDbLine
 10
-98.69811002985745
 20
-33.65791797914056
 30
0.0
 11
-99.11383620692249
 21
-33.06419946801461
 31
0.0
  0
LINE
  5
1FB
330
1F
100
AcDbEntity
  8
1
  6
CONTINUOUS
 62
     7
100
AcDbLine
 10
-99.11383620692249
 20
-33.06419946801461
 30
0.0
 11
-98.63903647904937
 21
-30.37147640336818
 31
0.0
  0
LINE
  5
1FC
330
1F
100
AcDbEntity
  8
1
  6
CONTINUOUS
 62
     7
100
AcDbLine
 10
-98.40373688403878
 20
-29.79072664296669
 30
0.0
 11
-97.53650892694748
 21
-31.0292565212776
 31
0.0
  0
LINE
  5
1FD
330
1F
100
AcDbEntity
  8
1
  6
CONTINUOUS
 62
     7
100
AcDbLine
 10
-97.53650892694748
 20
-31.0292565212776
 30
0.0
 11
-97.85056841031923
 21
-32.81037635960234
 31
0.0
  0
LINE
  5
1FE
330
1F
100
AcDbEntity
  8
1
  6
CONTINUOUS
 62
     7
100
AcDbLine
 10
-97.85056841031923
 20
-32.81037635960234
 30
0.0
 11
-98.69811002985745
 21
-33.65791797914056
 31
0.0
  0
LINE
  5
1FF
330
1F
100
AcDbEntity
  8
1
  6
CONTINUOUS
 62
     7
100
AcDbLine
 10
-97.16182484953106
 20
-29.13194866986856
 30
0.0
 11
-94.97653087035843
 21
-29.13194866986856
 31
0.0
  0
LINE
  5
200
330
1F
100
AcDbEntity
  8
1
  6
CONTINUOUS
 62
     7
100
AcDbLine
 10
-94.34918537791111
 20
-29.3089933271942
 30
0.0
 11
-95.37214072058543
 21
-30.33194866986855
 31
0.0
  0
LINE
  5
201
330
1F
100
AcDbEntity
  8
1
  6
CONTINUOUS
 62
     7
100
AcDbLine
 10
-95.37214072058543
 20
-30.33194866986855
 30
0.0
 11
-97.17022692882387
 21
-30.33194866986855
 31
0.0
  0
LINE
  5
202
330
1F
100
AcDbEntity
  8
1
  6
CONTINUOUS
 62
     7
100
AcDbLine
 10
-97.17022692882387
 20
-30.33194866986855
 30
0.0
 11
-97.88164035262997
 21
-29.31594500669036
 31
0.0
  0
LINE
  5
203
330
1F
100
AcDbEntity
  8
1
  6
CONTINUOUS
 62
     7
100
AcDbLine
 10
-94.18831613887858
 20
-32.77228537304447
 30
0.0
 11
-94.93714744682137
 21
-33.52111668098721
 31
0.0
  0
LINE
  5
204
330
1F
100
AcDbEntity
  8
1
  6
CONTINUOUS
 62
     7
100
AcDbLine
 10
-94.93714744682137
 20
-33.52111668098721
 30
0.0
 11
-95.41782302056225
 21
-32.83464081845952
 31
0.0
  0
LINE
  5
205
330
1F
100
AcDbEntity
  8
1
  6
CONTINUOUS
 62
     7
100
AcDbLine
 10
-95.41782302056225
 20
-32.83464081845952
 30
0.0
 11
-95.1037635371905
 21
-31.05352098013478
 31
0.0
  0
LINE
  5
206
330
1F
100
AcDbEntity
  8
1
  6
CONTINUOUS
 62
     7
100
AcDbLine
 10
-95.1037635371905
 20
-31.05352098013478
 30
0.0
 11
-93.88457170733096
 21
-29.83432915027521
 31
0.0
  0
LINE
  5
207
330
1F
100
AcDbEntity
  8
1
  6
CONTINUOUS
 62
     7
100
AcDbLine
 10
-93.79476156674377
 20
-30.54032648306887
 30
0.0
 11
-94.18831613887858
 21
-32.77228537304447
 31
0.0
  0
LINE
  5
208
330
1F
100
AcDbEntity
  8
1
  6
CONTINUOUS
 62
     7
100
AcDbLine
 10
-90.69041268566241
 20
-34.24017012860674
 30
0.0
 11
-89.98219122692427
 21
-33.53194866986857
 31
0.0
  0
LINE
  5
209
330
1F
100
AcDbEntity
  8
1
  6
CONTINUOUS
 62
     7
100
AcDbLine
 10
-89.98219122692427
 20
-33.53194866986857
 30
0.0
 11
-88.18410501868584
 21
-33.53194866986857
 31
0.0
  0
LINE
  5
20A
330
1F
100
AcDbEntity
  8
1
  6
CONTINUOUS
 62
     7
100
AcDbLine
 10
-88.18410501868584
 20
-33.53194866986857
 30
0.0
 11
-87.8397579769645
 21
-34.02372721113039
 31
0.0
  0
LINE
  5
20B
330
1F
100
AcDbEntity
  8
1
  6
CONTINUOUS
 62
     7
100
AcDbLine
 10
-87.8397579769645
 20
-34.02372721113039
 30
0.0
 11
-88.5479794357027
 21
-34.73194866986856
 31
0.0
  0
LINE
  5
20C
330
1F
100
AcDbEntity
  8
1
  6
CONTINUOUS
 62
     7
100
AcDbLine
 10
-88.5479794357027
 20
-34.73194866986856
 30
0.0
 11
-90.34606564394113
 21
-34.73194866986856
 31
0.0
  0
LINE
  5
20D
330
1F
100
AcDbEntity
  8
1
  6
CONTINUOUS
 62
     7
100
AcDbLine
 10
-90.34606564394113
 20
-34.73194866986856
 30
0.0
 11
-90.69041268566241
 21
-34.24017012860674
 31
0.0
  0
LINE
  5
20E
330
1F
100
AcDbEntity
  8
1
  6
CONTINUOUS
 62
     7
100
AcDbLine
 10
-90.71234764206469
 20
-35.42925652127761
 30
0.0
 11
-91.02640712543644
 21
-37.21037635960235
 31
0.0
  0
LINE
  5
20F
330
1F
100
AcDbEntity
  8
1
  6
CONTINUOUS
 62
     7
100
AcDbLine
 10
-91.02640712543644
 20
-37.21037635960235
 30
0.0
 11
-92.24559895529603
 21
-38.42956818946192
 31
0.0
  0
LINE
  5
210
330
1F
100
AcDbEntity
  8
1
  6
CONTINUOUS
 62
     7
100
AcDbLine
 10
-92.33540909588316
 20
-37.72357085666826
 30
0.0
 11
-91.94185452374836
 21
-35.49161196669266
 31
0.0
  0
LINE
  5
211
330
1F
100
AcDbEntity
  8
1
  6
CONTINUOUS
 62
     7
100
AcDbLine
 10
-91.94185452374836
 20
-35.49161196669266
 30
0.0
 11
-91.19302321580562
 21
-34.74278065874992
 31
0.0
  0
LINE
  5
212
330
1F
100
AcDbEntity
  8
1
  6
CONTINUOUS
 62
     7
100
AcDbLine
 10
-91.19302321580562
 20
-34.74278065874992
 30
0.0
 11
-90.71234764206469
 21
-35.42925652127761
 31
0.0
  0
LINE
  5
213
330
1F
100
AcDbEntity
  8
1
  6
CONTINUOUS
 62
     7
100
AcDbLine
 10
-90.7580299420415
 20
-37.93194866986858
 30
0.0
 11
-88.95994373380307
 21
-37.93194866986858
 31
0.0
  0
LINE
  5
214
330
1F
100
AcDbEntity
  8
1
  6
CONTINUOUS
 62
     7
100
AcDbLine
 10
-88.95994373380307
 20
-37.93194866986858
 30
0.0
 11
-88.24853030999702
 21
-38.94795233304677
 31
0.0
  0
LINE
  5
215
330
1F
100
AcDbEntity
  8
1
  6
CONTINUOUS
 62
     7
100
AcDbLine
 10
-88.96834581309594
 20
-39.13194866986856
 30
0.0
 11
-91.1536397922685
 21
-39.13194866986856
 31
0.0
  0
LINE
  5
216
330
1F
100
AcDbEntity
  8
1
  6
CONTINUOUS
 62
     7
100
AcDbLine
 10
-91.78098528471588
 20
-38.95490401254293
 30
0.0
 11
-90.7580299420415
 21
-37.93194866986858
 31
0.0
  0
LINE
  5
217
330
1F
100
AcDbEntity
  8
1
  6
CONTINUOUS
 62
     7
100
AcDbLine
 10
-88.59366173567946
 20
-37.23464081845953
 30
0.0
 11
-88.27960225230771
 21
-35.45352098013478
 31
0.0
  0
LINE
  5
218
330
1F
100
AcDbEntity
  8
1
  6
CONTINUOUS
 62
     7
100
AcDbLine
 10
-88.27960225230771
 20
-35.45352098013478
 30
0.0
 11
-87.43206063276949
 21
-34.60597936059656
 31
0.0
  0
LINE
  5
219
330
1F
100
AcDbEntity
  8
1
  6
CONTINUOUS
 62
     7
100
AcDbLine
 10
-87.43206063276949
 20
-34.60597936059656
 30
0.0
 11
-87.01633445570445
 21
-35.19969787172252
 31
0.0
  0
LINE
  5
21A
330
1F
100
AcDbEntity
  8
1
  6
CONTINUOUS
 62
     7
100
AcDbLine
 10
-87.01633445570445
 20
-35.19969787172252
 30
0.0
 11
-87.49113418357763
 21
-37.89242093636898
 31
0.0
  0
LINE
  5
21B
330
1F
100
AcDbEntity
  8
1
  6
CONTINUOUS
 62
     7
100
AcDbLine
 10
-87.72643377858822
 20
-38.47317069677044
 30
0.0
 11
-88.59366173567946
 21
-37.23464081845953
 31
0.0
  0
LINE
  5
21C
330
1F
100
AcDbEntity
  8
1
  6
CONTINUOUS
 62
     7
100
AcDbLine
 10
-91.09811002985742
 20
-33.65791797914056
 30
0.0
 11
-91.51383620692246
 21
-33.06419946801461
 31
0.0
  0
LINE
  5
21D
330
1F
100
AcDbEntity
  8
1
  6
CONTINUOUS
 62
     7
100
AcDbLine
 10
-91.51383620692246
 20
-33.06419946801461
 30
0.0
 11
-91.03903647904934
 21
-30.37147640336818
 31
0.0
  0
LINE
  5
21E
330
1F
100
AcDbEntity
  8
1
  6
CONTINUOUS
 62
     7
100
AcDbLine
 10
-90.80373688403876
 20
-29.79072664296669
 30
0.0
 11
-89.93650892694745
 21
-31.0292565212776
 31
0.0
  0
LINE
  5
21F
330
1F
100
AcDbEntity
  8
1
  6
CONTINUOUS
 62
     7
100
AcDbLine
 10
-89.93650892694745
 20
-31.0292565212776
 30
0.0
 11
-90.2505684103192
 21
-32.81037635960234
 31
0.0
  0
LINE
  5
220
330
1F
100
AcDbEntity
  8
1
  6
CONTINUOUS
 62
     7
100
AcDbLine
 10
-90.2505684103192
 20
-32.81037635960234
 30
0.0
 11
-91.09811002985742
 21
-33.65791797914056
 31
0.0
  0
LINE
  5
221
330
1F
100
AcDbEntity
  8
1
  6
CONTINUOUS
 62
     7
100
AcDbLine
 10
-89.56182484953104
 20
-29.13194866986856
 30
0.0
 11
-87.37653087035841
 21
-29.13194866986856
 31
0.0
  0
LINE
  5
222
330
1F
100
AcDbEntity
  8
1
  6
CONTINUOUS
 62
     7
100
AcDbLine
 10
-86.74918537791109
 20
-29.3089933271942
 30
0.0
 11
-87.77214072058541
 21
-30.33194866986855
 31
0.0
  0
LINE
  5
223
330
1F
100
AcDbEntity
  8
1
  6
CONTINUOUS
 62
     7
100
AcDbLine
 10
-87.77214072058541
 20
-30.33194866986855
 30
0.0
 11
-89.5702269288239
 21
-30.33194866986855
 31
0.0
  0
LINE
  5
224
330
1F
100
AcDbEntity
  8
1
  6
CONTINUOUS
 62
     7
100
AcDbLine
 10
-89.5702269288239
 20
-30.33194866986855
 30
0.0
 11
-90.28164035262995
 21
-29.31594500669036
 31
0.0
  0
LINE
  5
225
330
1F
100
AcDbEntity
  8
1
  6
CONTINUOUS
 62
     7
100
AcDbLine
 10
-86.58831613887855
 20
-32.77228537304447
 30
0.0
 11
-87.33714744682135
 21
-33.52111668098721
 31
0.0
  0
LINE
  5
226
330
1F
100
AcDbEntity
  8
1
  6
CONTINUOUS
 62
     7
100
AcDbLine
 10
-87.33714744682135
 20
-33.52111668098721
 30
0.0
 11
-87.81782302056223
 21
-32.83464081845952
 31
0.0
  0
LINE
  5
227
330
1F
100
AcDbEntity
  8
1
  6
CONTINUOUS
 62
     7
100
AcDbLine
 10
-87.81782302056223
 20
-32.83464081845952
 30
0.0
 11
-87.50376353719048
 21
-31.05352098013478
 31
0.0
  0
LINE
  5
228
330
1F
100
AcDbEntity
  8
1
  6
CONTINUOUS
 62
     7
100
AcDbLine
 10
-87.50376353719048
 20
-31.05352098013478
 30
0.0
 11
-86.28457170733094
 21
-29.83432915027521
 31
0.0
  0
LINE
  5
229
330
1F
100
AcDbEntity
  8
1
  6
CONTINUOUS
 62
     7
100
AcDbLine
 10
-86.19476156674375
 20
-30.54032648306887
 30
0.0
 11
-86.58831613887855
 21
-32.77228537304447
 31
0.0
  0
LINE
  5
22A
330
1F
100
AcDbEntity
  8
1
  6
CONTINUOUS
 62
     7
100
AcDbLine
 10
-83.09041268566239
 20
-34.24017012860674
 30
0.0
 11
-82.38219122692425
 21
-33.53194866986857
 31
0.0
  0
LINE
  5
22B
330
1F
100
AcDbEntity
  8
1
  6
CONTINUOUS
 62
     7
100
AcDbLine
 10
-82.38219122692425
 20
-33.53194866986857
 30
0.0
 11
-80.58410501868582
 21
-33.53194866986857
 31
0.0
  0
LINE
  5
22C
330
1F
100
AcDbEntity
  8
1
  6
CONTINUOUS
 62
     7
100
AcDbLine
 10
-80.58410501868582
 20
-33.53194866986857
 30
0.0
 11
-80.23975797696448
 21
-34.02372721113039
 31
0.0
  0
LINE
  5
22D
330
1F
100
AcDbEntity
  8
1
  6
CONTINUOUS
 62
     7
100
AcDbLine
 10
-80.23975797696448
 20
-34.02372721113039
 30
0.0
 11
-80.94797943570268
 21
-34.73194866986856
 31
0.0
  0
LINE
  5
22E
330
1F
100
AcDbEntity
  8
1
  6
CONTINUOUS
 62
     7
100
AcDbLine
 10
-80.94797943570268
 20
-34.73194866986856
 30
0.0
 11
-82.74606564394111
 21
-34.73194866986856
 31
0.0
  0
LINE
  5
22F
330
1F
100
AcDbEntity
  8
1
  6
CONTINUOUS
 62
     7
100
AcDbLine
 10
-82.74606564394111
 20
-34.73194866986856
 30
0.0
 11
-83.09041268566239
 21
-34.24017012860674
 31
0.0
  0
LINE
  5
230
330
1F
100
AcDbEntity
  8
1
  6
CONTINUOUS
 62
     7
100
AcDbLine
 10
-83.11234764206466
 20
-35.42925652127761
 30
0.0
 11
-83.42640712543641
 21
-37.21037635960235
 31
0.0
  0
LINE
  5
231
330
1F
100
AcDbEntity
  8
1
  6
CONTINUOUS
 62
     7
100
AcDbLine
 10
-83.42640712543641
 20
-37.21037635960235
 30
0.0
 11
-84.64559895529601
 21
-38.42956818946192
 31
0.0
  0
LINE
  5
232
330
1F
100
AcDbEntity
  8
1
  6
CONTINUOUS
 62
     7
100
AcDbLine
 10
-84.73540909588314
 20
-37.72357085666826
 30
0.0
 11
-84.34185452374834
 21
-35.49161196669266
 31
0.0
  0
LINE
  5
233
330
1F
100
AcDbEntity
  8
1
  6
CONTINUOUS
 62
     7
100
AcDbLine
 10
-84.34185452374834
 20
-35.49161196669266
 30
0.0
 11
-83.5930232158056
 21
-34.74278065874992
 31
0.0
  0
LINE
  5
234
330
1F
100
AcDbEntity
  8
1
  6
CONTINUOUS
 62
     7
100
AcDbLine
 10
-83.5930232158056
 20
-34.74278065874992
 30
0.0
 11
-83.11234764206466
 21
-35.42925652127761
 31
0.0
  0
LINE
  5
235
330
1F
100
AcDbEntity
  8
1
  6
CONTINUOUS
 62
     7
100
AcDbLine
 10
-83.15802994204148
 20
-37.93194866986858
 30
0.0
 11
-81.35994373380305
 21
-37.93194866986858
 31
0.0
  0
LINE
  5
236
330
1F
100
AcDbEntity
  8
1
  6
CONTINUOUS
 62
     7
100
AcDbLine
 10
-81.35994373380305
 20
-37.93194866986858
 30
0.0
 11
-80.648530309997
 21
-38.94795233304677
 31
0.0
  0
LINE
  5
237
330
1F
100
AcDbEntity
  8
1
  6
CONTINUOUS
 62
     7
100
AcDbLine
 10
-81.36834581309591
 20
-39.13194866986856
 30
0.0
 11
-83.55363979226848
 21
-39.13194866986856
 31
0.0
  0
LINE
  5
238
330
1F
100
AcDbEntity
  8
1
  6
CONTINUOUS
 62
     7
100
AcDbLine
 10
-84.18098528471586
 20
-38.95490401254293
 30
0.0
 11
-83.15802994204148
 21
-37.93194866986858
 31
0.0
  0
LINE
  5
239
330
1F
100
AcDbEntity
  8
1
  6
CONTINUOUS
 62
     7
100
AcDbLine
 10
-80.99366173567944
 20
-37.23464081845953
 30
0.0
 11
-80.67960225230769
 21
-35.45352098013478
 31
0.0
  0
LINE
  5
23A
330
1F
100
AcDbEntity
  8
1
  6
CONTINUOUS
 62
     7
100
AcDbLine
 10
-80.67960225230769
 20
-35.45352098013478
 30
0.0
 11
-79.83206063276947
 21
-34.60597936059656
 31
0.0
  0
LINE
  5
23B
330
1F
100
AcDbEntity
  8
1
  6
CONTINUOUS
 62
     7
100
AcDbLine
 10
-79.83206063276947
 20
-34.60597936059656
 30
0.0
 11
-79.41633445570443
 21
-35.19969787172252
 31
0.0
  0
LINE
  5
23C
330
1F
100
AcDbEntity
  8
1
  6
CONTINUOUS
 62
     7
100
AcDbLine
 10
-79.41633445570443
 20
-35.19969787172252
 30
0.0
 11
-79.8911341835776
 21
-37.89242093636898
 31
0.0
  0
LINE
  5
23D
330
1F
100
AcDbEntity
  8
1
  6
CONTINUOUS
 62
     7
100
AcDbLine
 10
-80.1264337785882
 20
-38.47317069677044
 30
0.0
 11
-80.99366173567944
 21
-37.23464081845953
 31
0.0
  0
LINE
  5
23E
330
1F
100
AcDbEntity
  8
1
  6
CONTINUOUS
 62
     7
100
AcDbLine
 10
-83.4981100298574
 20
-33.65791797914056
 30
0.0
 11
-83.91383620692244
 21
-33.06419946801461
 31
0.0
  0
LINE
  5
23F
330
1F
100
AcDbEntity
  8
1
  6
CONTINUOUS
 62
     7
100
AcDbLine
 10
-83.91383620692244
 20
-33.06419946801461
 30
0.0
 11
-83.43903647904932
 21
-30.37147640336818
 31
0.0
  0
LINE
  5
240
330
1F
100
AcDbEntity
  8
1
  6
CONTINUOUS
 62
     7
100
AcDbLine
 10
-83.20373688403868
 20
-29.79072664296669
 30
0.0
 11
-82.33650892694743
 21
-31.0292565212776
 31
0.0
  0
LINE
  5
241
330
1F
100
AcDbEntity
  8
1
  6
CONTINUOUS
 62
     7
100
AcDbLine
 10
-82.33650892694743
 20
-31.0292565212776
 30
0.0
 11
-82.65056841031918
 21
-32.81037635960234
 31
0.0
  0
LINE
  5
242
330
1F
100
AcDbEntity
  8
1
  6
CONTINUOUS
 62
     7
100
AcDbLine
 10
-82.65056841031918
 20
-32.81037635960234
 30
0.0
 11
-83.4981100298574
 21
-33.65791797914056
 31
0.0
  0
LINE
  5
243
330
1F
100
AcDbEntity
  8
1
  6
CONTINUOUS
 62
     7
100
AcDbLine
 10
-81.96182484953101
 20
-29.13194866986856
 30
0.0
 11
-79.77653087035839
 21
-29.13194866986856
 31
0.0
  0
LINE
  5
244
330
1F
100
AcDbEntity
  8
1
  6
CONTINUOUS
 62
     7
100
AcDbLine
 10
-79.14918537791107
 20
-29.3089933271942
 30
0.0
 11
-80.17214072058539
 21
-30.33194866986855
 31
0.0
  0
LINE
  5
245
330
1F
100
AcDbEntity
  8
1
  6
CONTINUOUS
 62
     7
100
AcDbLine
 10
-80.17214072058539
 20
-30.33194866986855
 30
0.0
 11
-81.97022692882388
 21
-30.33194866986855
 31
0.0
  0
LINE
  5
246
330
1F
100
AcDbEntity
  8
1
  6
CONTINUOUS
 62
     7
100
AcDbLine
 10
-81.97022692882388
 20
-30.33194866986855
 30
0.0
 11
-82.68164035262993
 21
-29.31594500669036
 31
0.0
  0
LINE
  5
247
330
1F
100
AcDbEntity
  8
1
  6
CONTINUOUS
 62
     7
100
AcDbLine
 10
-78.98831613887853
 20
-32.77228537304447
 30
0.0
 11
-79.73714744682133
 21
-33.52111668098721
 31
0.0
  0
LINE
  5
248
330
1F
100
AcDbEntity
  8
1
  6
CONTINUOUS
 62
     7
100
AcDbLine
 10
-79.73714744682133
 20
-33.52111668098721
 30
0.0
 11
-80.21782302056221
 21
-32.83464081845952
 31
0.0
  0
LINE
  5
249
330
1F
100
AcDbEntity
  8
1
  6
CONTINUOUS
 62
     7
100
AcDbLine
 10
-80.21782302056221
 20
-32.83464081845952
 30
0.0
 11
-79.90376353719046
 21
-31.05352098013478
 31
0.0
  0
LINE
  5
24A
330
1F
100
AcDbEntity
  8
1
  6
CONTINUOUS
 62
     7
100
AcDbLine
 10
-79.90376353719046
 20
-31.05352098013478
 30
0.0
 11
-78.68457170733092
 21
-29.83432915027521
 31
0.0
  0
LINE
  5
24B
330
1F
100
AcDbEntity
  8
1
  6
CONTINUOUS
 62
     7
100
AcDbLine
 10
-78.59476156674373
 20
-30.54032648306887
 30
0.0
 11
-78.98831613887853
 21
-32.77228537304447
 31
0.0
  0
LINE
  5
24C
330
1F
100
AcDbEntity
  8
1
  6
CONTINUOUS
 62
     7
100
AcDbLine
 10
-70.9947615667437
 20
-30.54032648306887
 30
0.0
 11
-71.38831613887851
 21
-32.77228537304447
 31
0.0
  0
LINE
  5
24D
330
1F
100
AcDbEntity
  8
1
  6
CONTINUOUS
 62
     7
100
AcDbLine
 10
-72.30376353719043
 20
-31.05352098013478
 30
0.0
 11
-71.0845717073309
 21
-29.83432915027521
 31
0.0
  0
LINE
  5
24E
330
1F
100
AcDbEntity
  8
1
  6
CONTINUOUS
 62
     7
100
AcDbLine
 10
-72.61782302056218
 20
-32.83464081845952
 30
0.0
 11
-72.30376353719043
 21
-31.05352098013478
 31
0.0
  0
LINE
  5
24F
330
1F
100
AcDbEntity
  8
1
  6
CONTINUOUS
 62
     7
100
AcDbLine
 10
-72.1371474468213
 20
-33.52111668098721
 30
0.0
 11
-72.61782302056218
 21
-32.83464081845952
 31
0.0
  0
LINE
  5
250
330
1F
100
AcDbEntity
  8
1
  6
CONTINUOUS
 62
     7
100
AcDbLine
 10
-71.38831613887851
 20
-32.77228537304447
 30
0.0
 11
-72.1371474468213
 21
-33.52111668098721
 31
0.0
  0
LINE
  5
251
330
1F
100
AcDbEntity
  8
1
  6
CONTINUOUS
 62
     7
100
AcDbLine
 10
-74.37022692882385
 20
-30.33194866986855
 30
0.0
 11
-75.0816403526299
 21
-29.31594500669036
 31
0.0
  0
LINE
  5
252
330
1F
100
AcDbEntity
  8
1
  6
CONTINUOUS
 62
     7
100
AcDbLine
 10
-72.57214072058537
 20
-30.33194866986855
 30
0.0
 11
-74.37022692882385
 21
-30.33194866986855
 31
0.0
  0
LINE
  5
253
330
1F
100
AcDbEntity
  8
1
  6
CONTINUOUS
 62
     7
100
AcDbLine
 10
-71.54918537791104
 20
-29.3089933271942
 30
0.0
 11
-72.57214072058537
 21
-30.33194866986855
 31
0.0
  0
LINE
  5
254
330
1F
100
AcDbEntity
  8
1
  6
CONTINUOUS
 62
     7
100
AcDbLine
 10
-74.36182484953099
 20
-29.13194866986856
 30
0.0
 11
-72.17653087035836
 21
-29.13194866986856
 31
0.0
  0
LINE
  5
255
330
1F
100
AcDbEntity
  8
1
  6
CONTINUOUS
 62
     7
100
AcDbLine
 10
-75.05056841031916
 20
-32.81037635960234
 30
0.0
 11
-75.89811002985738
 21
-33.65791797914056
 31
0.0
  0
LINE
  5
256
330
1F
100
AcDbEntity
  8
1
  6
CONTINUOUS
 62
     7
100
AcDbLine
 10
-74.73650892694741
 20
-31.0292565212776
 30
0.0
 11
-75.05056841031916
 21
-32.81037635960234
 31
0.0
  0
LINE
  5
257
330
1F
100
AcDbEntity
  8
1
  6
CONTINUOUS
 62
     7
100
AcDbLine
 10
-75.60373688403871
 20
-29.79072664296669
 30
0.0
 11
-74.73650892694741
 21
-31.0292565212776
 31
0.0
  0
LINE
  5
258
330
1F
100
AcDbEntity
  8
1
  6
CONTINUOUS
 62
     7
100
AcDbLine
 10
-76.31383620692242
 20
-33.06419946801461
 30
0.0
 11
-75.8390364790493
 21
-30.37147640336818
 31
0.0
  0
LINE
  5
259
330
1F
100
AcDbEntity
  8
1
  6
CONTINUOUS
 62
     7
100
AcDbLine
 10
-75.89811002985738
 20
-33.65791797914056
 30
0.0
 11
-76.31383620692242
 21
-33.06419946801461
 31
0.0
  0
LINE
  5
25A
330
1F
100
AcDbEntity
  8
1
  6
CONTINUOUS
 62
     7
100
AcDbLine
 10
-72.52643377858817
 20
-38.47317069677044
 30
0.0
 11
-73.39366173567942
 21
-37.23464081845953
 31
0.0
  0
LINE
  5
25B
330
1F
100
AcDbEntity
  8
1
  6
CONTINUOUS
 62
     7
100
AcDbLine
 10
-71.8163344557044
 20
-35.19969787172252
 30
0.0
 11
-72.29113418357758
 21
-37.89242093636898
 31
0.0
  0
LINE
  5
25C
330
1F
100
AcDbEntity
  8
1
  6
CONTINUOUS
 62
     7
100
AcDbLine
 10
-72.23206063276945
 20
-34.60597936059656
 30
0.0
 11
-71.8163344557044
 21
-35.19969787172252
 31
0.0
  0
LINE
  5
25D
330
1F
100
AcDbEntity
  8
1
  6
CONTINUOUS
 62
     7
100
AcDbLine
 10
-73.07960225230767
 20
-35.45352098013478
 30
0.0
 11
-72.23206063276945
 21
-34.60597936059656
 31
0.0
  0
LINE
  5
25E
330
1F
100
AcDbEntity
  8
1
  6
CONTINUOUS
 62
     7
100
AcDbLine
 10
-73.39366173567942
 20
-37.23464081845953
 30
0.0
 11
-73.07960225230767
 21
-35.45352098013478
 31
0.0
  0
LINE
  5
25F
330
1F
100
AcDbEntity
  8
1
  6
CONTINUOUS
 62
     7
100
AcDbLine
 10
-76.58098528471584
 20
-38.95490401254293
 30
0.0
 11
-75.55802994204146
 21
-37.93194866986858
 31
0.0
  0
LINE
  5
260
330
1F
100
AcDbEntity
  8
1
  6
CONTINUOUS
 62
     7
100
AcDbLine
 10
-73.76834581309589
 20
-39.13194866986856
 30
0.0
 11
-75.95363979226846
 21
-39.13194866986856
 31
0.0
  0
LINE
  5
261
330
1F
100
AcDbEntity
  8
1
  6
CONTINUOUS
 62
     7
100
AcDbLine
 10
-73.75994373380303
 20
-37.93194866986858
 30
0.0
 11
-73.04853030999698
 21
-38.94795233304677
 31
0.0
  0
LINE
  5
262
330
1F
100
AcDbEntity
  8
1
  6
CONTINUOUS
 62
     7
100
AcDbLine
 10
-75.55802994204146
 20
-37.93194866986858
 30
0.0
 11
-73.75994373380303
 21
-37.93194866986858
 31
0.0
  0
LINE
  5
263
330
1F
100
AcDbEntity
  8
1
  6
CONTINUOUS
 62
     7
100
AcDbLine
 10
-75.99302321580558
 20
-34.74278065874992
 30
0.0
 11
-75.51234764206464
 21
-35.42925652127761
 31
0.0
  0
LINE
  5
264
330
1F
100
AcDbEntity
  8
1
  6
CONTINUOUS
 62
     7
100
AcDbLine
 10
-76.74185452374832
 20
-35.49161196669266
 30
0.0
 11
-75.99302321580558
 21
-34.74278065874992
 31
0.0
  0
LINE
  5
265
330
1F
100
AcDbEntity
  8
1
  6
CONTINUOUS
 62
     7
100
AcDbLine
 10
-77.13540909588312
 20
-37.72357085666826
 30
0.0
 11
-76.74185452374832
 21
-35.49161196669266
 31
0.0
  0
LINE
  5
266
330
1F
100
AcDbEntity
  8
1
  6
CONTINUOUS
 62
     7
100
AcDbLine
 10
-75.82640712543639
 20
-37.21037635960235
 30
0.0
 11
-77.04559895529599
 21
-38.42956818946192
 31
0.0
  0
LINE
  5
267
330
1F
100
AcDbEntity
  8
1
  6
CONTINUOUS
 62
     7
100
AcDbLine
 10
-75.51234764206464
 20
-35.42925652127761
 30
0.0
 11
-75.82640712543639
 21
-37.21037635960235
 31
0.0
  0
LINE
  5
268
330
1F
100
AcDbEntity
  8
1
  6
CONTINUOUS
 62
     7
100
AcDbLine
 10
-75.14606564394109
 20
-34.73194866986856
 30
0.0
 11
-75.49041268566236
 21
-34.24017012860674
 31
0.0
  0
LINE
  5
269
330
1F
100
AcDbEntity
  8
1
  6
CONTINUOUS
 62
     7
100
AcDbLine
 10
-73.34797943570265
 20
-34.73194866986856
 30
0.0
 11
-75.14606564394109
 21
-34.73194866986856
 31
0.0
  0
LINE
  5
26A
330
1F
100
AcDbEntity
  8
1
  6
CONTINUOUS
 62
     7
100
AcDbLine
 10
-72.63975797696446
 20
-34.02372721113039
 30
0.0
 11
-73.34797943570265
 21
-34.73194866986856
 31
0.0
  0
LINE
  5
26B
330
1F
100
AcDbEntity
  8
1
  6
CONTINUOUS
 62
     7
100
AcDbLine
 10
-72.9841050186858
 20
-33.53194866986857
 30
0.0
 11
-72.63975797696446
 21
-34.02372721113039
 31
0.0
  0
LINE
  5
26C
330
1F
100
AcDbEntity
  8
1
  6
CONTINUOUS
 62
     7
100
AcDbLine
 10
-74.78219122692423
 20
-33.53194866986857
 30
0.0
 11
-72.9841050186858
 21
-33.53194866986857
 31
0.0
  0
LINE
  5
26D
330
1F
100
AcDbEntity
  8
1
  6
CONTINUOUS
 62
     7
100
AcDbLine
 10
-75.49041268566236
 20
-34.24017012860674
 30
0.0
 11
-74.78219122692423
 21
-33.53194866986857
 31
0.0
  0
LINE
  5
26E
330
1F
100
AcDbEntity
  8
1
  6
CONTINUOUS
 62
     7
100
AcDbLine
 10
-109.0331651438453
 20
-18.52978035978146
 30
0.0
 11
-108.3353334539324
 21
-17.83194866986857
 31
0.0
  0
LINE
  5
26F
330
1F
100
AcDbEntity
  8
1
  6
CONTINUOUS
 62
     7
100
AcDbLine
 10
-108.3353334539324
 20
-17.83194866986857
 30
0.0
 11
-104.8178726354648
 21
-17.83194866986857
 31
0.0
  0
LINE
  5
270
330
1F
100
AcDbEntity
  8
1
  6
CONTINUOUS
 62
     7
100
AcDbLine
 10
-104.8178726354648
 20
-17.83194866986857
 30
0.0
 11
-104.2970055187817
 21
-18.73411697995567
 31
0.0
  0
LINE
  5
271
330
1F
100
AcDbEntity
  8
1
  6
CONTINUOUS
 62
     7
100
AcDbLine
 10
-104.2970055187817
 20
-18.73411697995567
 30
0.0
 11
-104.9948372086946
 21
-19.43194866986856
 31
0.0
  0
LINE
  5
272
330
1F
100
AcDbEntity
  8
1
  6
CONTINUOUS
 62
     7
100
AcDbLine
 10
-104.9948372086946
 20
-19.43194866986856
 30
0.0
 11
-108.5122980271622
 21
-19.43194866986856
 31
0.0
  0
LINE
  5
273
330
1F
100
AcDbEntity
  8
1
  6
CONTINUOUS
 62
     7
100
AcDbLine
 10
-108.5122980271622
 20
-19.43194866986856
 30
0.0
 11
-109.0331651438453
 21
-18.52978035978146
 31
0.0
  0
LINE
  5
274
330
1F
100
AcDbEntity
  8
1
  6
CONTINUOUS
 62
     7
100
AcDbLine
 10
-108.6400326215376
 20
-11.21177337933375
 30
0.0
 11
-107.680584040244
 21
-12.87358706938413
 31
0.0
  0
LINE
  5
275
330
1F
100
AcDbEntity
  8
1
  6
CONTINUOUS
 62
     7
100
AcDbLine
 10
-107.680584040244
 20
-12.87358706938413
 30
0.0
 11
-108.3899530787847
 21
-16.89661880105966
 31
0.0
  0
LINE
  5
276
330
1F
100
AcDbEntity
  8
1
  6
CONTINUOUS
 62
     7
100
AcDbLine
 10
-108.3899530787847
 20
-16.89661880105966
 30
0.0
 11
-109.3955118069889
 21
-17.90217752926381
 31
0.0
  0
LINE
  5
277
330
1F
100
AcDbEntity
  8
1
  6
CONTINUOUS
 62
     7
100
AcDbLine
 10
-109.3955118069889
 20
-17.90217752926381
 30
0.0
 11
-110.0056133375921
 21
-16.84545068048338
 31
0.0
  0
LINE
  5
278
330
1F
100
AcDbEntity
  8
1
  6
CONTINUOUS
 62
     7
100
AcDbLine
 10
-110.0056133375921
 20
-16.84545068048338
 30
0.0
 11
-109.2014215321043
 21
-12.2846523145347
 31
0.0
  0
LINE
  5
279
330
1F
100
AcDbEntity
  8
1
  6
CONTINUOUS
 62
     7
100
AcDbLine
 10
-107.2318060260799
 20
-10.63194866986856
 30
0.0
 11
-103.3865640717484
 21
-10.63194866986856
 31
0.0
  0
LINE
  5
27A
330
1F
100
AcDbEntity
  8
1
  6
CONTINUOUS
 62
     7
100
AcDbLine
 10
-102.4520006829997
 20
-10.95866640527467
 30
0.0
 11
-103.7252829475936
 21
-12.23194866986856
 31
0.0
  0
LINE
  5
27B
330
1F
100
AcDbEntity
  8
1
  6
CONTINUOUS
 62
     7
100
AcDbLine
 10
-103.7252829475936
 20
-12.23194866986856
 30
0.0
 11
-107.2427437660612
 21
-12.23194866986856
 31
0.0
  0
LINE
  5
27C
330
1F
100
AcDbEntity
  8
1
  6
CONTINUOUS
 62
     7
100
AcDbLine
 10
-107.2427437660612
 20
-12.23194866986856
 30
0.0
 11
-108.062256310764
 21
-10.81251130500326
 31
0.0
  0
LINE
  5
27D
330
1F
100
AcDbEntity
  8
1
  6
CONTINUOUS
 62
     7
100
AcDbLine
 10
-103.6706633227414
 20
-13.16727853867748
 30
0.0
 11
-102.0190248042055
 21
-11.51564002014163
 31
0.0
  0
LINE
  5
27E
330
1F
100
AcDbEntity
  8
1
  6
CONTINUOUS
 62
     7
100
AcDbLine
 10
-101.90935244223
 20
-12.39242093636895
 30
0.0
 11
-102.7558102496844
 21
-17.1929217108585
 31
0.0
  0
LINE
  5
27F
330
1F
100
AcDbEntity
  8
1
  6
CONTINUOUS
 62
     7
100
AcDbLine
 10
-102.7558102496844
 20
-17.1929217108585
 30
0.0
 11
-103.7845699534834
 21
-18.22168141465745
 31
0.0
  0
LINE
  5
280
330
1F
100
AcDbEntity
  8
1
  6
CONTINUOUS
 62
     7
100
AcDbLine
 10
-103.7845699534834
 20
-18.22168141465745
 30
0.0
 11
-104.380032361282
 21
-17.190310270353
 31
0.0
  0
LINE
  5
281
330
1F
100
AcDbEntity
  8
1
  6
CONTINUOUS
 62
     7
100
AcDbLine
 10
-104.380032361282
 20
-17.190310270353
 30
0.0
 11
-103.6706633227414
 21
-13.16727853867748
 31
0.0
  0
LINE
  5
282
330
1F
100
AcDbEntity
  8
1
  6
CONTINUOUS
 62
     7
100
AcDbLine
 10
-103.3245573250349
 20
-20.41844665925375
 30
0.0
 11
-104.1287491305226
 21
-24.97924502520243
 31
0.0
  0
LINE
  5
283
330
1F
100
AcDbEntity
  8
1
  6
CONTINUOUS
 62
     7
100
AcDbLine
 10
-104.6901380410894
 20
-26.05212396040338
 30
0.0
 11
-105.649586622383
 21
-24.39031027035301
 31
0.0
  0
LINE
  5
284
330
1F
100
AcDbEntity
  8
1
  6
CONTINUOUS
 62
     7
100
AcDbLine
 10
-105.649586622383
 20
-24.39031027035301
 30
0.0
 11
-104.9402175838423
 21
-20.36727853867748
 31
0.0
  0
LINE
  5
285
330
1F
100
AcDbEntity
  8
1
  6
CONTINUOUS
 62
     7
100
AcDbLine
 10
-104.9402175838423
 20
-20.36727853867748
 30
0.0
 11
-103.9346588556381
 21
-19.36171981047332
 31
0.0
  0
LINE
  5
286
330
1F
100
AcDbEntity
  8
1
  6
CONTINUOUS
 62
     7
100
AcDbLine
 10
-103.9346588556381
 20
-19.36171981047332
 30
0.0
 11
-103.3245573250349
 21
-20.41844665925375
 31
0.0
  0
LINE
  5
287
330
1F
100
AcDbEntity
  8
1
  6
CONTINUOUS
 62
     7
100
AcDbLine
 10
-106.0874268965657
 20
-25.03194866986857
 30
0.0
 11
-105.2679143518629
 21
-26.45138603473387
 31
0.0
  0
LINE
  5
288
330
1F
100
AcDbEntity
  8
1
  6
CONTINUOUS
 62
     7
100
AcDbLine
 10
-106.0983646365471
 20
-26.63194866986856
 30
0.0
 11
-109.9436065908786
 21
-26.63194866986856
 31
0.0
  0
LINE
  5
289
330
1F
100
AcDbEntity
  8
1
  6
CONTINUOUS
 62
     7
100
AcDbLine
 10
-110.8781699796273
 20
-26.30523093446246
 30
0.0
 11
-109.6048877150334
 21
-25.03194866986857
 31
0.0
  0
LINE
  5
28A
330
1F
100
AcDbEntity
  8
1
  6
CONTINUOUS
 62
     7
100
AcDbLine
 10
-109.6048877150334
 20
-25.03194866986857
 30
0.0
 11
-106.0874268965657
 21
-25.03194866986857
 31
0.0
  0
LINE
  5
28B
330
1F
100
AcDbEntity
  8
1
  6
CONTINUOUS
 62
     7
100
AcDbLine
 10
-111.4208182203969
 20
-24.87147640336818
 30
0.0
 11
-110.5743604129425
 21
-20.07097562887863
 31
0.0
  0
LINE
  5
28C
330
1F
100
AcDbEntity
  8
1
  6
CONTINUOUS
 62
     7
100
AcDbLine
 10
-110.5743604129425
 20
-20.07097562887863
 30
0.0
 11
-109.5456007091435
 21
-19.04221592507967
 31
0.0
  0
LINE
  5
28D
330
1F
100
AcDbEntity
  8
1
  6
CONTINUOUS
 62
     7
100
AcDbLine
 10
-109.5456007091435
 20
-19.04221592507967
 30
0.0
 11
-108.9501383013449
 21
-20.07358706938413
 31
0.0
  0
LINE
  5
28E
330
1F
100
AcDbEntity
  8
1
  6
CONTINUOUS
 62
     7
100
AcDbLine
 10
-108.9501383013449
 20
-20.07358706938413
 30
0.0
 11
-109.6595073398856
 21
-24.09661880105966
 31
0.0
  0
LINE
  5
28F
330
1F
100
AcDbEntity
  8
1
  6
CONTINUOUS
 62
     7
100
AcDbLine
 10
-109.6595073398856
 20
-24.09661880105966
 30
0.0
 11
-111.3111458584215
 21
-25.7482573195955
 31
0.0
  0
LINE
  5
290
330
1F
100
AcDbEntity
  8
1
  6
CONTINUOUS
 62
     7
100
AcDbLine
 10
-98.43316514384526
 20
-18.52978035978146
 30
0.0
 11
-97.73533345393241
 21
-17.83194866986857
 31
0.0
  0
LINE
  5
291
330
1F
100
AcDbEntity
  8
1
  6
CONTINUOUS
 62
     7
100
AcDbLine
 10
-97.73533345393241
 20
-17.83194866986857
 30
0.0
 11
-94.21787263546474
 21
-17.83194866986857
 31
0.0
  0
LINE
  5
292
330
1F
100
AcDbEntity
  8
1
  6
CONTINUOUS
 62
     7
100
AcDbLine
 10
-94.21787263546474
 20
-17.83194866986857
 30
0.0
 11
-93.69700551878162
 21
-18.73411697995567
 31
0.0
  0
LINE
  5
293
330
1F
100
AcDbEntity
  8
1
  6
CONTINUOUS
 62
     7
100
AcDbLine
 10
-93.69700551878162
 20
-18.73411697995567
 30
0.0
 11
-94.39483720869453
 21
-19.43194866986856
 31
0.0
  0
LINE
  5
294
330
1F
100
AcDbEntity
  8
1
  6
CONTINUOUS
 62
     7
100
AcDbLine
 10
-94.39483720869453
 20
-19.43194866986856
 30
0.0
 11
-97.91229802716214
 21
-19.43194866986856
 31
0.0
  0
LINE
  5
295
330
1F
100
AcDbEntity
  8
1
  6
CONTINUOUS
 62
     7
100
AcDbLine
 10
-97.91229802716214
 20
-19.43194866986856
 30
0.0
 11
-98.43316514384526
 21
-18.52978035978146
 31
0.0
  0
LINE
  5
296
330
1F
100
AcDbEntity
  8
1
  6
CONTINUOUS
 62
     7
100
AcDbLine
 10
-98.04003262153753
 20
-11.21177337933375
 30
0.0
 11
-97.08058404024399
 21
-12.87358706938413
 31
0.0
  0
LINE
  5
297
330
1F
100
AcDbEntity
  8
1
  6
CONTINUOUS
 62
     7
100
AcDbLine
 10
-97.08058404024399
 20
-12.87358706938413
 30
0.0
 11
-97.78995307878466
 21
-16.89661880105966
 31
0.0
  0
LINE
  5
298
330
1F
100
AcDbEntity
  8
1
  6
CONTINUOUS
 62
     7
100
AcDbLine
 10
-97.78995307878466
 20
-16.89661880105966
 30
0.0
 11
-98.79551180698883
 21
-17.90217752926381
 31
0.0
  0
LINE
  5
299
330
1F
100
AcDbEntity
  8
1
  6
CONTINUOUS
 62
     7
100
AcDbLine
 10
-98.79551180698883
 20
-17.90217752926381
 30
0.0
 11
-99.40561333759211
 21
-16.84545068048338
 31
0.0
  0
LINE
  5
29A
330
1F
100
AcDbEntity
  8
1
  6
CONTINUOUS
 62
     7
100
AcDbLine
 10
-99.40561333759211
 20
-16.84545068048338
 30
0.0
 11
-98.60142153210427
 21
-12.2846523145347
 31
0.0
  0
LINE
  5
29B
330
1F
100
AcDbEntity
  8
1
  6
CONTINUOUS
 62
     7
100
AcDbLine
 10
-96.63180602607986
 20
-10.63194866986856
 30
0.0
 11
-92.78656407174839
 21
-10.63194866986856
 31
0.0
  0
LINE
  5
29C
330
1F
100
AcDbEntity
  8
1
  6
CONTINUOUS
 62
     7
100
AcDbLine
 10
-91.85200068299969
 20
-10.95866640527467
 30
0.0
 11
-93.12528294759358
 21
-12.23194866986856
 31
0.0
  0
LINE
  5
29D
330
1F
100
AcDbEntity
  8
1
  6
CONTINUOUS
 62
     7
100
AcDbLine
 10
-93.12528294759358
 20
-12.23194866986856
 30
0.0
 11
-96.64274376606119
 21
-12.23194866986856
 31
0.0
  0
LINE
  5
29E
330
1F
100
AcDbEntity
  8
1
  6
CONTINUOUS
 62
     7
100
AcDbLine
 10
-96.64274376606119
 20
-12.23194866986856
 30
0.0
 11
-97.46225631076402
 21
-10.81251130500326
 31
0.0
  0
LINE
  5
29F
330
1F
100
AcDbEntity
  8
1
  6
CONTINUOUS
 62
     7
100
AcDbLine
 10
-93.07066332274132
 20
-13.16727853867748
 30
0.0
 11
-91.41902480420549
 21
-11.51564002014163
 31
0.0
  0
LINE
  5
2A0
330
1F
100
AcDbEntity
  8
1
  6
CONTINUOUS
 62
     7
100
AcDbLine
 10
-91.30935244223008
 20
-12.39242093636895
 30
0.0
 11
-92.15581024968446
 21
-17.1929217108585
 31
0.0
  0
LINE
  5
2A1
330
1F
100
AcDbEntity
  8
1
  6
CONTINUOUS
 62
     7
100
AcDbLine
 10
-92.15581024968446
 20
-17.1929217108585
 30
0.0
 11
-93.18456995348339
 21
-18.22168141465745
 31
0.0
  0
LINE
  5
2A2
330
1F
100
AcDbEntity
  8
1
  6
CONTINUOUS
 62
     7
100
AcDbLine
 10
-93.18456995348339
 20
-18.22168141465745
 30
0.0
 11
-93.780032361282
 21
-17.190310270353
 31
0.0
  0
LINE
  5
2A3
330
1F
100
AcDbEntity
  8
1
  6
CONTINUOUS
 62
     7
100
AcDbLine
 10
-93.780032361282
 20
-17.190310270353
 30
0.0
 11
-93.07066332274132
 21
-13.16727853867748
 31
0.0
  0
LINE
  5
2A4
330
1F
100
AcDbEntity
  8
1
  6
CONTINUOUS
 62
     7
100
AcDbLine
 10
-92.72455732503482
 20
-20.41844665925375
 30
0.0
 11
-93.52874913052261
 21
-24.97924502520243
 31
0.0
  0
LINE
  5
2A5
330
1F
100
AcDbEntity
  8
1
  6
CONTINUOUS
 62
     7
100
AcDbLine
 10
-94.09013804108935
 20
-26.05212396040338
 30
0.0
 11
-95.04958662238295
 21
-24.39031027035301
 31
0.0
  0
LINE
  5
2A6
330
1F
100
AcDbEntity
  8
1
  6
CONTINUOUS
 62
     7
100
AcDbLine
 10
-95.04958662238295
 20
-24.39031027035301
 30
0.0
 11
-94.34021758384227
 21
-20.36727853867748
 31
0.0
  0
LINE
  5
2A7
330
1F
100
AcDbEntity
  8
1
  6
CONTINUOUS
 62
     7
100
AcDbLine
 10
-94.34021758384227
 20
-20.36727853867748
 30
0.0
 11
-93.33465885563811
 21
-19.36171981047332
 31
0.0
  0
LINE
  5
2A8
330
1F
100
AcDbEntity
  8
1
  6
CONTINUOUS
 62
     7
100
AcDbLine
 10
-93.33465885563811
 20
-19.36171981047332
 30
0.0
 11
-92.72455732503482
 21
-20.41844665925375
 31
0.0
  0
LINE
  5
2A9
330
1F
100
AcDbEntity
  8
1
  6
CONTINUOUS
 62
     7
100
AcDbLine
 10
-95.4874268965657
 20
-25.03194866986857
 30
0.0
 11
-94.66791435186292
 21
-26.45138603473387
 31
0.0
  0
LINE
  5
2AA
330
1F
100
AcDbEntity
  8
1
  6
CONTINUOUS
 62
     7
100
AcDbLine
 10
-95.49836463654708
 20
-26.63194866986856
 30
0.0
 11
-99.34360659087855
 21
-26.63194866986856
 31
0.0
  0
LINE
  5
2AB
330
1F
100
AcDbEntity
  8
1
  6
CONTINUOUS
 62
     7
100
AcDbLine
 10
-100.2781699796273
 20
-26.30523093446246
 30
0.0
 11
-99.00488771503336
 21
-25.03194866986857
 31
0.0
  0
LINE
  5
2AC
330
1F
100
AcDbEntity
  8
1
  6
CONTINUOUS
 62
     7
100
AcDbLine
 10
-99.00488771503336
 20
-25.03194866986857
 30
0.0
 11
-95.4874268965657
 21
-25.03194866986857
 31
0.0
  0
LINE
  5
2AD
330
1F
100
AcDbEntity
  8
1
  6
CONTINUOUS
 62
     7
100
AcDbLine
 10
-100.8208182203969
 20
-24.87147640336818
 30
0.0
 11
-99.97436041294247
 21
-20.07097562887863
 31
0.0
  0
LINE
  5
2AE
330
1F
100
AcDbEntity
  8
1
  6
CONTINUOUS
 62
     7
100
AcDbLine
 10
-99.97436041294247
 20
-20.07097562887863
 30
0.0
 11
-98.94560070914349
 21
-19.04221592507967
 31
0.0
  0
LINE
  5
2AF
330
1F
100
AcDbEntity
  8
1
  6
CONTINUOUS
 62
     7
100
AcDbLine
 10
-98.94560070914349
 20
-19.04221592507967
 30
0.0
 11
-98.35013830134488
 21
-20.07358706938413
 31
0.0
  0
LINE
  5
2B0
330
1F
100
AcDbEntity
  8
1
  6
CONTINUOUS
 62
     7
100
AcDbLine
 10
-98.35013830134488
 20
-20.07358706938413
 30
0.0
 11
-99.05950733988561
 21
-24.09661880105966
 31
0.0
  0
LINE
  5
2B1
330
1F
100
AcDbEntity
  8
1
  6
CONTINUOUS
 62
     7
100
AcDbLine
 10
-99.05950733988561
 20
-24.09661880105966
 30
0.0
 11
-100.7111458584215
 21
-25.7482573195955
 31
0.0
  0
LINE
  5
2B2
330
1F
100
AcDbEntity
  8
1
  6
CONTINUOUS
 62
     7
100
AcDbLine
 10
-87.83316514384529
 20
-18.52978035978146
 30
0.0
 11
-87.13533345393239
 21
-17.83194866986857
 31
0.0
  0
LINE
  5
2B3
330
1F
100
AcDbEntity
  8
1
  6
CONTINUOUS
 62
     7
100
AcDbLine
 10
-87.13533345393239
 20
-17.83194866986857
 30
0.0
 11
-83.61787263546472
 21
-17.83194866986857
 31
0.0
  0
LINE
  5
2B4
330
1F
100
AcDbEntity
  8
1
  6
CONTINUOUS
 62
     7
100
AcDbLine
 10
-83.61787263546472
 20
-17.83194866986857
 30
0.0
 11
-83.0970055187816
 21
-18.73411697995567
 31
0.0
  0
LINE
  5
2B5
330
1F
100
AcDbEntity
  8
1
  6
CONTINUOUS
 62
     7
100
AcDbLine
 10
-83.0970055187816
 20
-18.73411697995567
 30
0.0
 11
-83.7948372086945
 21
-19.43194866986856
 31
0.0
  0
LINE
  5
2B6
330
1F
100
AcDbEntity
  8
1
  6
CONTINUOUS
 62
     7
100
AcDbLine
 10
-83.7948372086945
 20
-19.43194866986856
 30
0.0
 11
-87.31229802716211
 21
-19.43194866986856
 31
0.0
  0
LINE
  5
2B7
330
1F
100
AcDbEntity
  8
1
  6
CONTINUOUS
 62
     7
100
AcDbLine
 10
-87.31229802716211
 20
-19.43194866986856
 30
0.0
 11
-87.83316514384529
 21
-18.52978035978146
 31
0.0
  0
LINE
  5
2B8
330
1F
100
AcDbEntity
  8
1
  6
CONTINUOUS
 62
     7
100
AcDbLine
 10
-87.44003262153751
 20
-11.21177337933375
 30
0.0
 11
-86.48058404024397
 21
-12.87358706938413
 31
0.0
  0
LINE
  5
2B9
330
1F
100
AcDbEntity
  8
1
  6
CONTINUOUS
 62
     7
100
AcDbLine
 10
-86.48058404024397
 20
-12.87358706938413
 30
0.0
 11
-87.18995307878464
 21
-16.89661880105966
 31
0.0
  0
LINE
  5
2BA
330
1F
100
AcDbEntity
  8
1
  6
CONTINUOUS
 62
     7
100
AcDbLine
 10
-87.18995307878464
 20
-16.89661880105966
 30
0.0
 11
-88.1955118069888
 21
-17.90217752926381
 31
0.0
  0
LINE
  5
2BB
330
1F
100
AcDbEntity
  8
1
  6
CONTINUOUS
 62
     7
100
AcDbLine
 10
-88.1955118069888
 20
-17.90217752926381
 30
0.0
 11
-88.80561333759209
 21
-16.84545068048338
 31
0.0
  0
LINE
  5
2BC
330
1F
100
AcDbEntity
  8
1
  6
CONTINUOUS
 62
     7
100
AcDbLine
 10
-88.80561333759209
 20
-16.84545068048338
 30
0.0
 11
-88.00142153210425
 21
-12.2846523145347
 31
0.0
  0
LINE
  5
2BD
330
1F
100
AcDbEntity
  8
1
  6
CONTINUOUS
 62
     7
100
AcDbLine
 10
-86.03180602607983
 20
-10.63194866986856
 30
0.0
 11
-82.18656407174836
 21
-10.63194866986856
 31
0.0
  0
LINE
  5
2BE
330
1F
100
AcDbEntity
  8
1
  6
CONTINUOUS
 62
     7
100
AcDbLine
 10
-81.25200068299966
 20
-10.95866640527467
 30
0.0
 11
-82.52528294759355
 21
-12.23194866986856
 31
0.0
  0
LINE
  5
2BF
330
1F
100
AcDbEntity
  8
1
  6
CONTINUOUS
 62
     7
100
AcDbLine
 10
-82.52528294759355
 20
-12.23194866986856
 30
0.0
 11
-86.04274376606116
 21
-12.23194866986856
 31
0.0
  0
LINE
  5
2C0
330
1F
100
AcDbEntity
  8
1
  6
CONTINUOUS
 62
     7
100
AcDbLine
 10
-86.04274376606116
 20
-12.23194866986856
 30
0.0
 11
-86.862256310764
 21
-10.81251130500326
 31
0.0
  0
LINE
  5
2C1
330
1F
100
AcDbEntity
  8
1
  6
CONTINUOUS
 62
     7
100
AcDbLine
 10
-82.4706633227413
 20
-13.16727853867748
 30
0.0
 11
-80.81902480420547
 21
-11.51564002014163
 31
0.0
  0
LINE
  5
2C2
330
1F
100
AcDbEntity
  8
1
  6
CONTINUOUS
 62
     7
100
AcDbLine
 10
-80.70935244223006
 20
-12.39242093636895
 30
0.0
 11
-81.55581024968444
 21
-17.1929217108585
 31
0.0
  0
LINE
  5
2C3
330
1F
100
AcDbEntity
  8
1
  6
CONTINUOUS
 62
     7
100
AcDbLine
 10
-81.55581024968444
 20
-17.1929217108585
 30
0.0
 11
-82.58456995348337
 21
-18.22168141465745
 31
0.0
  0
LINE
  5
2C4
330
1F
100
AcDbEntity
  8
1
  6
CONTINUOUS
 62
     7
100
AcDbLine
 10
-82.58456995348337
 20
-18.22168141465745
 30
0.0
 11
-83.18003236128197
 21
-17.190310270353
 31
0.0
  0
LINE
  5
2C5
330
1F
100
AcDbEntity
  8
1
  6
CONTINUOUS
 62
     7
100
AcDbLine
 10
-83.18003236128197
 20
-17.190310270353
 30
0.0
 11
-82.4706633227413
 21
-13.16727853867748
 31
0.0
  0
LINE
  5
2C6
330
1F
100
AcDbEntity
  8
1
  6
CONTINUOUS
 62
     7
100
AcDbLine
 10
-82.1245573250348
 20
-20.41844665925375
 30
0.0
 11
-82.92874913052265
 21
-24.97924502520243
 31
0.0
  0
LINE
  5
2C7
330
1F
100
AcDbEntity
  8
1
  6
CONTINUOUS
 62
     7
100
AcDbLine
 10
-83.49013804108932
 20
-26.05212396040338
 30
0.0
 11
-84.44958662238292
 21
-24.39031027035301
 31
0.0
  0
LINE
  5
2C8
330
1F
100
AcDbEntity
  8
1
  6
CONTINUOUS
 62
     7
100
AcDbLine
 10
-84.44958662238292
 20
-24.39031027035301
 30
0.0
 11
-83.74021758384225
 21
-20.36727853867748
 31
0.0
  0
LINE
  5
2C9
330
1F
100
AcDbEntity
  8
1
  6
CONTINUOUS
 62
     7
100
AcDbLine
 10
-83.74021758384225
 20
-20.36727853867748
 30
0.0
 11
-82.73465885563809
 21
-19.36171981047332
 31
0.0
  0
LINE
  5
2CA
330
1F
100
AcDbEntity
  8
1
  6
CONTINUOUS
 62
     7
100
AcDbLine
 10
-82.73465885563809
 20
-19.36171981047332
 30
0.0
 11
-82.1245573250348
 21
-20.41844665925375
 31
0.0
  0
LINE
  5
2CB
330
1F
100
AcDbEntity
  8
1
  6
CONTINUOUS
 62
     7
100
AcDbLine
 10
-84.88742689656573
 20
-25.03194866986857
 30
0.0
 11
-84.0679143518629
 21
-26.45138603473387
 31
0.0
  0
LINE
  5
2CC
330
1F
100
AcDbEntity
  8
1
  6
CONTINUOUS
 62
     7
100
AcDbLine
 10
-84.89836463654706
 20
-26.63194866986856
 30
0.0
 11
-88.74360659087853
 21
-26.63194866986856
 31
0.0
  0
LINE
  5
2CD
330
1F
100
AcDbEntity
  8
1
  6
CONTINUOUS
 62
     7
100
AcDbLine
 10
-89.67816997962723
 20
-26.30523093446246
 30
0.0
 11
-88.40488771503334
 21
-25.03194866986857
 31
0.0
  0
LINE
  5
2CE
330
1F
100
AcDbEntity
  8
1
  6
CONTINUOUS
 62
     7
100
AcDbLine
 10
-88.40488771503334
 20
-25.03194866986857
 30
0.0
 11
-84.88742689656573
 21
-25.03194866986857
 31
0.0
  0
LINE
  5
2CF
330
1F
100
AcDbEntity
  8
1
  6
CONTINUOUS
 62
     7
100
AcDbLine
 10
-90.22081822039684
 20
-24.87147640336818
 30
0.0
 11
-89.37436041294245
 21
-20.07097562887863
 31
0.0
  0
LINE
  5
2D0
330
1F
100
AcDbEntity
  8
1
  6
CONTINUOUS
 62
     7
100
AcDbLine
 10
-89.37436041294245
 20
-20.07097562887863
 30
0.0
 11
-88.34560070914347
 21
-19.04221592507967
 31
0.0
  0
LINE
  5
2D1
330
1F
100
AcDbEntity
  8
1
  6
CONTINUOUS
 62
     7
100
AcDbLine
 10
-88.34560070914347
 20
-19.04221592507967
 30
0.0
 11
-87.75013830134492
 21
-20.07358706938413
 31
0.0
  0
LINE
  5
2D2
330
1F
100
AcDbEntity
  8
1
  6
CONTINUOUS
 62
     7
100
AcDbLine
 10
-87.75013830134492
 20
-20.07358706938413
 30
0.0
 11
-88.45950733988559
 21
-24.09661880105966
 31
0.0
  0
LINE
  5
2D3
330
1F
100
AcDbEntity
  8
1
  6
CONTINUOUS
 62
     7
100
AcDbLine
 10
-88.45950733988559
 20
-24.09661880105966
 30
0.0
 11
-90.11114585842142
 21
-25.7482573195955
 31
0.0
  0
LINE
  5
2D4
330
1F
100
AcDbEntity
  8
1
  6
CONTINUOUS
 62
     7
100
AcDbLine
 10
-77.85950733988557
 20
-24.09661880105966
 30
0.0
 11
-79.5111458584214
 21
-25.7482573195955
 31
0.0
  0
LINE
  5
2D5
330
1F
100
AcDbEntity
  8
1
  6
CONTINUOUS
 62
     7
100
AcDbLine
 10
-77.1501383013449
 20
-20.07358706938413
 30
0.0
 11
-77.85950733988557
 21
-24.09661880105966
 31
0.0
  0
LINE
  5
2D6
330
1F
100
AcDbEntity
  8
1
  6
CONTINUOUS
 62
     7
100
AcDbLine
 10
-77.74560070914345
 20
-19.04221592507967
 30
0.0
 11
-77.1501383013449
 21
-20.07358706938413
 31
0.0
  0
LINE
  5
2D7
330
1F
100
AcDbEntity
  8
1
  6
CONTINUOUS
 62
     7
100
AcDbLine
 10
-78.77436041294243
 20
-20.07097562887863
 30
0.0
 11
-77.74560070914345
 21
-19.04221592507967
 31
0.0
  0
LINE
  5
2D8
330
1F
100
AcDbEntity
  8
1
  6
CONTINUOUS
 62
     7
100
AcDbLine
 10
-79.62081822039681
 20
-24.87147640336818
 30
0.0
 11
-78.77436041294243
 21
-20.07097562887863
 31
0.0
  0
LINE
  5
2D9
330
1F
100
AcDbEntity
  8
1
  6
CONTINUOUS
 62
     7
100
AcDbLine
 10
-77.80488771503332
 20
-25.03194866986857
 30
0.0
 11
-74.2874268965657
 21
-25.03194866986857
 31
0.0
  0
LINE
  5
2DA
330
1F
100
AcDbEntity
  8
1
  6
CONTINUOUS
 62
     7
100
AcDbLine
 10
-79.0781699796272
 20
-26.30523093446246
 30
0.0
 11
-77.80488771503332
 21
-25.03194866986857
 31
0.0
  0
LINE
  5
2DB
330
1F
100
AcDbEntity
  8
1
  6
CONTINUOUS
 62
     7
100
AcDbLine
 10
-74.29836463654703
 20
-26.63194866986856
 30
0.0
 11
-78.1436065908785
 21
-26.63194866986856
 31
0.0
  0
LINE
  5
2DC
330
1F
100
AcDbEntity
  8
1
  6
CONTINUOUS
 62
     7
100
AcDbLine
 10
-74.2874268965657
 20
-25.03194866986857
 30
0.0
 11
-73.46791435186287
 21
-26.45138603473387
 31
0.0
  0
LINE
  5
2DD
330
1F
100
AcDbEntity
  8
1
  6
CONTINUOUS
 62
     7
100
AcDbLine
 10
-72.13465885563807
 20
-19.36171981047332
 30
0.0
 11
-71.52455732503478
 21
-20.41844665925375
 31
0.0
  0
LINE
  5
2DE
330
1F
100
AcDbEntity
  8
1
  6
CONTINUOUS
 62
     7
100
AcDbLine
 10
-73.14021758384223
 20
-20.36727853867748
 30
0.0
 11
-72.13465885563807
 21
-19.36171981047332
 31
0.0
  0
LINE
  5
2DF
330
1F
100
AcDbEntity
  8
1
  6
CONTINUOUS
 62
     7
100
AcDbLine
 10
-73.8495866223829
 20
-24.39031027035301
 30
0.0
 11
-73.14021758384223
 21
-20.36727853867748
 31
0.0
  0
LINE
  5
2E0
330
1F
100
AcDbEntity
  8
1
  6
CONTINUOUS
 62
     7
100
AcDbLine
 10
-72.8901380410893
 20
-26.05212396040338
 30
0.0
 11
-73.8495866223829
 21
-24.39031027035301
 31
0.0
  0
LINE
  5
2E1
330
1F
100
AcDbEntity
  8
1
  6
CONTINUOUS
 62
     7
100
AcDbLine
 10
-71.52455732503478
 20
-20.41844665925375
 30
0.0
 11
-72.32874913052262
 21
-24.97924502520243
 31
0.0
  0
LINE
  5
2E2
330
1F
100
AcDbEntity
  8
1
  6
CONTINUOUS
 62
     7
100
AcDbLine
 10
-72.58003236128195
 20
-17.190310270353
 30
0.0
 11
-71.87066332274128
 21
-13.16727853867748
 31
0.0
  0
LINE
  5
2E3
330
1F
100
AcDbEntity
  8
1
  6
CONTINUOUS
 62
     7
100
AcDbLine
 10
-71.9845699534834
 20
-18.22168141465745
 30
0.0
 11
-72.58003236128195
 21
-17.190310270353
 31
0.0
  0
LINE
  5
2E4
330
1F
100
AcDbEntity
  8
1
  6
CONTINUOUS
 62
     7
100
AcDbLine
 10
-70.95581024968442
 20
-17.1929217108585
 30
0.0
 11
-71.9845699534834
 21
-18.22168141465745
 31
0.0
  0
LINE
  5
2E5
330
1F
100
AcDbEntity
  8
1
  6
CONTINUOUS
 62
     7
100
AcDbLine
 10
-70.10935244223003
 20
-12.39242093636895
 30
0.0
 11
-70.95581024968442
 21
-17.1929217108585
 31
0.0
  0
LINE
  5
2E6
330
1F
100
AcDbEntity
  8
1
  6
CONTINUOUS
 62
     7
100
AcDbLine
 10
-71.87066332274128
 20
-13.16727853867748
 30
0.0
 11
-70.21902480420545
 21
-11.51564002014163
 31
0.0
  0
LINE
  5
2E7
330
1F
100
AcDbEntity
  8
1
  6
CONTINUOUS
 62
     7
100
AcDbLine
 10
-75.44274376606114
 20
-12.23194866986856
 30
0.0
 11
-76.26225631076397
 21
-10.81251130500326
 31
0.0
  0
LINE
  5
2E8
330
1F
100
AcDbEntity
  8
1
  6
CONTINUOUS
 62
     7
100
AcDbLine
 10
-71.92528294759353
 20
-12.23194866986856
 30
0.0
 11
-75.44274376606114
 21
-12.23194866986856
 31
0.0
  0
LINE
  5
2E9
330
1F
100
AcDbEntity
  8
1
  6
CONTINUOUS
 62
     7
100
AcDbLine
 10
-70.65200068299964
 20
-10.95866640527467
 30
0.0
 11
-71.92528294759353
 21
-12.23194866986856
 31
0.0
  0
LINE
  5
2EA
330
1F
100
AcDbEntity
  8
1
  6
CONTINUOUS
 62
     7
100
AcDbLine
 10
-75.43180602607981
 20
-10.63194866986856
 30
0.0
 11
-71.58656407174834
 21
-10.63194866986856
 31
0.0
  0
LINE
  5
2EB
330
1F
100
AcDbEntity
  8
1
  6
CONTINUOUS
 62
     7
100
AcDbLine
 10
-78.20561333759207
 20
-16.84545068048338
 30
0.0
 11
-77.40142153210422
 21
-12.2846523145347
 31
0.0
  0
LINE
  5
2EC
330
1F
100
AcDbEntity
  8
1
  6
CONTINUOUS
 62
     7
100
AcDbLine
 10
-77.59551180698878
 20
-17.90217752926381
 30
0.0
 11
-78.20561333759207
 21
-16.84545068048338
 31
0.0
  0
LINE
  5
2ED
330
1F
100
AcDbEntity
  8
1
  6
CONTINUOUS
 62
     7
100
AcDbLine
 10
-76.58995307878462
 20
-16.89661880105966
 30
0.0
 11
-77.59551180698878
 21
-17.90217752926381
 31
0.0
  0
LINE
  5
2EE
330
1F
100
AcDbEntity
  8
1
  6
CONTINUOUS
 62
     7
100
AcDbLine
 10
-75.88058404024395
 20
-12.87358706938413
 30
0.0
 11
-76.58995307878462
 21
-16.89661880105966
 31
0.0
  0
LINE
  5
2EF
330
1F
100
AcDbEntity
  8
1
  6
CONTINUOUS
 62
     7
100
AcDbLine
 10
-76.84003262153755
 20
-11.21177337933375
 30
0.0
 11
-75.88058404024395
 21
-12.87358706938413
 31
0.0
  0
LINE
  5
2F0
330
1F
100
AcDbEntity
  8
1
  6
CONTINUOUS
 62
     7
100
AcDbLine
 10
-76.71229802716209
 20
-19.43194866986856
 30
0.0
 11
-77.23316514384527
 21
-18.52978035978146
 31
0.0
  0
LINE
  5
2F1
330
1F
100
AcDbEntity
  8
1
  6
CONTINUOUS
 62
     7
100
AcDbLine
 10
-73.19483720869448
 20
-19.43194866986856
 30
0.0
 11
-76.71229802716209
 21
-19.43194866986856
 31
0.0
  0
LINE
  5
2F2
330
1F
100
AcDbEntity
  8
1
  6
CONTINUOUS
 62
     7
100
AcDbLine
 10
-72.49700551878158
 20
-18.73411697995567
 30
0.0
 11
-73.19483720869448
 21
-19.43194866986856
 31
0.0
  0
LINE
  5
2F3
330
1F
100
AcDbEntity
  8
1
  6
CONTINUOUS
 62
     7
100
AcDbLine
 10
-73.01787263546476
 20
-17.83194866986857
 30
0.0
 11
-72.49700551878158
 21
-18.73411697995567
 31
0.0
  0
LINE
  5
2F4
330
1F
100
AcDbEntity
  8
1
  6
CONTINUOUS
 62
     7
100
AcDbLine
 10
-76.53533345393237
 20
-17.83194866986857
 30
0.0
 11
-73.01787263546476
 21
-17.83194866986857
 31
0.0
  0
LINE
  5
2F5
330
1F
100
AcDbEntity
  8
1
  6
CONTINUOUS
 62
     7
100
AcDbLine
 10
-77.23316514384527
 20
-18.52978035978146
 30
0.0
 11
-76.53533345393237
 21
-17.83194866986857
 31
0.0
  0
LINE
  5
2F6
330
1F
100
AcDbEntity
  8
1
  6
CONTINUOUS
 62
     7
100
AcDbLine
 10
-40.16508533131349
 20
-4.48194866986856
 30
0.0
 11
-128.3650853313135
 21
-4.48194866986856
 31
0.0
  0
LINE
  5
2F7
330
1F
100
AcDbEntity
  8
1
  6
CONTINUOUS
 62
     7
100
AcDbLine
 10
-128.3650853313135
 20
-4.48194866986856
 30
0.0
 11
-128.3650853313135
 21
-47.78194866986857
 31
0.0
  0
LINE
  5
2F8
330
1F
100
AcDbEntity
  8
1
  6
CONTINUOUS
 62
     7
100
AcDbLine
 10
-136.7650853313135
 20
-30.13194866986858
 30
0.0
 11
-132.2650853313135
 21
-30.13194866986858
 31
0.0
  0
LINE
  5
2F9
330
1F
100
AcDbEntity
  8
1
  6
CONTINUOUS
 62
     7
100
AcDbLine
 10
-136.7650853313135
 20
-30.73194866986857
 30
0.0
 11
-136.7650853313135
 21
-30.13194866986858
 31
0.0
  0
LINE
  5
2FA
330
1F
100
AcDbEntity
  8
1
  6
CONTINUOUS
 62
     7
100
AcDbLine
 10
-136.7650853313135
 20
-30.73194866986857
 30
0.0
 11
-132.2650853313135
 21
-30.73194866986857
 31
0.0
  0
LINE
  5
2FB
330
1F
100
AcDbEntity
  8
1
  6
CONTINUOUS
 62
     7
100
AcDbLine
 10
-136.7650853313135
 20
-20.13194866986858
 30
0.0
 11
-136.7650853313135
 21
-19.53194866986858
 31
0.0
  0
LINE
  5
2FC
330
1F
100
AcDbEntity
  8
1
  6
CONTINUOUS
 62
     7
100
AcDbLine
 10
-137.3650853313135
 20
-30.03194866986858
 30
0.0
 11
-137.3650853313135
 21
-20.23194866986857
 31
0.0
  0
LINE
  5
2FD
330
1F
100
AcDbEntity
  8
1
  6
CONTINUOUS
 62
     7
100
AcDbLine
 10
-137.3650853313135
 20
-30.03194866986858
 30
0.0
 11
-132.2650853313135
 21
-30.03194866986858
 31
0.0
  0
LINE
  5
2FE
330
1F
100
AcDbEntity
  8
1
  6
CONTINUOUS
 62
     7
100
AcDbLine
 10
-137.3650853313135
 20
-20.23194866986857
 30
0.0
 11
-132.2650853313135
 21
-20.23194866986857
 31
0.0
  0
LINE
  5
2FF
330
1F
100
AcDbEntity
  8
1
  6
CONTINUOUS
 62
     7
100
AcDbLine
 10
-136.7650853313135
 20
-20.13194866986858
 30
0.0
 11
-132.2650853313135
 21
-20.13194866986858
 31
0.0
  0
LINE
  5
300
330
1F
100
AcDbEntity
  8
1
  6
CONTINUOUS
 62
     7
100
AcDbLine
 10
-136.7650853313135
 20
-19.53194866986858
 30
0.0
 11
-132.2650853313135
 21
-19.53194866986858
 31
0.0
  0
LINE
  5
301
330
1F
100
AcDbEntity
  8
1
  6
CONTINUOUS
 62
     7
100
AcDbLine
 10
-36.26508533131353
 20
-30.13194866986858
 30
0.0
 11
-31.76508533131353
 21
-30.13194866986858
 31
0.0
  0
LINE
  5
302
330
1F
100
AcDbEntity
  8
1
  6
CONTINUOUS
 62
     7
100
AcDbLine
 10
-31.76508533131353
 20
-30.13194866986858
 30
0.0
 11
-31.76508533131353
 21
-30.73194866986857
 31
0.0
  0
LINE
  5
303
330
1F
100
AcDbEntity
  8
1
  6
CONTINUOUS
 62
     7
100
AcDbLine
 10
-36.26508533131353
 20
-30.73194866986857
 30
0.0
 11
-31.76508533131353
 21
-30.73194866986857
 31
0.0
  0
LINE
  5
304
330
1F
100
AcDbEntity
  8
1
  6
CONTINUOUS
 62
     7
100
AcDbLine
 10
-31.76508533131353
 20
-19.53194866986858
 30
0.0
 11
-31.76508533131353
 21
-20.13194866986858
 31
0.0
  0
LINE
  5
305
330
1F
100
AcDbEntity
  8
1
  6
CONTINUOUS
 62
     7
100
AcDbLine
 10
-31.16508533131352
 20
-20.23194866986857
 30
0.0
 11
-31.16508533131352
 21
-30.03194866986858
 31
0.0
  0
LINE
  5
306
330
1F
100
AcDbEntity
  8
1
  6
CONTINUOUS
 62
     7
100
AcDbLine
 10
-36.26508533131353
 20
-30.03194866986858
 30
0.0
 11
-31.16508533131352
 21
-30.03194866986858
 31
0.0
  0
LINE
  5
307
330
1F
100
AcDbEntity
  8
1
  6
CONTINUOUS
 62
     7
100
AcDbLine
 10
-36.26508533131353
 20
-20.23194866986857
 30
0.0
 11
-31.16508533131352
 21
-20.23194866986857
 31
0.0
  0
LINE
  5
308
330
1F
100
AcDbEntity
  8
1
  6
CONTINUOUS
 62
     7
100
AcDbLine
 10
-36.26508533131353
 20
-20.13194866986858
 30
0.0
 11
-31.76508533131353
 21
-20.13194866986858
 31
0.0
  0
LINE
  5
309
330
1F
100
AcDbEntity
  8
1
  6
CONTINUOUS
 62
     7
100
AcDbLine
 10
-36.26508533131353
 20
-19.53194866986858
 30
0.0
 11
-31.76508533131353
 21
-19.53194866986858
 31
0.0
  0
LINE
  5
30A
330
1F
100
AcDbEntity
  8
1
  6
CONTINUOUS
 62
     7
100
AcDbLine
 10
68.23491466868649
 20
-23.13194866986858
 30
0.0
 11
68.23491466868649
 21
-27.13194866986858
 31
0.0
  0
LINE
  5
30B
330
1F
100
AcDbEntity
  8
1
  6
CONTINUOUS
 62
     7
100
AcDbLine
 10
68.23491466868649
 20
-27.13194866986858
 30
0.0
 11
85.53491466868647
 21
-27.13194866986858
 31
0.0
  0
LINE
  5
30C
330
1F
100
AcDbEntity
  8
1
  6
CONTINUOUS
 62
     7
100
AcDbLine
 10
68.23491466868649
 20
-23.13194866986858
 30
0.0
 11
85.53491466868647
 21
-23.13194866986858
 31
0.0
  0
LINE
  5
30D
330
1F
100
AcDbEntity
  8
1
  6
CONTINUOUS
 62
     7
100
AcDbLine
 10
114.2349146686865
 20
-23.13194866986858
 30
0.0
 11
111.5349146686865
 21
-23.13194866986858
 31
0.0
  0
LINE
  5
30E
330
1F
100
AcDbEntity
  8
1
  6
CONTINUOUS
 62
     7
100
AcDbLine
 10
114.2349146686865
 20
-27.13194866986858
 30
0.0
 11
111.5349146686865
 21
-27.13194866986858
 31
0.0
  0
LINE
  5
30F
330
1F
100
AcDbEntity
  8
1
  6
CONTINUOUS
 62
     7
100
AcDbLine
 10
114.2349146686865
 20
-27.13194866986858
 30
0.0
 11
114.2349146686865
 21
-26.63194866986858
 31
0.0
  0
LINE
  5
310
330
1F
100
AcDbEntity
  8
1
  6
CONTINUOUS
 62
     7
100
AcDbLine
 10
114.2349146686865
 20
-23.13194866986858
 30
0.0
 11
114.2349146686865
 21
-23.63194866986858
 31
0.0
  0
LINE
  5
311
330
1F
100
AcDbEntity
  8
1
  6
CONTINUOUS
 62
     7
100
AcDbLine
 10
118.9349146686865
 20
-30.13194866986858
 30
0.0
 11
118.9349146686865
 21
-30.73194866986857
 31
0.0
  0
LINE
  5
312
330
1F
100
AcDbEntity
  8
1
  6
CONTINUOUS
 62
     7
100
AcDbLine
 10
118.9349146686865
 20
-19.53194866986858
 30
0.0
 11
118.9349146686865
 21
-20.13194866986858
 31
0.0
  0
LINE
  5
313
330
1F
100
AcDbEntity
  8
1
  6
CONTINUOUS
 62
     7
100
AcDbLine
 10
27.53491466868649
 20
-19.53194866986858
 30
0.0
 11
27.53491466868649
 21
-30.73194866986857
 31
0.0
  0
LINE
  5
314
330
1F
100
AcDbEntity
  8
1
  6
CONTINUOUS
 62
     7
100
AcDbLine
 10
119.5349146686865
 20
-26.63194866986858
 30
0.0
 11
111.5349146686865
 21
-26.63194866986858
 31
0.0
  0
LINE
  5
315
330
1F
100
AcDbEntity
  8
1
  6
CONTINUOUS
 62
     2
100
AcDbLine
 10
119.5349146686865
 20
-26.3319486698686
 30
0.0
 11
111.5349146686865
 21
-26.3319486698686
 31
0.0
  0
LINE
  5
316
330
1F
100
AcDbEntity
  8
1
  6
CONTINUOUS
 62
     2
100
AcDbLine
 10
119.5349146686865
 20
-23.93194866986859
 30
0.0
 11
111.5349146686865
 21
-23.93194866986859
 31
0.0
  0
LINE
  5
317
330
1F
100
AcDbEntity
  8
1
  6
CONTINUOUS
 62
     7
100
AcDbLine
 10
119.5349146686865
 20
-23.63194866986858
 30
0.0
 11
111.5349146686865
 21
-23.63194866986858
 31
0.0
  0
LINE
  5
318
330
1F
100
AcDbEntity
  8
1
  6
CONTINUOUS
 62
     7
100
AcDbLine
 10
120.874034810311
 20
-27.88194866986858
 30
0.0
 11
120.1349146686865
 21
-27.88194866986858
 31
0.0
  0
LINE
  5
319
330
1F
100
AcDbEntity
  8
1
  6
CONTINUOUS
 62
     7
100
AcDbLine
 10
120.874034810311
 20
-22.38194866986858
 30
0.0
 11
120.1349146686865
 21
-22.38194866986858
 31
0.0
  0
LINE
  5
31A
330
1F
100
AcDbEntity
  8
1
  6
CONTINUOUS
 62
     7
100
AcDbLine
 10
119.5349146686865
 20
-20.13194866986858
 30
0.0
 11
119.5349146686865
 21
-30.13194866986858
 31
0.0
  0
LINE
  5
31B
330
1F
100
AcDbEntity
  8
1
  6
CONTINUOUS
 62
     7
100
AcDbLine
 10
120.1349146686865
 20
-20.13194866986858
 30
0.0
 11
120.1349146686865
 21
-30.13194866986858
 31
0.0
  0
LINE
  5
31C
330
1F
100
AcDbEntity
  8
1
  6
CONTINUOUS
 62
     7
100
AcDbLine
 10
27.53491466868649
 20
-30.73194866986857
 30
0.0
 11
118.9349146686865
 21
-30.73194866986857
 31
0.0
  0
LINE
  5
31D
330
1F
100
AcDbEntity
  8
1
  6
CONTINUOUS
 62
     7
100
AcDbLine
 10
27.53491466868649
 20
-30.13194866986858
 30
0.0
 11
120.1349146686865
 21
-30.13194866986858
 31
0.0
  0
LINE
  5
31E
330
1F
100
AcDbEntity
  8
1
  6
CONTINUOUS
 62
     7
100
AcDbLine
 10
120.1349146686865
 20
-20.13194866986858
 30
0.0
 11
27.53491466868648
 21
-20.13194866986858
 31
0.0
  0
LINE
  5
31F
330
1F
100
AcDbEntity
  8
1
  6
CONTINUOUS
 62
     7
100
AcDbLine
 10
27.53491466868649
 20
-19.53194866986858
 30
0.0
 11
118.9349146686865
 21
-19.53194866986858
 31
0.0
  0
LINE
  5
320
330
1F
100
AcDbEntity
  8
1
  6
CONTINUOUS
 62
     7
100
AcDbLine
 10
109.3349146686865
 20
-26.13194866986858
 30
0.0
 11
87.73491466868649
 21
-26.13194866986858
 31
0.0
  0
LINE
  5
321
330
1F
100
AcDbEntity
  8
1
  6
CONTINUOUS
 62
     7
100
AcDbLine
 10
87.73491466868649
 20
-24.13194866986858
 30
0.0
 11
109.3349146686865
 21
-24.13194866986858
 31
0.0
  0
LINE
  5
322
330
1F
100
AcDbEntity
  8
1
  6
CONTINUOUS
 62
     7
100
AcDbLine
 10
85.53491466868647
 20
-20.23194866986857
 30
0.0
 11
85.53491466868647
 21
-30.03194866986858
 31
0.0
  0
LINE
  5
323
330
1F
100
AcDbEntity
  8
1
  6
CONTINUOUS
 62
     7
100
AcDbLine
 10
111.5349146686865
 20
-20.23194866986857
 30
0.0
 11
85.53491466868647
 21
-20.23194866986857
 31
0.0
  0
LINE
  5
324
330
1F
100
AcDbEntity
  8
1
  6
CONTINUOUS
 62
     7
100
AcDbLine
 10
111.5349146686865
 20
-30.03194866986858
 30
0.0
 11
111.5349146686865
 21
-20.23194866986857
 31
0.0
  0
LINE
  5
325
330
1F
100
AcDbEntity
  8
1
  6
CONTINUOUS
 62
     7
100
AcDbLine
 10
85.53491466868647
 20
-30.03194866986858
 30
0.0
 11
111.5349146686865
 21
-30.03194866986858
 31
0.0
  0
LINE
  5
326
330
1F
100
AcDbEntity
  8
1
  6
CONTINUOUS
 62
     7
100
AcDbLine
 10
81.73491466868649
 20
-27.13194866986858
 30
0.0
 11
81.73491466868649
 21
-23.13194866986858
 31
0.0
  0
LINE
  5
327
330
1F
100
AcDbEntity
  8
1
  6
CONTINUOUS
 62
     7
100
AcDbLine
 10
112.2349146686865
 20
-19.53194866986858
 30
0.0
 11
112.2349146686865
 21
-16.88194866986859
 31
0.0
  0
LINE
  5
328
330
1F
100
AcDbEntity
  8
1
  6
CONTINUOUS
 62
     7
100
AcDbLine
 10
25.23491466868649
 20
-2.13194866986856
 30
0.0
 11
23.73491466868649
 21
-2.13194866986856
 31
0.0
  0
LINE
  5
329
330
1F
100
AcDbEntity
  8
1
  6
CONTINUOUS
 62
     7
100
AcDbLine
 10
25.23491466868649
 20
-50.13194866986858
 30
0.0
 11
25.23491466868649
 21
-2.13194866986856
 31
0.0
  0
LINE
  5
32A
330
1F
100
AcDbEntity
  8
1
  6
CONTINUOUS
 62
     7
100
AcDbLine
 10
23.73491466868649
 20
-50.13194866986858
 30
0.0
 11
25.23491466868649
 21
-50.13194866986858
 31
0.0
  0
LINE
  5
32B
330
1F
100
AcDbEntity
  8
1
  6
CONTINUOUS
 62
     7
100
AcDbLine
 10
-132.2650853313135
 20
-20.63194866986856
 30
0.0
 11
-132.2650853313135
 21
-31.63194866986856
 31
0.0
  0
LINE
  5
32C
330
1F
100
AcDbEntity
  8
1
  6
CONTINUOUS
 62
     7
100
AcDbLine
 10
-36.26508533131351
 20
-20.63194866986856
 30
0.0
 11
-36.26508533131353
 21
-31.63194866986856
 31
0.0
  0
LINE
  5
32D
330
1F
100
AcDbEntity
  8
1
  6
CONTINUOUS
 62
     7
100
AcDbLine
 10
18.4349146686865
 20
-28.63194866986856
 30
0.0
 11
17.23491466868649
 21
-28.63194866986856
 31
0.0
  0
LINE
  5
32E
330
1F
100
AcDbEntity
  8
1
  6
CONTINUOUS
 62
     7
100
AcDbLine
 10
16.4349146686865
 20
-23.63194866986857
 30
0.0
 11
17.23491466868649
 21
-23.63194866986857
 31
0.0
  0
LINE
  5
32F
330
1F
100
AcDbEntity
  8
1
  6
CONTINUOUS
 62
     7
100
AcDbLine
 10
17.23491466868649
 20
-28.63194866986856
 30
0.0
 11
17.23491466868649
 21
-23.63194866986857
 31
0.0
  0
LINE
  5
330
330
1F
100
AcDbEntity
  8
1
  6
CONTINUOUS
 62
     7
100
AcDbLine
 10
18.4349146686865
 20
-23.63194866986857
 30
0.0
 11
18.4349146686865
 21
-28.63194866986856
 31
0.0
  0
LINE
  5
331
330
1F
100
AcDbEntity
  8
1
  6
CONTINUOUS
 62
     7
100
AcDbLine
 10
17.23491466868649
 20
-28.63194866986856
 30
0.0
 11
16.4349146686865
 21
-28.63194866986856
 31
0.0
  0
LINE
  5
332
330
1F
100
AcDbEntity
  8
1
  6
CONTINUOUS
 62
     7
100
AcDbLine
 10
17.23491466868649
 20
-23.63194866986857
 30
0.0
 11
18.4349146686865
 21
-23.63194866986857
 31
0.0
  0
LINE
  5
333
330
1F
100
AcDbEntity
  8
1
  6
CONTINUOUS
 62
     7
100
AcDbLine
 10
18.5349146686865
 20
-50.13194866986856
 30
0.0
 11
14.20003643181448
 21
-49.82882445460069
 31
0.0
  0
LINE
  5
334
330
1F
100
AcDbEntity
  8
1
  6
CONTINUOUS
 62
     7
100
AcDbLine
 10
14.20003643181448
 20
-2.43507288513621
 30
0.0
 11
18.5349146686865
 21
-2.13194866986857
 31
0.0
  0
LINE
  5
335
330
1F
100
AcDbEntity
  8
1
  6
CONTINUOUS
 62
     7
100
AcDbLine
 10
17.5349146686865
 20
-33.82587969278876
 30
0.0
 11
13.73491466868649
 21
-31.63194866986856
 31
0.0
  0
LINE
  5
336
330
1F
100
AcDbEntity
  8
1
  6
CONTINUOUS
 62
     7
100
AcDbLine
 10
17.5349146686865
 20
-33.82587969278876
 30
0.0
 11
17.5349146686865
 21
-39.43194866986875
 31
0.0
  0
LINE
  5
337
330
1F
100
AcDbEntity
  8
1
  6
CONTINUOUS
 62
     7
100
AcDbLine
 10
17.5349146686865
 20
-39.43194866986875
 30
0.0
 11
18.5349146686865
 21
-39.43194866986875
 31
0.0
  0
LINE
  5
338
330
1F
100
AcDbEntity
  8
1
  6
CONTINUOUS
 62
     7
100
AcDbLine
 10
17.5349146686865
 20
-12.83194866986862
 30
0.0
 11
17.5349146686865
 21
-18.43801764694792
 31
0.0
  0
LINE
  5
339
330
1F
100
AcDbEntity
  8
1
  6
CONTINUOUS
 62
     7
100
AcDbLine
 10
13.73491466868649
 20
-20.63194866986857
 30
0.0
 11
17.5349146686865
 21
-18.43801764694792
 31
0.0
  0
LINE
  5
33A
330
1F
100
AcDbEntity
  8
1
  6
CONTINUOUS
 62
     7
100
AcDbLine
 10
18.5349146686865
 20
-12.83194866986862
 30
0.0
 11
17.5349146686865
 21
-12.83194866986862
 31
0.0
  0
LINE
  5
33B
330
1F
100
AcDbEntity
  8
1
  6
CONTINUOUS
 62
     7
100
AcDbLine
 10
-39.76508533131353
 20
-48.13194866986856
 30
0.0
 11
-128.7650853313135
 21
-48.13194866986856
 31
0.0
  0
LINE
  5
33C
330
1F
100
AcDbEntity
  8
1
  6
CONTINUOUS
 62
     7
100
AcDbLine
 10
-39.76508533131351
 20
-4.13194866986856
 30
0.0
 11
-39.76508533131353
 21
-48.13194866986856
 31
0.0
  0
LINE
  5
33D
330
1F
100
AcDbEntity
  8
1
  6
CONTINUOUS
 62
     7
100
AcDbLine
 10
-128.7650853313135
 20
-4.13194866986856
 30
0.0
 11
-39.76508533131351
 21
-4.13194866986856
 31
0.0
  0
LINE
  5
33E
330
1F
100
AcDbEntity
  8
1
  6
CONTINUOUS
 62
     7
100
AcDbLine
 10
-128.7650853313135
 20
-48.13194866986856
 30
0.0
 11
-128.7650853313135
 21
-4.13194866986856
 31
0.0
  0
LINE
  5
33F
330
1F
100
AcDbEntity
  8
1
  6
CONTINUOUS
 62
     7
100
AcDbLine
 10
-37.26508533131351
 20
-2.13194866986856
 30
0.0
 11
-131.2650853313135
 21
-2.13194866986856
 31
0.0
  0
LINE
  5
340
330
1F
100
AcDbEntity
  8
1
  6
CONTINUOUS
 62
     7
100
AcDbLine
 10
-131.2650853313135
 20
-50.13194866986856
 30
0.0
 11
-37.26508533131353
 21
-50.13194866986856
 31
0.0
  0
LINE
  5
341
330
1F
100
AcDbEntity
  8
1
  6
CONTINUOUS
 62
     7
100
AcDbLine
 10
-132.2650853313135
 20
-49.13194866986856
 30
0.0
 11
-132.2650853313135
 21
-31.63194866986856
 31
0.0
  0
LINE
  5
342
330
1F
100
AcDbEntity
  8
1
  6
CONTINUOUS
 62
     7
100
AcDbLine
 10
-130.8650853313135
 20
-31.63194866986856
 30
0.0
 11
-130.8650853313135
 21
-28.63194866986856
 31
0.0
  0
LINE
  5
343
330
1F
100
AcDbEntity
  8
1
  6
CONTINUOUS
 62
     7
100
AcDbLine
 10
-130.8650853313135
 20
-20.63194866986856
 30
0.0
 11
-132.2650853313135
 21
-20.63194866986856
 31
0.0
  0
LINE
  5
344
330
1F
100
AcDbEntity
  8
1
  6
CONTINUOUS
 62
     7
100
AcDbLine
 10
-132.2650853313135
 20
-20.63194866986856
 30
0.0
 11
-132.2650853313135
 21
-3.13194866986856
 31
0.0
  0
LINE
  5
345
330
1F
100
AcDbEntity
  8
1
  6
CONTINUOUS
 62
     7
100
AcDbLine
 10
-130.8650853313135
 20
-31.63194866986856
 30
0.0
 11
-132.2650853313135
 21
-31.63194866986856
 31
0.0
  0
LINE
  5
346
330
1F
100
AcDbEntity
  8
1
  6
CONTINUOUS
 62
     7
100
AcDbLine
 10
-130.8650853313135
 20
-28.63194866986856
 30
0.0
 11
-130.8650853313135
 21
-23.63194866986856
 31
0.0
  0
LINE
  5
347
330
1F
100
AcDbEntity
  8
1
  6
CONTINUOUS
 62
     7
100
AcDbLine
 10
-130.8650853313135
 20
-23.63194866986856
 30
0.0
 11
-130.8650853313135
 21
-20.63194866986856
 31
0.0
  0
LINE
  5
348
330
1F
100
AcDbEntity
  8
1
  6
CONTINUOUS
 62
     7
100
AcDbLine
 10
-37.66508533131352
 20
-20.63194866986856
 30
0.0
 11
-37.66508533131353
 21
-23.63194866986856
 31
0.0
  0
LINE
  5
349
330
1F
100
AcDbEntity
  8
1
  6
CONTINUOUS
 62
     7
100
AcDbLine
 10
-37.66508533131353
 20
-23.63194866986856
 30
0.0
 11
-37.66508533131353
 21
-28.63194866986856
 31
0.0
  0
LINE
  5
34A
330
1F
100
AcDbEntity
  8
1
  6
CONTINUOUS
 62
     7
100
AcDbLine
 10
-36.26508533131353
 20
-31.63194866986856
 30
0.0
 11
-37.66508533131353
 21
-31.63194866986856
 31
0.0
  0
LINE
  5
34B
330
1F
100
AcDbEntity
  8
1
  6
CONTINUOUS
 62
     7
100
AcDbLine
 10
-36.26508533131351
 20
-20.63194866986856
 30
0.0
 11
-37.66508533131352
 21
-20.63194866986856
 31
0.0
  0
LINE
  5
34C
330
1F
100
AcDbEntity
  8
1
  6
CONTINUOUS
 62
     7
100
AcDbLine
 10
-37.66508533131353
 20
-28.63194866986856
 30
0.0
 11
-37.66508533131353
 21
-31.63194866986856
 31
0.0
  0
LINE
  5
34D
330
1F
100
AcDbEntity
  8
1
  6
CONTINUOUS
 62
     7
100
AcDbLine
 10
-36.26508533131351
 20
-3.13194866986856
 30
0.0
 11
-36.26508533131351
 21
-20.63194866986856
 31
0.0
  0
LINE
  5
34E
330
1F
100
AcDbEntity
  8
1
  6
CONTINUOUS
 62
     7
100
AcDbLine
 10
-36.26508533131353
 20
-31.63194866986856
 30
0.0
 11
-36.26508533131353
 21
-49.13194866986856
 31
0.0
  0
LINE
  5
34F
330
1F
100
AcDbEntity
  8
1
  6
CONTINUOUS
 62
     7
100
AcDbLine
 10
18.5349146686865
 20
-39.43194866986875
 30
0.0
 11
18.5349146686865
 21
-50.13194866986856
 31
0.0
  0
LINE
  5
350
330
1F
100
AcDbEntity
  8
1
  6
CONTINUOUS
 62
     7
100
AcDbLine
 10
18.5349146686865
 20
-2.13194866986857
 30
0.0
 11
18.5349146686865
 21
-12.83194866986862
 31
0.0
  0
LINE
  5
351
330
1F
100
AcDbEntity
  8
1
  6
CONTINUOUS
 62
     7
100
AcDbLine
 10
13.73491466868649
 20
-49.33004242947055
 30
0.0
 11
13.73491466868649
 21
-31.26874124353332
 31
0.0
  0
LINE
  5
352
330
1F
100
AcDbEntity
  8
1
  6
CONTINUOUS
 62
     7
100
AcDbLine
 10
13.73491466868649
 20
-2.93385491026613
 30
0.0
 11
13.73491466868649
 21
-20.99515609620385
 31
0.0
  0
LINE
  5
353
330
1F
100
AcDbEntity
  8
1
  6
CONTINUOUS
 62
     7
100
AcDbLine
 10
23.73491466868649
 20
-50.13194866986858
 30
0.0
 11
23.73491466868649
 21
-2.13194866986856
 31
0.0
  0
LINE
  5
354
330
1F
100
AcDbEntity
  8
1
  6
CONTINUOUS
 62
     7
100
AcDbLine
 10
18.73491466868649
 20
-16.05126630099989
 30
0.0
 11
18.73491466868649
 21
-2.13194866986856
 31
0.0
  0
LINE
  5
355
330
1F
100
AcDbEntity
  8
1
  6
CONTINUOUS
 62
     7
100
AcDbLine
 10
18.73491466868649
 20
-36.21263103873726
 30
0.0
 11
18.73491466868649
 21
-50.13194866986858
 31
0.0
  0
LINE
  5
356
330
1F
100
AcDbEntity
  8
1
  6
CONTINUOUS
 62
     7
100
AcDbLine
 10
23.73491466868649
 20
-2.13194866986856
 30
0.0
 11
18.73491466868649
 21
-2.13194866986856
 31
0.0
  0
LINE
  5
357
330
1F
100
AcDbEntity
  8
1
  6
CONTINUOUS
 62
     7
100
AcDbLine
 10
23.73491466868649
 20
-50.13194866986858
 30
0.0
 11
18.73491466868649
 21
-50.13194866986858
 31
0.0
  0
LINE
  5
358
330
1F
100
AcDbEntity
  8
1
  6
CONTINUOUS
 62
     7
100
AcDbLine
 10
13.4349146686865
 20
-30.55459840067892
 30
0.0
 11
13.4349146686865
 21
-21.70929893905812
 31
0.0
  0
LINE
  5
359
330
1F
100
AcDbEntity
  8
1
  6
CONTINUOUS
 62
     7
100
AcDbLine
 10
18.73491466868649
 20
-28.80469489799539
 30
0.0
 11
18.73491466868649
 21
-23.45920244174199
 31
0.0
  0
LINE
  5
35A
330
1F
100
AcDbEntity
  8
1
  6
CONTINUOUS
 62
     7
100
AcDbLine
 10
16.4349146686865
 20
-29.03174113165876
 30
0.0
 11
16.4349146686865
 21
-23.23215620807839
 31
0.0
  0
LINE
  5
35B
330
1F
100
AcDbEntity
  8
1
  6
CONTINUOUS
 62
     7
100
AcDbLine
 10
123.7349146686865
 20
-15.88194866986859
 30
0.0
 11
123.7349146686865
 21
-12.88194866986859
 31
0.0
  0
LINE
  5
35C
330
1F
100
AcDbEntity
  8
1
  6
CONTINUOUS
 62
     7
100
AcDbLine
 10
123.7349146686865
 20
-39.38194866986859
 30
0.0
 11
123.7349146686865
 21
-36.38194866986859
 31
0.0
  0
LINE
  5
35D
330
1F
100
AcDbEntity
  8
1
  6
CONTINUOUS
 62
     7
100
AcDbLine
 10
94.23491466868649
 20
-8.1319486698686
 30
0.0
 11
91.23491466868649
 21
-8.1319486698686
 31
0.0
  0
LINE
  5
35E
330
1F
100
AcDbEntity
  8
1
  6
CONTINUOUS
 62
     7
100
AcDbLine
 10
91.23491466868649
 20
-8.1319486698686
 30
0.0
 11
91.23491466868649
 21
-11.1319486698686
 31
0.0
  0
LINE
  5
35F
330
1F
100
AcDbEntity
  8
1
  6
CONTINUOUS
 62
     7
100
AcDbLine
 10
94.23491466868649
 20
-11.1319486698686
 30
0.0
 11
94.23491466868649
 21
-8.1319486698686
 31
0.0
  0
LINE
  5
360
330
1F
100
AcDbEntity
  8
1
  6
CONTINUOUS
 62
     7
100
AcDbLine
 10
91.23491466868649
 20
-11.1319486698686
 30
0.0
 11
94.23491466868649
 21
-11.1319486698686
 31
0.0
  0
LINE
  5
361
330
1F
100
AcDbEntity
  8
1
  6
CONTINUOUS
 62
     7
100
AcDbLine
 10
46.73491466868649
 20
-41.13194866986858
 30
0.0
 11
46.73491466868649
 21
-44.13194866986858
 31
0.0
  0
LINE
  5
362
330
1F
100
AcDbEntity
  8
1
  6
CONTINUOUS
 62
     7
100
AcDbLine
 10
43.73491466868649
 20
-41.13194866986858
 30
0.0
 11
46.73491466868649
 21
-41.13194866986858
 31
0.0
  0
LINE
  5
363
330
1F
100
AcDbEntity
  8
1
  6
CONTINUOUS
 62
     7
100
AcDbLine
 10
43.73491466868649
 20
-44.13194866986858
 30
0.0
 11
43.73491466868649
 21
-41.13194866986858
 31
0.0
  0
LINE
  5
364
330
1F
100
AcDbEntity
  8
1
  6
CONTINUOUS
 62
     7
100
AcDbLine
 10
46.73491466868649
 20
-44.13194866986858
 30
0.0
 11
43.73491466868649
 21
-44.13194866986858
 31
0.0
  0
LINE
  5
365
330
1F
100
AcDbEntity
  8
1
  6
CONTINUOUS
 62
     7
100
AcDbLine
 10
72.48491466868649
 20
-6.13194866986857
 30
0.0
 11
110.4849146686865
 21
-6.13194866986858
 31
0.0
  0
LINE
  5
366
330
1F
100
AcDbEntity
  8
1
  6
CONTINUOUS
 62
     7
100
AcDbLine
 10
110.4849146686865
 20
-7.63194866986859
 30
0.0
 11
72.48491466868649
 21
-7.63194866986858
 31
0.0
  0
LINE
  5
367
330
1F
100
AcDbEntity
  8
1
  6
CONTINUOUS
 62
     7
100
AcDbLine
 10
94.78491466868648
 20
-17.63194866986858
 30
0.0
 11
82.2849146686865
 21
-17.63194866986858
 31
0.0
  0
LINE
  5
368
330
1F
100
AcDbEntity
  8
1
  6
CONTINUOUS
 62
     7
100
AcDbLine
 10
94.78491466868648
 20
-14.13194866986858
 30
0.0
 11
82.2849146686865
 21
-14.13194866986858
 31
0.0
  0
LINE
  5
369
330
1F
100
AcDbEntity
  8
1
  6
CONTINUOUS
 62
     7
100
AcDbLine
 10
82.2849146686865
 20
-16.13194866986858
 30
0.0
 11
94.78491466868648
 21
-16.13194866986858
 31
0.0
  0
LINE
  5
36A
330
1F
100
AcDbEntity
  8
1
  6
CONTINUOUS
 62
     7
100
AcDbLine
 10
55.7849146686865
 20
-17.63194866986858
 30
0.0
 11
43.2849146686865
 21
-17.63194866986857
 31
0.0
  0
LINE
  5
36B
330
1F
100
AcDbEntity
  8
1
  6
CONTINUOUS
 62
     7
100
AcDbLine
 10
75.2849146686865
 20
-17.63194866986858
 30
0.0
 11
62.7849146686865
 21
-17.63194866986858
 31
0.0
  0
LINE
  5
36C
330
1F
100
AcDbEntity
  8
1
  6
CONTINUOUS
 62
     7
100
AcDbLine
 10
62.7849146686865
 20
-16.13194866986858
 30
0.0
 11
75.2849146686865
 21
-16.13194866986858
 31
0.0
  0
LINE
  5
36D
330
1F
100
AcDbEntity
  8
1
  6
CONTINUOUS
 62
     7
100
AcDbLine
 10
75.2849146686865
 20
-14.13194866986858
 30
0.0
 11
62.7849146686865
 21
-14.13194866986858
 31
0.0
  0
LINE
  5
36E
330
1F
100
AcDbEntity
  8
1
  6
CONTINUOUS
 62
     7
100
AcDbLine
 10
55.7849146686865
 20
-14.13194866986858
 30
0.0
 11
43.2849146686865
 21
-14.13194866986857
 31
0.0
  0
LINE
  5
36F
330
1F
100
AcDbEntity
  8
1
  6
CONTINUOUS
 62
     7
100
AcDbLine
 10
43.2849146686865
 20
-16.13194866986857
 30
0.0
 11
55.7849146686865
 21
-16.13194866986858
 31
0.0
  0
LINE
  5
370
330
1F
100
AcDbEntity
  8
1
  6
CONTINUOUS
 62
     7
100
AcDbLine
 10
20.56390459702359
 20
-21.0291192383688
 30
0.0
 11
17.09289452536081
 21
-22.2924635872923
 31
0.0
  0
LINE
  5
371
330
1F
100
AcDbEntity
  8
1
  6
CONTINUOUS
 62
     7
100
AcDbLine
 10
20.48491466868649
 20
-15.90692873370245
 30
0.0
 11
19.48491466868649
 21
-16.48427900289217
 31
0.0
  0
LINE
  5
372
330
1F
100
AcDbEntity
  8
1
  6
CONTINUOUS
 62
     7
100
AcDbLine
 10
20.98491466868649
 20
-16.77295413748687
 30
0.0
 11
13.9349146686865
 21
-20.8432735352737
 31
0.0
  0
LINE
  5
373
330
1F
100
AcDbEntity
  8
1
  6
CONTINUOUS
 62
     7
100
AcDbLine
 10
13.9349146686865
 20
-31.42062380446346
 30
0.0
 11
20.98491466868649
 21
-35.49094320225031
 31
0.0
  0
LINE
  5
374
330
1F
100
AcDbEntity
  8
1
  6
CONTINUOUS
 62
     7
100
AcDbLine
 10
19.48491466868649
 20
-35.77961833684499
 30
0.0
 11
20.48491466868649
 21
-36.35696860603473
 31
0.0
  0
LINE
  5
375
330
1F
100
AcDbEntity
  8
1
  6
CONTINUOUS
 62
     7
100
AcDbLine
 10
20.90592474034941
 20
-21.96881185915479
 30
0.0
 11
19.39289452536079
 21
-22.51950982095612
 31
0.0
  0
LINE
  5
376
330
1F
100
AcDbEntity
  8
1
  6
CONTINUOUS
 62
     7
100
AcDbLine
 10
19.39289452536079
 20
-29.74438751878126
 30
0.0
 11
20.90592474034941
 21
-30.29508548058255
 31
0.0
  0
LINE
  5
377
330
1F
100
AcDbEntity
  8
1
  6
CONTINUOUS
 62
     7
100
AcDbLine
 10
17.09289452536081
 20
-29.97143375244475
 30
0.0
 11
20.56390459702359
 21
-31.23477810136854
 31
0.0
  0
LINE
  5
378
330
1F
100
AcDbEntity
  8
1
  6
CONTINUOUS
 62
     7
100
AcDbLine
 10
121.7349146686865
 20
-3.88194866986858
 30
0.0
 11
123.7349146686865
 21
-5.88194866986858
 31
0.0
  0
LINE
  5
379
330
1F
100
AcDbEntity
  8
1
  6
CONTINUOUS
 62
     7
100
AcDbLine
 10
123.7349146686865
 20
-46.38194866986859
 30
0.0
 11
121.7349146686865
 21
-48.38194866986859
 31
0.0
  0
LINE
  5
37A
330
1F
100
AcDbEntity
  8
1
  6
CONTINUOUS
 62
     7
100
AcDbLine
 10
123.7349146686865
 20
-11.01592326608415
 30
0.0
 11
123.7349146686865
 21
-5.88194866986858
 31
0.0
  0
LINE
  5
37B
330
1F
100
AcDbEntity
  8
1
  6
CONTINUOUS
 62
     7
100
AcDbLine
 10
113.7349146686865
 20
-3.88194866986858
 30
0.0
 11
121.7349146686865
 21
-3.88194866986858
 31
0.0
  0
LINE
  5
37C
330
1F
100
AcDbEntity
  8
1
  6
CONTINUOUS
 62
     7
100
AcDbLine
 10
113.7349146686865
 20
-48.38194866986859
 30
0.0
 11
121.7349146686865
 21
-48.38194866986859
 31
0.0
  0
LINE
  5
37D
330
1F
100
AcDbEntity
  8
1
  6
CONTINUOUS
 62
     7
100
AcDbLine
 10
113.7349146686865
 20
-17.88194866986859
 30
0.0
 11
113.2349146686865
 21
-17.88194866986859
 31
0.0
  0
LINE
  5
37E
330
1F
100
AcDbEntity
  8
1
  6
CONTINUOUS
 62
     7
100
AcDbLine
 10
123.7349146686865
 20
-36.38194866986859
 30
0.0
 11
123.7349146686865
 21
-17.88194866986859
 31
0.0
  0
LINE
  5
37F
330
1F
100
AcDbEntity
  8
1
  6
CONTINUOUS
 62
     7
100
AcDbLine
 10
113.7349146686865
 20
-10.88194866986859
 30
0.0
 11
123.7349146686865
 21
-10.88194866986859
 31
0.0
  0
LINE
  5
380
330
1F
100
AcDbEntity
  8
1
  6
CONTINUOUS
 62
     7
100
AcDbLine
 10
113.7349146686865
 20
-17.88194866986859
 30
0.0
 11
113.7349146686865
 21
-19.53194866986858
 31
0.0
  0
LINE
  5
381
330
1F
100
AcDbEntity
  8
1
  6
CONTINUOUS
 62
     7
100
AcDbLine
 10
123.7349146686865
 20
-17.88194866986859
 30
0.0
 11
113.7349146686865
 21
-17.88194866986859
 31
0.0
  0
LINE
  5
382
330
1F
100
AcDbEntity
  8
1
  6
CONTINUOUS
 62
     7
100
AcDbLine
 10
113.7349146686865
 20
-41.38194866986859
 30
0.0
 11
113.2349146686865
 21
-41.38194866986859
 31
0.0
  0
LINE
  5
383
330
1F
100
AcDbEntity
  8
1
  6
CONTINUOUS
 62
     7
100
AcDbLine
 10
123.7349146686865
 20
-41.38194866986859
 30
0.0
 11
113.7349146686865
 21
-41.38194866986859
 31
0.0
  0
LINE
  5
384
330
1F
100
AcDbEntity
  8
1
  6
CONTINUOUS
 62
     7
100
AcDbLine
 10
113.7349146686865
 20
-34.38194866986859
 30
0.0
 11
123.7349146686865
 21
-34.38194866986859
 31
0.0
  0
LINE
  5
385
330
1F
100
AcDbEntity
  8
1
  6
CONTINUOUS
 62
     7
100
AcDbLine
 10
113.7349146686865
 20
-34.38194866986859
 30
0.0
 11
113.7349146686865
 21
-30.73194866986857
 31
0.0
  0
LINE
  5
386
330
1F
100
AcDbEntity
  8
1
  6
CONTINUOUS
 62
     7
100
AcDbLine
 10
113.2349146686865
 20
-34.38194866986859
 30
0.0
 11
113.7349146686865
 21
-34.38194866986859
 31
0.0
  0
LINE
  5
387
330
1F
100
AcDbEntity
  8
1
  6
CONTINUOUS
 62
     7
100
AcDbLine
 10
25.23491466868649
 20
-3.88194866986856
 30
0.0
 11
112.2349146686865
 21
-3.88194866986858
 31
0.0
  0
LINE
  5
388
330
1F
100
AcDbEntity
  8
1
  6
CONTINUOUS
 62
     7
100
AcDbLine
 10
113.7349146686865
 20
-10.88194866986859
 30
0.0
 11
113.7349146686865
 21
-3.88194866986858
 31
0.0
  0
LINE
  5
389
330
1F
100
AcDbEntity
  8
1
  6
CONTINUOUS
 62
     7
100
AcDbLine
 10
112.2349146686865
 20
-3.88194866986858
 30
0.0
 11
113.7349146686865
 21
-3.88194866986858
 31
0.0
  0
LINE
  5
38A
330
1F
100
AcDbEntity
  8
1
  6
CONTINUOUS
 62
     7
100
AcDbLine
 10
113.2349146686865
 20
-10.88194866986859
 30
0.0
 11
113.7349146686865
 21
-10.88194866986859
 31
0.0
  0
LINE
  5
38B
330
1F
100
AcDbEntity
  8
1
  6
CONTINUOUS
 62
     7
100
AcDbLine
 10
25.23491466868649
 20
-48.38194866986858
 30
0.0
 11
112.2349146686865
 21
-48.38194866986859
 31
0.0
  0
LINE
  5
38C
330
1F
100
AcDbEntity
  8
1
  6
CONTINUOUS
 62
     7
100
AcDbLine
 10
113.7349146686865
 20
-41.38194866986859
 30
0.0
 11
113.7349146686865
 21
-48.38194866986859
 31
0.0
  0
LINE
  5
38D
330
1F
100
AcDbEntity
  8
1
  6
CONTINUOUS
 62
     7
100
AcDbLine
 10
112.2349146686865
 20
-48.38194866986859
 30
0.0
 11
113.7349146686865
 21
-48.38194866986859
 31
0.0
  0
LINE
  5
38E
330
1F
100
AcDbEntity
  8
1
  6
CONTINUOUS
 62
     7
100
AcDbLine
 10
72.48491466868649
 20
-44.63194866986858
 30
0.0
 11
110.4849146686865
 21
-44.63194866986859
 31
0.0
  0
LINE
  5
38F
330
1F
100
AcDbEntity
  8
1
  6
CONTINUOUS
 62
     7
100
AcDbLine
 10
110.4849146686865
 20
-46.13194866986859
 30
0.0
 11
72.48491466868649
 21
-46.13194866986859
 31
0.0
  0
LINE
  5
390
330
1F
100
AcDbEntity
  8
1
  6
CONTINUOUS
 62
     7
100
AcDbLine
 10
123.2349146686865
 20
-36.38194866986859
 30
0.0
 11
123.2349146686865
 21
-35.38194866986859
 31
0.0
  0
LINE
  5
391
330
1F
100
AcDbEntity
  8
1
  6
CONTINUOUS
 62
     7
100
AcDbLine
 10
123.7349146686865
 20
-12.88194866986859
 30
0.0
 11
123.7349146686865
 21
-11.01592326608415
 31
0.0
  0
LINE
  5
392
330
1F
100
AcDbEntity
  8
1
  6
CONTINUOUS
 62
     7
100
AcDbLine
 10
123.7349146686865
 20
-17.88194866986859
 30
0.0
 11
123.7349146686865
 21
-17.74797407365304
 31
0.0
  0
LINE
  5
393
330
1F
100
AcDbEntity
  8
1
  6
CONTINUOUS
 62
     7
100
AcDbLine
 10
123.2349146686865
 20
-12.88194866986859
 30
0.0
 11
123.2349146686865
 21
-11.88194866986859
 31
0.0
  0
LINE
  5
394
330
1F
100
AcDbEntity
  8
1
  6
CONTINUOUS
 62
     7
100
AcDbLine
 10
123.2349146686865
 20
-12.88194866986859
 30
0.0
 11
123.2349146686865
 21
-11.88194866986859
 31
0.0
  0
LINE
  5
395
330
1F
100
AcDbEntity
  8
1
  6
CONTINUOUS
 62
     7
100
AcDbLine
 10
123.2349146686865
 20
-12.88194866986859
 30
0.0
 11
123.7349146686865
 21
-12.88194866986859
 31
0.0
  0
LINE
  5
396
330
1F
100
AcDbEntity
  8
1
  6
CONTINUOUS
 62
     7
100
AcDbLine
 10
123.2349146686865
 20
-15.88194866986859
 30
0.0
 11
123.2349146686865
 21
-12.88194866986859
 31
0.0
  0
LINE
  5
397
330
1F
100
AcDbEntity
  8
1
  6
CONTINUOUS
 62
     7
100
AcDbLine
 10
123.2349146686865
 20
-15.88194866986859
 30
0.0
 11
123.2349146686865
 21
-12.88194866986859
 31
0.0
  0
LINE
  5
398
330
1F
100
AcDbEntity
  8
1
  6
CONTINUOUS
 62
     7
100
AcDbLine
 10
123.2349146686865
 20
-15.88194866986859
 30
0.0
 11
123.7349146686865
 21
-15.88194866986859
 31
0.0
  0
LINE
  5
399
330
1F
100
AcDbEntity
  8
1
  6
CONTINUOUS
 62
     7
100
AcDbLine
 10
123.7349146686865
 20
-17.74797407365304
 30
0.0
 11
123.7349146686865
 21
-15.88194866986859
 31
0.0
  0
LINE
  5
39A
330
1F
100
AcDbEntity
  8
1
  6
CONTINUOUS
 62
     7
100
AcDbLine
 10
123.2349146686865
 20
-16.88194866986859
 30
0.0
 11
123.2349146686865
 21
-15.88194866986859
 31
0.0
  0
LINE
  5
39B
330
1F
100
AcDbEntity
  8
1
  6
CONTINUOUS
 62
     7
100
AcDbLine
 10
123.2349146686865
 20
-16.88194866986859
 30
0.0
 11
123.2349146686865
 21
-15.88194866986859
 31
0.0
  0
LINE
  5
39C
330
1F
100
AcDbEntity
  8
1
  6
CONTINUOUS
 62
     7
100
AcDbLine
 10
123.2349146686865
 20
-36.38194866986859
 30
0.0
 11
123.7349146686865
 21
-36.38194866986859
 31
0.0
  0
LINE
  5
39D
330
1F
100
AcDbEntity
  8
1
  6
CONTINUOUS
 62
     7
100
AcDbLine
 10
123.2349146686865
 20
-39.38194866986859
 30
0.0
 11
123.2349146686865
 21
-36.38194866986859
 31
0.0
  0
LINE
  5
39E
330
1F
100
AcDbEntity
  8
1
  6
CONTINUOUS
 62
     7
100
AcDbLine
 10
123.2349146686865
 20
-39.38194866986859
 30
0.0
 11
123.7349146686865
 21
-39.38194866986859
 31
0.0
  0
LINE
  5
39F
330
1F
100
AcDbEntity
  8
1
  6
CONTINUOUS
 62
     7
100
AcDbLine
 10
123.7349146686865
 20
-46.38194866986859
 30
0.0
 11
123.7349146686865
 21
-39.38194866986859
 31
0.0
  0
LINE
  5
3A0
330
1F
100
AcDbEntity
  8
1
  6
CONTINUOUS
 62
     7
100
AcDbLine
 10
123.2349146686865
 20
-40.38194866986859
 30
0.0
 11
123.2349146686865
 21
-39.38194866986859
 31
0.0
  0
LINE
  5
3A1
330
1F
100
AcDbEntity
  8
1
  6
CONTINUOUS
 62
     7
100
AcDbLine
 10
55.7849146686865
 20
-36.13194866986858
 30
0.0
 11
43.2849146686865
 21
-36.13194866986858
 31
0.0
  0
LINE
  5
3A2
330
1F
100
AcDbEntity
  8
1
  6
CONTINUOUS
 62
     7
100
AcDbLine
 10
43.2849146686865
 20
-38.13194866986858
 30
0.0
 11
55.7849146686865
 21
-38.13194866986858
 31
0.0
  0
LINE
  5
3A3
330
1F
100
AcDbEntity
  8
1
  6
CONTINUOUS
 62
     7
100
AcDbLine
 10
62.7849146686865
 20
-38.13194866986858
 30
0.0
 11
75.2849146686865
 21
-38.13194866986858
 31
0.0
  0
LINE
  5
3A4
330
1F
100
AcDbEntity
  8
1
  6
CONTINUOUS
 62
     7
100
AcDbLine
 10
75.2849146686865
 20
-36.13194866986858
 30
0.0
 11
62.7849146686865
 21
-36.13194866986858
 31
0.0
  0
LINE
  5
3A5
330
1F
100
AcDbEntity
  8
1
  6
CONTINUOUS
 62
     7
100
AcDbLine
 10
75.2849146686865
 20
-32.63194866986858
 30
0.0
 11
62.7849146686865
 21
-32.63194866986858
 31
0.0
  0
LINE
  5
3A6
330
1F
100
AcDbEntity
  8
1
  6
CONTINUOUS
 62
     7
100
AcDbLine
 10
62.7849146686865
 20
-34.63194866986858
 30
0.0
 11
75.2849146686865
 21
-34.63194866986858
 31
0.0
  0
LINE
  5
3A7
330
1F
100
AcDbEntity
  8
1
  6
CONTINUOUS
 62
     7
100
AcDbLine
 10
43.2849146686865
 20
-34.63194866986858
 30
0.0
 11
55.7849146686865
 21
-34.63194866986858
 31
0.0
  0
LINE
  5
3A8
330
1F
100
AcDbEntity
  8
1
  6
CONTINUOUS
 62
     7
100
AcDbLine
 10
55.7849146686865
 20
-32.63194866986858
 30
0.0
 11
43.2849146686865
 21
-32.63194866986858
 31
0.0
  0
LINE
  5
3A9
330
1F
100
AcDbEntity
  8
1
  6
CONTINUOUS
 62
     7
100
AcDbLine
 10
94.78491466868648
 20
-36.13194866986859
 30
0.0
 11
82.2849146686865
 21
-36.13194866986858
 31
0.0
  0
LINE
  5
3AA
330
1F
100
AcDbEntity
  8
1
  6
CONTINUOUS
 62
     7
100
AcDbLine
 10
82.2849146686865
 20
-38.13194866986858
 30
0.0
 11
94.78491466868648
 21
-38.13194866986859
 31
0.0
  0
LINE
  5
3AB
330
1F
100
AcDbEntity
  8
1
  6
CONTINUOUS
 62
     7
100
AcDbLine
 10
82.2849146686865
 20
-34.63194866986858
 30
0.0
 11
94.78491466868648
 21
-34.63194866986859
 31
0.0
  0
LINE
  5
3AC
330
1F
100
AcDbEntity
  8
1
  6
CONTINUOUS
 62
     7
100
AcDbLine
 10
94.78491466868648
 20
-32.63194866986859
 30
0.0
 11
82.2849146686865
 21
-32.63194866986858
 31
0.0
  0
LINE
  5
3AD
330
1F
100
AcDbEntity
  8
1
  6
CONTINUOUS
 62
     7
100
AcDbLine
 10
112.2349146686865
 20
-48.38194866986859
 30
0.0
 11
112.2349146686865
 21
-40.38194866986859
 31
0.0
  0
LINE
  5
3AE
330
1F
100
AcDbEntity
  8
1
  6
CONTINUOUS
 62
     7
100
AcDbLine
 10
112.2349146686865
 20
-35.38194866986859
 30
0.0
 11
112.2349146686865
 21
-30.73194866986857
 31
0.0
  0
LINE
  5
3AF
330
1F
100
AcDbEntity
  8
1
  6
CONTINUOUS
 62
     7
100
AcDbLine
 10
112.2349146686865
 20
-11.88194866986859
 30
0.0
 11
112.2349146686865
 21
-3.88194866986858
 31
0.0
  0
LINE
  5
3B0
330
1F
100
AcDbEntity
  8
1
  6
CONTINUOUS
 62
     7
100
AcDbLine
 10
94.23491466868649
 20
-44.13194866986858
 30
0.0
 11
91.23491466868649
 21
-44.13194866986858
 31
0.0
  0
LINE
  5
3B1
330
1F
100
AcDbEntity
  8
1
  6
CONTINUOUS
 62
     7
100
AcDbLine
 10
91.23491466868649
 20
-44.13194866986858
 30
0.0
 11
91.23491466868649
 21
-41.13194866986858
 31
0.0
  0
LINE
  5
3B2
330
1F
100
AcDbEntity
  8
1
  6
CONTINUOUS
 62
     7
100
AcDbLine
 10
91.23491466868649
 20
-41.13194866986858
 30
0.0
 11
94.23491466868649
 21
-41.13194866986858
 31
0.0
  0
LINE
  5
3B3
330
1F
100
AcDbEntity
  8
1
  6
CONTINUOUS
 62
     7
100
AcDbLine
 10
94.23491466868649
 20
-41.13194866986858
 30
0.0
 11
94.23491466868649
 21
-44.13194866986858
 31
0.0
  0
LINE
  5
3B4
330
1F
100
AcDbEntity
  8
1
  6
CONTINUOUS
 62
     7
100
AcDbLine
 10
43.73491466868649
 20
-8.13194866986857
 30
0.0
 11
46.73491466868649
 21
-8.13194866986858
 31
0.0
  0
LINE
  5
3B5
330
1F
100
AcDbEntity
  8
1
  6
CONTINUOUS
 62
     7
100
AcDbLine
 10
43.73491466868649
 20
-11.13194866986859
 30
0.0
 11
43.73491466868649
 21
-8.13194866986857
 31
0.0
  0
LINE
  5
3B6
330
1F
100
AcDbEntity
  8
1
  6
CONTINUOUS
 62
     7
100
AcDbLine
 10
46.73491466868649
 20
-11.13194866986858
 30
0.0
 11
43.73491466868649
 21
-11.13194866986859
 31
0.0
  0
LINE
  5
3B7
330
1F
100
AcDbEntity
  8
1
  6
CONTINUOUS
 62
     7
100
AcDbLine
 10
46.73491466868649
 20
-8.13194866986858
 30
0.0
 11
46.73491466868649
 21
-11.13194866986858
 31
0.0
  0
ARC
  5
3B8
330
1F
100
AcDbEntity
  8
1
  6
CONTINUOUS
 62
     7
100
AcDbCircle
 10
-104.168345813096
 20
-37.63194866986856
 30
0.0
 40
1.499999999999982
100
AcDbArc
 50
325.8878426481106
 51
349.9999999999989
  0
ARC
  5
3B9
330
1F
100
AcDbEntity
  8
1
  6
CONTINUOUS
 62
     7
100
AcDbCircle
 10
-102.5765308703585
 20
-30.33194866986855
 30
0.0
 40
1.200000000000051
100
AcDbArc
 50
350.0000000000002
 51
24.49935085304964
  0
ARC
  5
3BA
330
1F
100
AcDbEntity
  8
1
  6
CONTINUOUS
 62
     7
100
AcDbCircle
 10
-116.6983646365471
 20
-24.63194866986856
 30
0.0
 40
2.000000000000006
100
AcDbArc
 50
314.7579531645203
 51
349.9999999999996
  0
ARC
  5
3BB
330
1F
100
AcDbEntity
  8
1
  6
CONTINUOUS
 62
     7
100
AcDbCircle
 10
-113.9865640717484
 20
-12.13194866986856
 30
0.0
 40
1.499999999999995
100
AcDbArc
 50
350.0000000000002
 51
24.25965147716663
  0
ARC
  5
3BC
330
1F
100
AcDbEntity
  8
1
  6
CONTINUOUS
 62
     7
100
AcDbCircle
 10
-47.06508533131352
 20
-35.63194866986856
 30
0.0
 40
0.3000000000000256
100
AcDbArc
 50
270.0
 51
90.0
  0
ARC
  5
3BD
330
1F
100
AcDbEntity
  8
1
  6
CONTINUOUS
 62
     7
100
AcDbCircle
 10
-66.4650853313135
 20
-35.63194866986856
 30
0.0
 40
0.3000000000000043
100
AcDbArc
 50
90.0
 51
270.0
  0
ARC
  5
3BE
330
1F
100
AcDbEntity
  8
1
  6
CONTINUOUS
 62
     7
100
AcDbCircle
 10
-66.4650853313135
 20
-34.43194866986858
 30
0.0
 40
0.3000000000000256
100
AcDbArc
 50
90.0
 51
270.0
  0
ARC
  5
3BF
330
1F
100
AcDbEntity
  8
1
  6
CONTINUOUS
 62
     7
100
AcDbCircle
 10
-47.06508533131352
 20
-34.43194866986858
 30
0.0
 40
0.2999999999999758
100
AcDbArc
 50
270.0
 51
90.0
  0
ARC
  5
3C0
330
1F
100
AcDbEntity
  8
1
  6
CONTINUOUS
 62
     7
100
AcDbCircle
 10
-66.4650853313135
 20
-36.83194866986855
 30
0.0
 40
0.2999999999999829
100
AcDbArc
 50
90.0
 51
270.0
  0
ARC
  5
3C1
330
1F
100
AcDbEntity
  8
1
  6
CONTINUOUS
 62
     7
100
AcDbCircle
 10
-47.06508533131352
 20
-36.83194866986855
 30
0.0
 40
0.3000000000000043
100
AcDbArc
 50
270.0
 51
90.0
  0
ARC
  5
3C2
330
1F
100
AcDbEntity
  8
1
  6
CONTINUOUS
 62
     7
100
AcDbCircle
 10
-47.06508533131352
 20
-16.63194866986856
 30
0.0
 40
0.3000000000000007
100
AcDbArc
 50
270.0
 51
90.0
  0
ARC
  5
3C3
330
1F
100
AcDbEntity
  8
1
  6
CONTINUOUS
 62
     7
100
AcDbCircle
 10
-66.4650853313135
 20
-16.63194866986856
 30
0.0
 40
0.2999999999999901
100
AcDbArc
 50
90.0
 51
270.0
  0
ARC
  5
3C4
330
1F
100
AcDbEntity
  8
1
  6
CONTINUOUS
 62
     7
100
AcDbCircle
 10
-66.4650853313135
 20
-15.43194866986856
 30
0.0
 40
0.3000000000000007
100
AcDbArc
 50
90.0
 51
270.0
  0
ARC
  5
3C5
330
1F
100
AcDbEntity
  8
1
  6
CONTINUOUS
 62
     7
100
AcDbCircle
 10
-47.06508533131352
 20
-15.43194866986856
 30
0.0
 40
0.2999999999999989
100
AcDbArc
 50
270.0
 51
90.0
  0
ARC
  5
3C6
330
1F
100
AcDbEntity
  8
1
  6
CONTINUOUS
 62
     7
100
AcDbCircle
 10
-66.4650853313135
 20
-17.83194866986857
 30
0.0
 40
0.3000000000000007
100
AcDbArc
 50
90.0
 51
270.0
  0
ARC
  5
3C7
330
1F
100
AcDbEntity
  8
1
  6
CONTINUOUS
 62
     7
100
AcDbCircle
 10
-47.06508533131352
 20
-17.83194866986857
 30
0.0
 40
0.2999999999999901
100
AcDbArc
 50
270.0
 51
90.0
  0
ARC
  5
3C8
330
1F
100
AcDbEntity
  8
1
  6
CONTINUOUS
 62
     7
100
AcDbCircle
 10
-47.06508533131352
 20
-27.33194866986855
 30
0.0
 40
0.3000000000000114
100
AcDbArc
 50
270.0
 51
90.0
  0
ARC
  5
3C9
330
1F
100
AcDbEntity
  8
1
  6
CONTINUOUS
 62
     7
100
AcDbCircle
 10
-66.4650853313135
 20
-27.33194866986855
 30
0.0
 40
0.2999999999999794
100
AcDbArc
 50
90.0
 51
270.0
  0
ARC
  5
3CA
330
1F
100
AcDbEntity
  8
1
  6
CONTINUOUS
 62
     7
100
AcDbCircle
 10
-47.06508533131352
 20
-24.93194866986858
 30
0.0
 40
0.2999999999999829
100
AcDbArc
 50
270.0
 51
90.0
  0
ARC
  5
3CB
330
1F
100
AcDbEntity
  8
1
  6
CONTINUOUS
 62
     7
100
AcDbCircle
 10
-66.4650853313135
 20
-24.93194866986858
 30
0.0
 40
0.3000000000000185
100
AcDbArc
 50
90.0
 51
270.0
  0
ARC
  5
3CC
330
1F
100
AcDbEntity
  8
1
  6
CONTINUOUS
 62
     7
100
AcDbCircle
 10
-66.4650853313135
 20
-26.13194866986856
 30
0.0
 40
0.3000000000000114
100
AcDbArc
 50
90.0
 51
270.0
  0
ARC
  5
3CD
330
1F
100
AcDbEntity
  8
1
  6
CONTINUOUS
 62
     7
100
AcDbCircle
 10
-47.06508533131352
 20
-26.13194866986856
 30
0.0
 40
0.3000000000000185
100
AcDbArc
 50
270.0
 51
90.0
  0
ARC
  5
3CE
330
1F
100
AcDbEntity
  8
1
  6
CONTINUOUS
 62
     7
100
AcDbCircle
 10
-98.75363979226853
 20
-37.93194866986858
 30
0.0
 40
1.200000000000009
100
AcDbArc
 50
169.9999999999998
 51
204.4993508530489
  0
ARC
  5
3CF
330
1F
100
AcDbEntity
  8
1
  6
CONTINUOUS
 62
     7
100
AcDbCircle
 10
-96.56834581309596
 20
-37.63194866986856
 30
0.0
 40
1.5
100
AcDbArc
 50
270.0
 51
298.6773691344027
  0
ARC
  5
3D0
330
1F
100
AcDbEntity
  8
1
  6
CONTINUOUS
 62
     7
100
AcDbCircle
 10
-98.75363979226853
 20
-37.93194866986858
 30
0.0
 40
1.200000000000016
100
AcDbArc
 50
238.4805545057558
 51
270.0
  0
ARC
  5
3D1
330
1F
100
AcDbEntity
  8
1
  6
CONTINUOUS
 62
     7
100
AcDbCircle
 10
-96.56834581309596
 20
-37.63194866986856
 30
0.0
 40
1.500000000000005
100
AcDbArc
 50
325.8878426481112
 51
349.999999999999
  0
ARC
  5
3D2
330
1F
100
AcDbEntity
  8
1
  6
CONTINUOUS
 62
     7
100
AcDbCircle
 10
-97.16182484953106
 20
-30.63194866986856
 30
0.0
 40
1.499999999999999
100
AcDbArc
 50
145.8878426481115
 51
170.0000000000006
  0
ARC
  5
3D3
330
1F
100
AcDbEntity
  8
1
  6
CONTINUOUS
 62
     7
100
AcDbCircle
 10
-97.16182484953106
 20
-30.63194866986856
 30
0.0
 40
1.5
100
AcDbArc
 50
90.0
 51
118.6773691344029
  0
ARC
  5
3D4
330
1F
100
AcDbEntity
  8
1
  6
CONTINUOUS
 62
     7
100
AcDbCircle
 10
-94.97653087035843
 20
-30.33194866986855
 30
0.0
 40
1.199999999999983
100
AcDbArc
 50
58.48055450575798
 51
90.0
  0
ARC
  5
3D5
330
1F
100
AcDbEntity
  8
1
  6
CONTINUOUS
 62
     7
100
AcDbCircle
 10
-94.97653087035843
 20
-30.33194866986855
 30
0.0
 40
1.200000000000009
100
AcDbArc
 50
349.9999999999998
 51
24.4993508530502
  0
ARC
  5
3D6
330
1F
100
AcDbEntity
  8
1
  6
CONTINUOUS
 62
     7
100
AcDbCircle
 10
-91.1536397922685
 20
-37.93194866986858
 30
0.0
 40
1.200000000000009
100
AcDbArc
 50
169.9999999999998
 51
204.4993508530489
  0
ARC
  5
3D7
330
1F
100
AcDbEntity
  8
1
  6
CONTINUOUS
 62
     7
100
AcDbCircle
 10
-88.96834581309594
 20
-37.63194866986856
 30
0.0
 40
1.5
100
AcDbArc
 50
270.0
 51
298.6773691344027
  0
ARC
  5
3D8
330
1F
100
AcDbEntity
  8
1
  6
CONTINUOUS
 62
     7
100
AcDbCircle
 10
-91.1536397922685
 20
-37.93194866986858
 30
0.0
 40
1.200000000000016
100
AcDbArc
 50
238.4805545057558
 51
270.0
  0
ARC
  5
3D9
330
1F
100
AcDbEntity
  8
1
  6
CONTINUOUS
 62
     7
100
AcDbCircle
 10
-88.96834581309594
 20
-37.63194866986856
 30
0.0
 40
1.500000000000005
100
AcDbArc
 50
325.8878426481112
 51
349.999999999999
  0
ARC
  5
3DA
330
1F
100
AcDbEntity
  8
1
  6
CONTINUOUS
 62
     7
100
AcDbCircle
 10
-89.56182484953104
 20
-30.63194866986856
 30
0.0
 40
1.499999999999999
100
AcDbArc
 50
145.8878426481115
 51
170.0000000000006
  0
ARC
  5
3DB
330
1F
100
AcDbEntity
  8
1
  6
CONTINUOUS
 62
     7
100
AcDbCircle
 10
-89.56182484953104
 20
-30.63194866986856
 30
0.0
 40
1.5
100
AcDbArc
 50
90.0
 51
118.6773691344029
  0
ARC
  5
3DC
330
1F
100
AcDbEntity
  8
1
  6
CONTINUOUS
 62
     7
100
AcDbCircle
 10
-87.37653087035841
 20
-30.33194866986855
 30
0.0
 40
1.199999999999983
100
AcDbArc
 50
58.48055450575798
 51
90.0
  0
ARC
  5
3DD
330
1F
100
AcDbEntity
  8
1
  6
CONTINUOUS
 62
     7
100
AcDbCircle
 10
-87.37653087035841
 20
-30.33194866986855
 30
0.0
 40
1.200000000000009
100
AcDbArc
 50
349.9999999999998
 51
24.4993508530502
  0
ARC
  5
3DE
330
1F
100
AcDbEntity
  8
1
  6
CONTINUOUS
 62
     7
100
AcDbCircle
 10
-83.55363979226848
 20
-37.93194866986858
 30
0.0
 40
1.200000000000009
100
AcDbArc
 50
169.9999999999998
 51
204.4993508530489
  0
ARC
  5
3DF
330
1F
100
AcDbEntity
  8
1
  6
CONTINUOUS
 62
     7
100
AcDbCircle
 10
-81.36834581309591
 20
-37.63194866986856
 30
0.0
 40
1.5
100
AcDbArc
 50
270.0
 51
298.6773691344027
  0
ARC
  5
3E0
330
1F
100
AcDbEntity
  8
1
  6
CONTINUOUS
 62
     7
100
AcDbCircle
 10
-83.55363979226848
 20
-37.93194866986858
 30
0.0
 40
1.200000000000016
100
AcDbArc
 50
238.4805545057558
 51
270.0
  0
ARC
  5
3E1
330
1F
100
AcDbEntity
  8
1
  6
CONTINUOUS
 62
     7
100
AcDbCircle
 10
-81.36834581309591
 20
-37.63194866986856
 30
0.0
 40
1.500000000000005
100
AcDbArc
 50
325.8878426481112
 51
349.999999999999
  0
ARC
  5
3E2
330
1F
100
AcDbEntity
  8
1
  6
CONTINUOUS
 62
     7
100
AcDbCircle
 10
-81.96182484953101
 20
-30.63194866986856
 30
0.0
 40
1.499999999999952
100
AcDbArc
 50
145.8878426481103
 51
170.0000000000006
  0
ARC
  5
3E3
330
1F
100
AcDbEntity
  8
1
  6
CONTINUOUS
 62
     7
100
AcDbCircle
 10
-81.96182484953101
 20
-30.63194866986856
 30
0.0
 40
1.5
100
AcDbArc
 50
90.0
 51
118.6773691344029
  0
ARC
  5
3E4
330
1F
100
AcDbEntity
  8
1
  6
CONTINUOUS
 62
     7
100
AcDbCircle
 10
-79.77653087035839
 20
-30.33194866986855
 30
0.0
 40
1.199999999999983
100
AcDbArc
 50
58.48055450575798
 51
90.0
  0
ARC
  5
3E5
330
1F
100
AcDbEntity
  8
1
  6
CONTINUOUS
 62
     7
100
AcDbCircle
 10
-79.77653087035839
 20
-30.33194866986855
 30
0.0
 40
1.200000000000009
100
AcDbArc
 50
349.9999999999998
 51
24.4993508530502
  0
ARC
  5
3E6
330
1F
100
AcDbEntity
  8
1
  6
CONTINUOUS
 62
     7
100
AcDbCircle
 10
-72.17653087035836
 20
-30.33194866986855
 30
0.0
 40
1.200000000000009
100
AcDbArc
 50
349.9999999999998
 51
24.4993508530502
  0
ARC
  5
3E7
330
1F
100
AcDbEntity
  8
1
  6
CONTINUOUS
 62
     7
100
AcDbCircle
 10
-72.17653087035836
 20
-30.33194866986855
 30
0.0
 40
1.199999999999983
100
AcDbArc
 50
58.48055450575798
 51
90.0
  0
ARC
  5
3E8
330
1F
100
AcDbEntity
  8
1
  6
CONTINUOUS
 62
     7
100
AcDbCircle
 10
-74.36182484953099
 20
-30.63194866986856
 30
0.0
 40
1.5
100
AcDbArc
 50
90.0
 51
118.6773691344029
  0
ARC
  5
3E9
330
1F
100
AcDbEntity
  8
1
  6
CONTINUOUS
 62
     7
100
AcDbCircle
 10
-74.36182484953099
 20
-30.63194866986856
 30
0.0
 40
1.499999999999999
100
AcDbArc
 50
145.8878426481115
 51
170.0000000000006
  0
ARC
  5
3EA
330
1F
100
AcDbEntity
  8
1
  6
CONTINUOUS
 62
     7
100
AcDbCircle
 10
-73.76834581309589
 20
-37.63194866986856
 30
0.0
 40
1.500000000000005
100
AcDbArc
 50
325.8878426481112
 51
349.999999999999
  0
ARC
  5
3EB
330
1F
100
AcDbEntity
  8
1
  6
CONTINUOUS
 62
     7
100
AcDbCircle
 10
-75.95363979226846
 20
-37.93194866986858
 30
0.0
 40
1.200000000000016
100
AcDbArc
 50
238.4805545057558
 51
270.0
  0
ARC
  5
3EC
330
1F
100
AcDbEntity
  8
1
  6
CONTINUOUS
 62
     7
100
AcDbCircle
 10
-73.76834581309589
 20
-37.63194866986856
 30
0.0
 40
1.5
100
AcDbArc
 50
270.0
 51
298.6773691344027
  0
ARC
  5
3ED
330
1F
100
AcDbEntity
  8
1
  6
CONTINUOUS
 62
     7
100
AcDbCircle
 10
-75.95363979226846
 20
-37.93194866986858
 30
0.0
 40
1.200000000000009
100
AcDbArc
 50
169.9999999999998
 51
204.4993508530489
  0
ARC
  5
3EE
330
1F
100
AcDbEntity
  8
1
  6
CONTINUOUS
 62
     7
100
AcDbCircle
 10
-107.2318060260799
 20
-12.63194866986856
 30
0.0
 40
2.000000000000008
100
AcDbArc
 50
134.7579531645208
 51
170.0
  0
ARC
  5
3EF
330
1F
100
AcDbEntity
  8
1
  6
CONTINUOUS
 62
     7
100
AcDbCircle
 10
-107.2318060260799
 20
-12.63194866986856
 30
0.0
 40
2.0
100
AcDbArc
 50
90.0
 51
114.5334955673918
  0
ARC
  5
3F0
330
1F
100
AcDbEntity
  8
1
  6
CONTINUOUS
 62
     7
100
AcDbCircle
 10
-103.3865640717484
 20
-12.13194866986856
 30
0.0
 40
1.500000000000007
100
AcDbArc
 50
51.46136169001346
 51
90.0
  0
ARC
  5
3F1
330
1F
100
AcDbEntity
  8
1
  6
CONTINUOUS
 62
     7
100
AcDbCircle
 10
-103.3865640717484
 20
-12.13194866986856
 30
0.0
 40
1.500000000000079
100
AcDbArc
 50
350.0000000000007
 51
24.25965147716684
  0
ARC
  5
3F2
330
1F
100
AcDbEntity
  8
1
  6
CONTINUOUS
 62
     7
100
AcDbCircle
 10
-106.0983646365471
 20
-24.63194866986856
 30
0.0
 40
2.000000000000016
100
AcDbArc
 50
314.7579531645206
 51
350.0000000000001
  0
ARC
  5
3F3
330
1F
100
AcDbEntity
  8
1
  6
CONTINUOUS
 62
     7
100
AcDbCircle
 10
-106.0983646365471
 20
-24.63194866986856
 30
0.0
 40
2.0
100
AcDbArc
 50
270.0
 51
294.5334955673943
  0
ARC
  5
3F4
330
1F
100
AcDbEntity
  8
1
  6
CONTINUOUS
 62
     7
100
AcDbCircle
 10
-109.9436065908786
 20
-25.13194866986856
 30
0.0
 40
1.500000000000015
100
AcDbArc
 50
231.4613616900137
 51
270.0
  0
ARC
  5
3F5
330
1F
100
AcDbEntity
  8
1
  6
CONTINUOUS
 62
     7
100
AcDbCircle
 10
-109.9436065908786
 20
-25.13194866986856
 30
0.0
 40
1.499999999999979
100
AcDbArc
 50
170.0000000000005
 51
204.2596514771672
  0
ARC
  5
3F6
330
1F
100
AcDbEntity
  8
1
  6
CONTINUOUS
 62
     7
100
AcDbCircle
 10
-96.63180602607986
 20
-12.63194866986856
 30
0.0
 40
1.999999999999988
100
AcDbArc
 50
134.7579531645202
 51
170.0
  0
ARC
  5
3F7
330
1F
100
AcDbEntity
  8
1
  6
CONTINUOUS
 62
     7
100
AcDbCircle
 10
-96.63180602607986
 20
-12.63194866986856
 30
0.0
 40
2.0
100
AcDbArc
 50
90.0
 51
114.5334955673933
  0
ARC
  5
3F8
330
1F
100
AcDbEntity
  8
1
  6
CONTINUOUS
 62
     7
100
AcDbCircle
 10
-92.78656407174839
 20
-12.13194866986856
 30
0.0
 40
1.500000000000007
100
AcDbArc
 50
51.46136169001346
 51
90.0
  0
ARC
  5
3F9
330
1F
100
AcDbEntity
  8
1
  6
CONTINUOUS
 62
     7
100
AcDbCircle
 10
-92.78656407174839
 20
-12.13194866986856
 30
0.0
 40
1.499999999999995
100
AcDbArc
 50
350.0000000000002
 51
24.25965147716684
  0
ARC
  5
3FA
330
1F
100
AcDbEntity
  8
1
  6
CONTINUOUS
 62
     7
100
AcDbCircle
 10
-95.49836463654708
 20
-24.63194866986856
 30
0.0
 40
2.000000000000036
100
AcDbArc
 50
314.7579531645212
 51
349.9999999999999
  0
ARC
  5
3FB
330
1F
100
AcDbEntity
  8
1
  6
CONTINUOUS
 62
     7
100
AcDbCircle
 10
-95.49836463654708
 20
-24.63194866986856
 30
0.0
 40
2.0
100
AcDbArc
 50
270.0
 51
294.5334955673932
  0
ARC
  5
3FC
330
1F
100
AcDbEntity
  8
1
  6
CONTINUOUS
 62
     7
100
AcDbCircle
 10
-99.34360659087855
 20
-25.13194866986856
 30
0.0
 40
1.500000000000042
100
AcDbArc
 50
231.4613616900125
 51
270.0
  0
ARC
  5
3FD
330
1F
100
AcDbEntity
  8
1
  6
CONTINUOUS
 62
     7
100
AcDbCircle
 10
-99.34360659087855
 20
-25.13194866986856
 30
0.0
 40
1.500000000000035
100
AcDbArc
 50
170.0000000000009
 51
204.2596514771663
  0
ARC
  5
3FE
330
1F
100
AcDbEntity
  8
1
  6
CONTINUOUS
 62
     7
100
AcDbCircle
 10
-86.03180602607983
 20
-12.63194866986856
 30
0.0
 40
1.999999999999988
100
AcDbArc
 50
134.7579531645202
 51
170.0
  0
ARC
  5
3FF
330
1F
100
AcDbEntity
  8
1
  6
CONTINUOUS
 62
     7
100
AcDbCircle
 10
-86.03180602607983
 20
-12.63194866986856
 30
0.0
 40
2.0
100
AcDbArc
 50
90.0
 51
114.5334955673933
  0
ARC
  5
400
330
1F
100
AcDbEntity
  8
1
  6
CONTINUOUS
 62
     7
100
AcDbCircle
 10
-82.18656407174836
 20
-12.13194866986856
 30
0.0
 40
1.500000000000007
100
AcDbArc
 50
51.46136169001346
 51
90.0
  0
ARC
  5
401
330
1F
100
AcDbEntity
  8
1
  6
CONTINUOUS
 62
     7
100
AcDbCircle
 10
-82.18656407174836
 20
-12.13194866986856
 30
0.0
 40
1.499999999999995
100
AcDbArc
 50
350.0000000000002
 51
24.25965147716684
  0
ARC
  5
402
330
1F
100
AcDbEntity
  8
1
  6
CONTINUOUS
 62
     7
100
AcDbCircle
 10
-84.89836463654706
 20
-24.63194866986856
 30
0.0
 40
2.000000000000036
100
AcDbArc
 50
314.7579531645212
 51
349.9999999999997
  0
ARC
  5
403
330
1F
100
AcDbEntity
  8
1
  6
CONTINUOUS
 62
     7
100
AcDbCircle
 10
-84.89836463654706
 20
-24.63194866986856
 30
0.0
 40
2.0
100
AcDbArc
 50
270.0
 51
294.5334955673932
  0
ARC
  5
404
330
1F
100
AcDbEntity
  8
1
  6
CONTINUOUS
 62
     7
100
AcDbCircle
 10
-88.74360659087853
 20
-25.13194866986856
 30
0.0
 40
1.500000000000015
100
AcDbArc
 50
231.4613616900137
 51
270.0
  0
ARC
  5
405
330
1F
100
AcDbEntity
  8
1
  6
CONTINUOUS
 62
     7
100
AcDbCircle
 10
-88.74360659087853
 20
-25.13194866986856
 30
0.0
 40
1.499999999999993
100
AcDbArc
 50
170.0000000000006
 51
204.2596514771672
  0
ARC
  5
406
330
1F
100
AcDbEntity
  8
1
  6
CONTINUOUS
 62
     7
100
AcDbCircle
 10
-78.1436065908785
 20
-25.13194866986856
 30
0.0
 40
1.499999999999993
100
AcDbArc
 50
170.0000000000006
 51
204.2596514771672
  0
ARC
  5
407
330
1F
100
AcDbEntity
  8
1
  6
CONTINUOUS
 62
     7
100
AcDbCircle
 10
-78.1436065908785
 20
-25.13194866986856
 30
0.0
 40
1.500000000000015
100
AcDbArc
 50
231.4613616900137
 51
270.0
  0
ARC
  5
408
330
1F
100
AcDbEntity
  8
1
  6
CONTINUOUS
 62
     7
100
AcDbCircle
 10
-74.29836463654703
 20
-24.63194866986856
 30
0.0
 40
2.0
100
AcDbArc
 50
270.0
 51
294.5334955673932
  0
ARC
  5
409
330
1F
100
AcDbEntity
  8
1
  6
CONTINUOUS
 62
     7
100
AcDbCircle
 10
-74.29836463654703
 20
-24.63194866986856
 30
0.0
 40
2.000000000000036
100
AcDbArc
 50
314.7579531645212
 51
349.9999999999997
  0
ARC
  5
40A
330
1F
100
AcDbEntity
  8
1
  6
CONTINUOUS
 62
     7
100
AcDbCircle
 10
-71.58656407174834
 20
-12.13194866986856
 30
0.0
 40
1.499999999999995
100
AcDbArc
 50
350.0000000000002
 51
24.25965147716684
  0
ARC
  5
40B
330
1F
100
AcDbEntity
  8
1
  6
CONTINUOUS
 62
     7
100
AcDbCircle
 10
-71.58656407174834
 20
-12.13194866986856
 30
0.0
 40
1.500000000000007
100
AcDbArc
 50
51.46136169001346
 51
90.0
  0
ARC
  5
40C
330
1F
100
AcDbEntity
  8
1
  6
CONTINUOUS
 62
     7
100
AcDbCircle
 10
-75.43180602607981
 20
-12.63194866986856
 30
0.0
 40
2.0
100
AcDbArc
 50
90.0
 51
114.5334955673933
  0
ARC
  5
40D
330
1F
100
AcDbEntity
  8
1
  6
CONTINUOUS
 62
     7
100
AcDbCircle
 10
-75.43180602607981
 20
-12.63194866986856
 30
0.0
 40
2.000000000000028
100
AcDbArc
 50
134.7579531645214
 51
170.0
  0
ARC
  5
40E
330
1F
100
AcDbEntity
  8
1
  6
CONTINUOUS
 62
     7
100
AcDbCircle
 10
120.874034810311
 20
-26.88194866986858
 30
0.0
 40
1.0
100
AcDbArc
 50
270.0
 51
343.0422366999954
  0
ARC
  5
40F
330
1F
100
AcDbEntity
  8
1
  6
CONTINUOUS
 62
     7
100
AcDbCircle
 10
115.1349146686865
 20
-25.13194866986858
 30
0.0
 40
7.000000000000018
100
AcDbArc
 50
343.0422366999958
 51
16.95776330000406
  0
ARC
  5
410
330
1F
100
AcDbEntity
  8
1
  6
CONTINUOUS
 62
     7
100
AcDbCircle
 10
120.874034810311
 20
-23.38194866986858
 30
0.0
 40
1.000000000000014
100
AcDbArc
 50
16.95776330000355
 51
90.0
  0
ARC
  5
411
330
1F
100
AcDbEntity
  8
1
  6
CONTINUOUS
 62
     7
100
AcDbCircle
 10
87.73491466868649
 20
-25.13194866986858
 30
0.0
 40
1.0
100
AcDbArc
 50
90.0
 51
270.0
  0
ARC
  5
412
330
1F
100
AcDbEntity
  8
1
  6
CONTINUOUS
 62
     7
100
AcDbCircle
 10
109.3349146686865
 20
-25.13194866986858
 30
0.0
 40
1.0
100
AcDbArc
 50
270.0
 51
90.0
  0
ARC
  5
413
330
1F
100
AcDbEntity
  8
1
  6
CONTINUOUS
 62
     7
100
AcDbCircle
 10
43.2849146686865
 20
-18.63194866986857
 30
0.0
 40
1.0
100
AcDbArc
 50
90.0
 51
244.1580672368348
  0
ARC
  5
414
330
1F
100
AcDbEntity
  8
1
  6
CONTINUOUS
 62
     7
100
AcDbCircle
 10
62.7849146686865
 20
-18.63194866986858
 30
0.0
 40
1.0
100
AcDbArc
 50
90.0
 51
244.1580672368335
  0
ARC
  5
415
330
1F
100
AcDbEntity
  8
1
  6
CONTINUOUS
 62
     7
100
AcDbCircle
 10
82.2849146686865
 20
-18.63194866986858
 30
0.0
 40
1.0
100
AcDbArc
 50
90.0
 51
244.1580672368331
  0
ARC
  5
416
330
1F
100
AcDbEntity
  8
1
  6
CONTINUOUS
 62
     7
100
AcDbCircle
 10
14.23491466868649
 20
-49.33004242947055
 30
0.0
 40
0.5
100
AcDbArc
 50
180.0
 51
266.0000000000079
  0
ARC
  5
417
330
1F
100
AcDbEntity
  8
1
  6
CONTINUOUS
 62
     7
100
AcDbCircle
 10
14.23491466868649
 20
-2.93385491026635
 30
0.0
 40
0.5000000000002236
100
AcDbArc
 50
93.99999999999206
 51
179.999999999974
  0
ARC
  5
418
330
1F
100
AcDbEntity
  8
1
  6
CONTINUOUS
 62
     7
100
AcDbCircle
 10
-37.26508533131351
 20
-3.13194866986856
 30
0.0
 40
1.0
100
AcDbArc
 50
0.0
 51
90.0
  0
ARC
  5
419
330
1F
100
AcDbEntity
  8
1
  6
CONTINUOUS
 62
     7
100
AcDbCircle
 10
-37.26508533131353
 20
-49.13194866986856
 30
0.0
 40
1.0
100
AcDbArc
 50
270.0
 51
0.0
  0
ARC
  5
41A
330
1F
100
AcDbEntity
  8
1
  6
CONTINUOUS
 62
     7
100
AcDbCircle
 10
-131.2650853313135
 20
-49.13194866986856
 30
0.0
 40
1.0
100
AcDbArc
 50
180.0
 51
270.0
  0
ARC
  5
41B
330
1F
100
AcDbEntity
  8
1
  6
CONTINUOUS
 62
     7
100
AcDbCircle
 10
-131.2650853313135
 20
-3.13194866986856
 30
0.0
 40
1.0
100
AcDbArc
 50
90.0
 51
180.0
  0
ARC
  5
41C
330
1F
100
AcDbEntity
  8
1
  6
CONTINUOUS
 62
     7
100
AcDbCircle
 10
72.48491466868649
 20
-6.88194866986857
 30
0.0
 40
0.75
100
AcDbArc
 50
90.0
 51
270.0
  0
ARC
  5
41D
330
1F
100
AcDbEntity
  8
1
  6
CONTINUOUS
 62
     7
100
AcDbCircle
 10
110.4849146686865
 20
-6.88194866986858
 30
0.0
 40
0.7500000000000071
100
AcDbArc
 50
270.0
 51
90.0
  0
ARC
  5
41E
330
1F
100
AcDbEntity
  8
1
  6
CONTINUOUS
 62
     7
100
AcDbCircle
 10
94.78491466868648
 20
-18.63194866986858
 30
0.0
 40
0.9999999999999964
100
AcDbArc
 50
295.8419327631669
 51
90.0
  0
ARC
  5
41F
330
1F
100
AcDbEntity
  8
1
  6
CONTINUOUS
 62
     7
100
AcDbCircle
 10
82.2849146686865
 20
-15.13194866986858
 30
0.0
 40
1.0
100
AcDbArc
 50
90.0
 51
270.0
  0
ARC
  5
420
330
1F
100
AcDbEntity
  8
1
  6
CONTINUOUS
 62
     7
100
AcDbCircle
 10
94.78491466868648
 20
-15.13194866986858
 30
0.0
 40
1.000000000000002
100
AcDbArc
 50
270.0
 51
90.0
  0
ARC
  5
421
330
1F
100
AcDbEntity
  8
1
  6
CONTINUOUS
 62
     7
100
AcDbCircle
 10
55.7849146686865
 20
-18.63194866986858
 30
0.0
 40
0.9999999999999964
100
AcDbArc
 50
295.8419327631669
 51
90.0
  0
ARC
  5
422
330
1F
100
AcDbEntity
  8
1
  6
CONTINUOUS
 62
     7
100
AcDbCircle
 10
75.2849146686865
 20
-18.63194866986858
 30
0.0
 40
0.9999999999999964
100
AcDbArc
 50
295.8419327631669
 51
90.0
  0
ARC
  5
423
330
1F
100
AcDbEntity
  8
1
  6
CONTINUOUS
 62
     7
100
AcDbCircle
 10
75.2849146686865
 20
-15.13194866986858
 30
0.0
 40
1.000000000000002
100
AcDbArc
 50
270.0
 51
90.0
  0
ARC
  5
424
330
1F
100
AcDbEntity
  8
1
  6
CONTINUOUS
 62
     7
100
AcDbCircle
 10
62.7849146686865
 20
-15.13194866986858
 30
0.0
 40
1.0
100
AcDbArc
 50
90.0
 51
270.0
  0
ARC
  5
425
330
1F
100
AcDbEntity
  8
1
  6
CONTINUOUS
 62
     7
100
AcDbCircle
 10
43.2849146686865
 20
-15.13194866986857
 30
0.0
 40
1.0
100
AcDbArc
 50
90.0
 51
270.0
  0
ARC
  5
426
330
1F
100
AcDbEntity
  8
1
  6
CONTINUOUS
 62
     7
100
AcDbCircle
 10
55.7849146686865
 20
-15.13194866986858
 30
0.0
 40
1.000000000000002
100
AcDbArc
 50
270.0
 51
90.0
  0
ARC
  5
427
330
1F
100
AcDbEntity
  8
1
  6
CONTINUOUS
 62
     7
100
AcDbCircle
 10
17.4349146686865
 20
-29.03174113165876
 30
0.0
 40
1.0
100
AcDbArc
 50
180.0
 51
250.0000000000004
  0
ARC
  5
428
330
1F
100
AcDbEntity
  8
1
  6
CONTINUOUS
 62
     7
100
AcDbCircle
 10
17.4349146686865
 20
-23.23215620807839
 30
0.0
 40
1.000000000000178
100
AcDbArc
 50
109.9999999999976
 51
180.0
  0
ARC
  5
429
330
1F
100
AcDbEntity
  8
1
  6
CONTINUOUS
 62
     7
100
AcDbCircle
 10
19.23491466868649
 20
-16.05126630099989
 30
0.0
 40
0.5
100
AcDbArc
 50
180.0
 51
299.9999999999966
  0
ARC
  5
42A
330
1F
100
AcDbEntity
  8
1
  6
CONTINUOUS
 62
     7
100
AcDbCircle
 10
20.73491466868649
 20
-16.33994143559461
 30
0.0
 40
0.5000000000000349
100
AcDbArc
 50
299.9999999999977
 51
120.0000000000034
  0
ARC
  5
42B
330
1F
100
AcDbEntity
  8
1
  6
CONTINUOUS
 62
     7
100
AcDbCircle
 10
14.4349146686865
 20
-21.70929893905812
 30
0.0
 40
0.9999999999999836
100
AcDbArc
 50
120.0000000000006
 51
180.0
  0
ARC
  5
42C
330
1F
100
AcDbEntity
  8
1
  6
CONTINUOUS
 62
     7
100
AcDbCircle
 10
14.4349146686865
 20
-21.70929893905812
 30
0.0
 40
0.9999999999999836
100
AcDbArc
 50
120.0000000000006
 51
180.0
  0
ARC
  5
42D
330
1F
100
AcDbEntity
  8
1
  6
CONTINUOUS
 62
     7
100
AcDbCircle
 10
14.4349146686865
 20
-21.70929893905812
 30
0.0
 40
0.9999999999999836
100
AcDbArc
 50
120.0000000000006
 51
180.0
  0
ARC
  5
42E
330
1F
100
AcDbEntity
  8
1
  6
CONTINUOUS
 62
     7
100
AcDbCircle
 10
14.4349146686865
 20
-30.55459840067892
 30
0.0
 40
1.0
100
AcDbArc
 50
180.0
 51
240.0000000000029
  0
ARC
  5
42F
330
1F
100
AcDbEntity
  8
1
  6
CONTINUOUS
 62
     7
100
AcDbCircle
 10
14.4349146686865
 20
-30.55459840067892
 30
0.0
 40
1.0
100
AcDbArc
 50
180.0
 51
240.0000000000029
  0
ARC
  5
430
330
1F
100
AcDbEntity
  8
1
  6
CONTINUOUS
 62
     7
100
AcDbCircle
 10
14.4349146686865
 20
-30.55459840067892
 30
0.0
 40
1.0
100
AcDbArc
 50
180.0
 51
240.0000000000029
  0
ARC
  5
431
330
1F
100
AcDbEntity
  8
1
  6
CONTINUOUS
 62
     7
100
AcDbCircle
 10
20.73491466868649
 20
-35.92395590414246
 30
0.0
 40
0.500000000000041
100
AcDbArc
 50
240.0000000000027
 51
59.9999999999962
  0
ARC
  5
432
330
1F
100
AcDbEntity
  8
1
  6
CONTINUOUS
 62
     7
100
AcDbCircle
 10
19.23491466868649
 20
-36.21263103873726
 30
0.0
 40
0.500000000000041
100
AcDbArc
 50
60.00000000000271
 51
180.0
  0
ARC
  5
433
330
1F
100
AcDbEntity
  8
1
  6
CONTINUOUS
 62
     7
100
AcDbCircle
 10
20.73491466868649
 20
-21.4989655487618
 30
0.0
 40
0.5000000000000645
100
AcDbArc
 50
290.0000000000077
 51
110.0000000000052
  0
ARC
  5
434
330
1F
100
AcDbEntity
  8
1
  6
CONTINUOUS
 62
     7
100
AcDbCircle
 10
19.73491466868649
 20
-23.45920244174199
 30
0.0
 40
0.9999999999999736
100
AcDbArc
 50
110.0000000000023
 51
180.0
  0
ARC
  5
435
330
1F
100
AcDbEntity
  8
1
  6
CONTINUOUS
 62
     7
100
AcDbCircle
 10
19.73491466868649
 20
-28.80469489799539
 30
0.0
 40
1.0
100
AcDbArc
 50
180.0
 51
249.9999999999977
  0
ARC
  5
436
330
1F
100
AcDbEntity
  8
1
  6
CONTINUOUS
 62
     7
100
AcDbCircle
 10
20.73491466868649
 20
-30.76493179097556
 30
0.0
 40
0.5000000000000472
100
AcDbArc
 50
249.9999999999941
 51
69.99999999999297
  0
ARC
  5
437
330
1F
100
AcDbEntity
  8
1
  6
CONTINUOUS
 62
     7
100
AcDbCircle
 10
113.2349146686865
 20
-16.88194866986859
 30
0.0
 40
1.0
100
AcDbArc
 50
180.0
 51
270.0
  0
ARC
  5
438
330
1F
100
AcDbEntity
  8
1
  6
CONTINUOUS
 62
     7
100
AcDbCircle
 10
113.2349146686865
 20
-16.88194866986859
 30
0.0
 40
1.0
100
AcDbArc
 50
180.0
 51
270.0
  0
ARC
  5
439
330
1F
100
AcDbEntity
  8
1
  6
CONTINUOUS
 62
     7
100
AcDbCircle
 10
113.2349146686865
 20
-16.88194866986859
 30
0.0
 40
1.0
100
AcDbArc
 50
180.0
 51
270.0
  0
ARC
  5
43A
330
1F
100
AcDbEntity
  8
1
  6
CONTINUOUS
 62
     7
100
AcDbCircle
 10
113.2349146686865
 20
-11.88194866986859
 30
0.0
 40
1.0
100
AcDbArc
 50
90.0
 51
180.0
  0
ARC
  5
43B
330
1F
100
AcDbEntity
  8
1
  6
CONTINUOUS
 62
     7
100
AcDbCircle
 10
113.2349146686865
 20
-11.88194866986859
 30
0.0
 40
1.0
100
AcDbArc
 50
90.0
 51
180.0
  0
ARC
  5
43C
330
1F
100
AcDbEntity
  8
1
  6
CONTINUOUS
 62
     7
100
AcDbCircle
 10
113.2349146686865
 20
-11.88194866986859
 30
0.0
 40
1.0
100
AcDbArc
 50
90.0
 51
180.0
  0
ARC
  5
43D
330
1F
100
AcDbEntity
  8
1
  6
CONTINUOUS
 62
     7
100
AcDbCircle
 10
113.2349146686865
 20
-40.38194866986859
 30
0.0
 40
1.0
100
AcDbArc
 50
180.0
 51
270.0
  0
ARC
  5
43E
330
1F
100
AcDbEntity
  8
1
  6
CONTINUOUS
 62
     7
100
AcDbCircle
 10
113.2349146686865
 20
-40.38194866986859
 30
0.0
 40
1.0
100
AcDbArc
 50
180.0
 51
270.0
  0
ARC
  5
43F
330
1F
100
AcDbEntity
  8
1
  6
CONTINUOUS
 62
     7
100
AcDbCircle
 10
113.2349146686865
 20
-40.38194866986859
 30
0.0
 40
1.0
100
AcDbArc
 50
180.0
 51
270.0
  0
ARC
  5
440
330
1F
100
AcDbEntity
  8
1
  6
CONTINUOUS
 62
     7
100
AcDbCircle
 10
113.2349146686865
 20
-35.38194866986859
 30
0.0
 40
1.0
100
AcDbArc
 50
90.0
 51
180.0
  0
ARC
  5
441
330
1F
100
AcDbEntity
  8
1
  6
CONTINUOUS
 62
     7
100
AcDbCircle
 10
113.2349146686865
 20
-35.38194866986859
 30
0.0
 40
1.0
100
AcDbArc
 50
90.0
 51
180.0
  0
ARC
  5
442
330
1F
100
AcDbEntity
  8
1
  6
CONTINUOUS
 62
     7
100
AcDbCircle
 10
113.2349146686865
 20
-35.38194866986859
 30
0.0
 40
1.0
100
AcDbArc
 50
90.0
 51
180.0
  0
ARC
  5
443
330
1F
100
AcDbEntity
  8
1
  6
CONTINUOUS
 62
     7
100
AcDbCircle
 10
110.4849146686865
 20
-45.38194866986859
 30
0.0
 40
0.75
100
AcDbArc
 50
270.0
 51
90.0
  0
ARC
  5
444
330
1F
100
AcDbEntity
  8
1
  6
CONTINUOUS
 62
     7
100
AcDbCircle
 10
72.48491466868649
 20
-45.38194866986858
 30
0.0
 40
0.75
100
AcDbArc
 50
90.0
 51
270.0
  0
ARC
  5
445
330
1F
100
AcDbEntity
  8
1
  6
CONTINUOUS
 62
     7
100
AcDbCircle
 10
124.2349146686865
 20
-40.38194866986859
 30
0.0
 40
1.0
100
AcDbArc
 50
180.0
 51
240.0000000000002
  0
ARC
  5
446
330
1F
100
AcDbEntity
  8
1
  6
CONTINUOUS
 62
     7
100
AcDbCircle
 10
124.2349146686865
 20
-35.38194866986859
 30
0.0
 40
1.000000000000014
100
AcDbArc
 50
119.9999999999995
 51
180.0
  0
ARC
  5
447
330
1F
100
AcDbEntity
  8
1
  6
CONTINUOUS
 62
     7
100
AcDbCircle
 10
124.2349146686865
 20
-11.88194866986859
 30
0.0
 40
1.000000000000002
100
AcDbArc
 50
119.9999999999999
 51
180.0
  0
ARC
  5
448
330
1F
100
AcDbEntity
  8
1
  6
CONTINUOUS
 62
     7
100
AcDbCircle
 10
124.2349146686865
 20
-16.88194866986859
 30
0.0
 40
1.0
100
AcDbArc
 50
180.0
 51
240.0000000000003
  0
ARC
  5
449
330
1F
100
AcDbEntity
  8
1
  6
CONTINUOUS
 62
     7
100
AcDbCircle
 10
55.7849146686865
 20
-37.13194866986858
 30
0.0
 40
1.0
100
AcDbArc
 50
270.0
 51
90.0
  0
ARC
  5
44A
330
1F
100
AcDbEntity
  8
1
  6
CONTINUOUS
 62
     7
100
AcDbCircle
 10
43.2849146686865
 20
-37.13194866986858
 30
0.0
 40
1.0
100
AcDbArc
 50
90.0
 51
270.0
  0
ARC
  5
44B
330
1F
100
AcDbEntity
  8
1
  6
CONTINUOUS
 62
     7
100
AcDbCircle
 10
62.7849146686865
 20
-37.13194866986858
 30
0.0
 40
1.0
100
AcDbArc
 50
90.0
 51
270.0
  0
ARC
  5
44C
330
1F
100
AcDbEntity
  8
1
  6
CONTINUOUS
 62
     7
100
AcDbCircle
 10
75.2849146686865
 20
-37.13194866986858
 30
0.0
 40
1.0
100
AcDbArc
 50
270.0
 51
90.0
  0
ARC
  5
44D
330
1F
100
AcDbEntity
  8
1
  6
CONTINUOUS
 62
     7
100
AcDbCircle
 10
75.2849146686865
 20
-33.63194866986858
 30
0.0
 40
1.0
100
AcDbArc
 50
270.0
 51
90.0
  0
ARC
  5
44E
330
1F
100
AcDbEntity
  8
1
  6
CONTINUOUS
 62
     7
100
AcDbCircle
 10
62.7849146686865
 20
-33.63194866986858
 30
0.0
 40
1.0
100
AcDbArc
 50
90.0
 51
270.0
  0
ARC
  5
44F
330
1F
100
AcDbEntity
  8
1
  6
CONTINUOUS
 62
     7
100
AcDbCircle
 10
43.2849146686865
 20
-33.63194866986858
 30
0.0
 40
1.0
100
AcDbArc
 50
90.0
 51
270.0
  0
ARC
  5
450
330
1F
100
AcDbEntity
  8
1
  6
CONTINUOUS
 62
     7
100
AcDbCircle
 10
55.7849146686865
 20
-33.63194866986858
 30
0.0
 40
1.0
100
AcDbArc
 50
270.0
 51
90.0
  0
ARC
  5
451
330
1F
100
AcDbEntity
  8
1
  6
CONTINUOUS
 62
     7
100
AcDbCircle
 10
94.78491466868648
 20
-37.13194866986859
 30
0.0
 40
1.0
100
AcDbArc
 50
270.0
 51
90.0
  0
ARC
  5
452
330
1F
100
AcDbEntity
  8
1
  6
CONTINUOUS
 62
     7
100
AcDbCircle
 10
82.2849146686865
 20
-37.13194866986858
 30
0.0
 40
1.0
100
AcDbArc
 50
90.0
 51
270.0
  0
ARC
  5
453
330
1F
100
AcDbEntity
  8
1
  6
CONTINUOUS
 62
     7
100
AcDbCircle
 10
82.2849146686865
 20
-33.63194866986858
 30
0.0
 40
1.0
100
AcDbArc
 50
90.0
 51
270.0
  0
ARC
  5
454
330
1F
100
AcDbEntity
  8
1
  6
CONTINUOUS
 62
     7
100
AcDbCircle
 10
94.78491466868648
 20
-33.63194866986859
 30
0.0
 40
1.0
100
AcDbArc
 50
270.0
 51
90.0
  0
CIRCLE
  5
455
330
1F
100
AcDbEntity
  8
1
  6
CONTINUOUS
 62
     7
100
AcDbCircle
 10
-101.4650853313135
 20
-38.53194866986866
 30
0.0
 40
0.5
  0
CIRCLE
  5
456
330
1F
100
AcDbEntity
  8
1
  6
CONTINUOUS
 62
     7
100
AcDbCircle
 10
-113.2650853313135
 20
-25.83194866986861
 30
0.0
 40
0.7000000000000028
  0
CIRCLE
  5
457
330
1F
100
AcDbEntity
  8
1
  6
CONTINUOUS
 62
     7
100
AcDbCircle
 10
-93.86508533131348
 20
-38.53194866986866
 30
0.0
 40
0.5
  0
CIRCLE
  5
458
330
1F
100
AcDbEntity
  8
1
  6
CONTINUOUS
 62
     7
100
AcDbCircle
 10
-86.26508533131346
 20
-38.53194866986866
 30
0.0
 40
0.5
  0
CIRCLE
  5
459
330
1F
100
AcDbEntity
  8
1
  6
CONTINUOUS
 62
     7
100
AcDbCircle
 10
-78.66508533131343
 20
-38.53194866986866
 30
0.0
 40
0.5
  0
CIRCLE
  5
45A
330
1F
100
AcDbEntity
  8
1
  6
CONTINUOUS
 62
     7
100
AcDbCircle
 10
-102.6650853313135
 20
-25.83194866986861
 30
0.0
 40
0.7000000000000028
  0
CIRCLE
  5
45B
330
1F
100
AcDbEntity
  8
1
  6
CONTINUOUS
 62
     7
100
AcDbCircle
 10
-92.06508533131347
 20
-25.83194866986861
 30
0.0
 40
0.6999999999999886
  0
CIRCLE
  5
45C
330
1F
100
AcDbEntity
  8
1
  6
CONTINUOUS
 62
     7
100
AcDbCircle
 10
-81.46508533131345
 20
-25.83194866986861
 30
0.0
 40
0.6999999999999886
  0
LWPOLYLINE
  5
45D
330
1F
100
AcDbEntity
  8
1
  6
CONTINUOUS
 62
     7
 60
     1
100
AcDbPolyline
 90
        5
 70
     0
 43
0.0
 10
43.73491466868649
 20
-11.13194866986859
 10
43.73491466868649
 20
-9.63194866986859
 10
23.73491466868649
 20
-9.63194866986859
 10
23.73491466868649
 20
-11.59563691489157
 10
37.23491466868649
 20
-11.63194866986859
  0
ARC
  5
45E
330
1F
100
AcDbEntity
  8
1
  6
CONTINUOUS
 62
     7
100
AcDbCircle
 10
-72.06508533131347
 20
-40.63194866986862
 30
0.0
 40
0.5
100
AcDbArc
 50
0.0
 51
90.0
  0
ARC
  5
45F
330
1F
100
AcDbEntity
  8
1
  6
CONTINUOUS
 62
     7
100
AcDbCircle
 10
-72.06508533131347
 20
-41.63194866986862
 30
0.0
 40
0.5
100
AcDbArc
 50
270.0
 51
0.0
  0
ARC
  5
460
330
1F
100
AcDbEntity
  8
1
  6
CONTINUOUS
 62
     7
100
AcDbCircle
 10
-76.06508533131347
 20
-41.63194866986862
 30
0.0
 40
0.5
100
AcDbArc
 50
180.0
 51
270.0
  0
ARC
  5
461
330
1F
100
AcDbEntity
  8
1
  6
CONTINUOUS
 62
     7
100
AcDbCircle
 10
-76.06508533131347
 20
-40.63194866986862
 30
0.0
 40
0.5
100
AcDbArc
 50
90.0
 51
180.0
  0
ARC
  5
462
330
1F
100
AcDbEntity
  8
1
  6
CONTINUOUS
 62
     7
100
AcDbCircle
 10
-114.0650853313136
 20
-40.63194866986862
 30
0.0
 40
0.5
100
AcDbArc
 50
90.0
 51
180.0
  0
ARC
  5
463
330
1F
100
AcDbEntity
  8
1
  6
CONTINUOUS
 62
     7
100
AcDbCircle
 10
-114.0650853313136
 20
-41.63194866986862
 30
0.0
 40
0.5
100
AcDbArc
 50
180.0
 51
270.0
  0
ARC
  5
464
330
1F
100
AcDbEntity
  8
1
  6
CONTINUOUS
 62
     7
100
AcDbCircle
 10
-110.0650853313136
 20
-41.63194866986862
 30
0.0
 40
0.5
100
AcDbArc
 50
270.0
 51
0.0
  0
ARC
  5
465
330
1F
100
AcDbEntity
  8
1
  6
CONTINUOUS
 62
     7
100
AcDbCircle
 10
-110.0650853313136
 20
-40.63194866986862
 30
0.0
 40
0.5
100
AcDbArc
 50
0.0
 51
90.0
  0
ARC
  5
466
330
1F
100
AcDbEntity
  8
1
  6
CONTINUOUS
 62
     7
100
AcDbCircle
 10
-121.6650853313136
 20
-33.63194866986856
 30
0.0
 40
0.5
100
AcDbArc
 50
90.0
 51
180.0
  0
ARC
  5
467
330
1F
100
AcDbEntity
  8
1
  6
CONTINUOUS
 62
     7
100
AcDbCircle
 10
-121.6650853313136
 20
-34.63194866986856
 30
0.0
 40
0.5
100
AcDbArc
 50
180.0
 51
270.0
  0
ARC
  5
468
330
1F
100
AcDbEntity
  8
1
  6
CONTINUOUS
 62
     7
100
AcDbCircle
 10
-117.6650853313136
 20
-34.63194866986856
 30
0.0
 40
0.5
100
AcDbArc
 50
270.0
 51
0.0
  0
ARC
  5
469
330
1F
100
AcDbEntity
  8
1
  6
CONTINUOUS
 62
     7
100
AcDbCircle
 10
-117.6650853313136
 20
-33.63194866986856
 30
0.0
 40
0.5
100
AcDbArc
 50
0.0
 51
90.0
  0
ARC
  5
46A
330
1F
100
AcDbEntity
  8
1
  6
CONTINUOUS
 62
     7
100
AcDbCircle
 10
-44.26508533131351
 20
-44.13194866986856
 30
0.0
 40
2.0
100
AcDbArc
 50
270.0
 51
0.0
  0
ARC
  5
46B
330
1F
100
AcDbEntity
  8
1
  6
CONTINUOUS
 62
     7
100
AcDbCircle
 10
-124.2650853313135
 20
-44.13194866986856
 30
0.0
 40
2.0
100
AcDbArc
 50
180.0
 51
270.0
  0
ARC
  5
46C
330
1F
100
AcDbEntity
  8
1
  6
CONTINUOUS
 62
     7
100
AcDbCircle
 10
-124.2650853313135
 20
-8.13194866986845
 30
0.0
 40
1.999999999999886
100
AcDbArc
 50
90.0
 51
180.0000000000032
  0
ARC
  5
46D
330
1F
100
AcDbEntity
  8
1
  6
CONTINUOUS
 62
     7
100
AcDbCircle
 10
-44.26508533131351
 20
-8.13194866986856
 30
0.0
 40
2.0
100
AcDbArc
 50
0.0
 51
90.0
  0
ARC
  5
46E
330
1F
100
AcDbEntity
  8
1
  6
CONTINUOUS
 62
     7
100
AcDbCircle
 10
-122.2650853313135
 20
-10.13194866986845
 30
0.0
 40
2.0
100
AcDbArc
 50
90.0
 51
180.0
  0
ARC
  5
46F
330
1F
100
AcDbEntity
  8
1
  6
CONTINUOUS
 62
     7
100
AcDbCircle
 10
-122.2650853313135
 20
-42.13194866986856
 30
0.0
 40
2.0
100
AcDbArc
 50
180.0
 51
270.0
  0
ARC
  5
470
330
1F
100
AcDbEntity
  8
1
  6
CONTINUOUS
 62
     7
100
AcDbCircle
 10
-70.26508533131351
 20
-42.13194866986856
 30
0.0
 40
2.0
100
AcDbArc
 50
270.0
 51
0.0
  0
ARC
  5
471
330
1F
100
AcDbEntity
  8
1
  6
CONTINUOUS
 62
     7
100
AcDbCircle
 10
-70.26508533131351
 20
-10.13194866986845
 30
0.0
 40
2.0
100
AcDbArc
 50
0.0
 51
90.0
  0
ARC
  5
472
330
1F
100
AcDbEntity
  8
1
  6
CONTINUOUS
 62
     7
100
AcDbCircle
 10
-117.6650853313136
 20
-30.13194866986862
 30
0.0
 40
0.5
100
AcDbArc
 50
0.0
 51
90.0
  0
ARC
  5
473
330
1F
100
AcDbEntity
  8
1
  6
CONTINUOUS
 62
     7
100
AcDbCircle
 10
-117.6650853313136
 20
-31.13194866986862
 30
0.0
 40
0.5
100
AcDbArc
 50
270.0
 51
0.0
  0
ARC
  5
474
330
1F
100
AcDbEntity
  8
1
  6
CONTINUOUS
 62
     7
100
AcDbCircle
 10
-121.6650853313136
 20
-31.13194866986862
 30
0.0
 40
0.5
100
AcDbArc
 50
180.0
 51
270.0
  0
ARC
  5
475
330
1F
100
AcDbEntity
  8
1
  6
CONTINUOUS
 62
     7
100
AcDbCircle
 10
-121.6650853313136
 20
-30.13194866986862
 30
0.0
 40
0.5
100
AcDbArc
 50
90.0
 51
180.0
  0
ARC
  5
476
330
1F
100
AcDbEntity
  8
1
  6
CONTINUOUS
 62
     7
100
AcDbCircle
 10
-110.0650853313136
 20
-37.13194866986862
 30
0.0
 40
0.5
100
AcDbArc
 50
0.0
 51
90.0
  0
ARC
  5
477
330
1F
100
AcDbEntity
  8
1
  6
CONTINUOUS
 62
     7
100
AcDbCircle
 10
-110.0650853313136
 20
-38.13194866986862
 30
0.0
 40
0.5
100
AcDbArc
 50
270.0
 51
0.0
  0
ARC
  5
478
330
1F
100
AcDbEntity
  8
1
  6
CONTINUOUS
 62
     7
100
AcDbCircle
 10
-114.0650853313136
 20
-38.13194866986862
 30
0.0
 40
0.5
100
AcDbArc
 50
180.0
 51
270.0
  0
ARC
  5
479
330
1F
100
AcDbEntity
  8
1
  6
CONTINUOUS
 62
     7
100
AcDbCircle
 10
-114.0650853313136
 20
-37.13194866986862
 30
0.0
 40
0.5
100
AcDbArc
 50
90.0
 51
180.0
  0
ARC
  5
47A
330
1F
100
AcDbEntity
  8
1
  6
CONTINUOUS
 62
     7
100
AcDbCircle
 10
-110.0650853313136
 20
-33.63194866986862
 30
0.0
 40
0.5
100
AcDbArc
 50
0.0
 51
90.0
  0
ARC
  5
47B
330
1F
100
AcDbEntity
  8
1
  6
CONTINUOUS
 62
     7
100
AcDbCircle
 10
-110.0650853313136
 20
-34.63194866986862
 30
0.0
 40
0.5
100
AcDbArc
 50
270.0
 51
0.0
  0
ARC
  5
47C
330
1F
100
AcDbEntity
  8
1
  6
CONTINUOUS
 62
     7
100
AcDbCircle
 10
-114.0650853313136
 20
-34.63194866986862
 30
0.0
 40
0.5
100
AcDbArc
 50
180.0
 51
270.0
  0
ARC
  5
47D
330
1F
100
AcDbEntity
  8
1
  6
CONTINUOUS
 62
     7
100
AcDbCircle
 10
-114.0650853313136
 20
-33.63194866986862
 30
0.0
 40
0.5
100
AcDbArc
 50
90.0
 51
180.0
  0
ARC
  5
47E
330
1F
100
AcDbEntity
  8
1
  6
CONTINUOUS
 62
     7
100
AcDbCircle
 10
-110.0650853313136
 20
-30.13194866986862
 30
0.0
 40
0.5
100
AcDbArc
 50
0.0
 51
90.0
  0
ARC
  5
47F
330
1F
100
AcDbEntity
  8
1
  6
CONTINUOUS
 62
     7
100
AcDbCircle
 10
-110.0650853313136
 20
-31.13194866986862
 30
0.0
 40
0.5
100
AcDbArc
 50
270.0
 51
0.0
  0
ARC
  5
480
330
1F
100
AcDbEntity
  8
1
  6
CONTINUOUS
 62
     7
100
AcDbCircle
 10
-114.0650853313136
 20
-31.13194866986862
 30
0.0
 40
0.5
100
AcDbArc
 50
180.0
 51
270.0
  0
ARC
  5
481
330
1F
100
AcDbEntity
  8
1
  6
CONTINUOUS
 62
     7
100
AcDbCircle
 10
-114.0650853313136
 20
-30.13194866986862
 30
0.0
 40
0.5
100
AcDbArc
 50
90.0
 51
180.0
  0
ARC
  5
482
330
1F
100
AcDbEntity
  8
1
  6
CONTINUOUS
 62
     7
100
AcDbCircle
 10
-94.86508533131348
 20
-40.63194866986862
 30
0.0
 40
0.5
100
AcDbArc
 50
0.0
 51
90.0
  0
ARC
  5
483
330
1F
100
AcDbEntity
  8
1
  6
CONTINUOUS
 62
     7
100
AcDbCircle
 10
-94.86508533131348
 20
-41.63194866986862
 30
0.0
 40
0.5
100
AcDbArc
 50
270.0
 51
0.0
  0
ARC
  5
484
330
1F
100
AcDbEntity
  8
1
  6
CONTINUOUS
 62
     7
100
AcDbCircle
 10
-98.86508533131348
 20
-41.63194866986862
 30
0.0
 40
0.5
100
AcDbArc
 50
180.0
 51
270.0
  0
ARC
  5
485
330
1F
100
AcDbEntity
  8
1
  6
CONTINUOUS
 62
     7
100
AcDbCircle
 10
-98.86508533131348
 20
-40.63194866986862
 30
0.0
 40
0.5
100
AcDbArc
 50
90.0
 51
180.0
  0
ARC
  5
486
330
1F
100
AcDbEntity
  8
1
  6
CONTINUOUS
 62
     7
100
AcDbCircle
 10
-87.26508533131351
 20
-40.63194866986862
 30
0.0
 40
0.5
100
AcDbArc
 50
0.0
 51
90.0
  0
ARC
  5
487
330
1F
100
AcDbEntity
  8
1
  6
CONTINUOUS
 62
     7
100
AcDbCircle
 10
-87.26508533131351
 20
-41.63194866986862
 30
0.0
 40
0.5
100
AcDbArc
 50
270.0
 51
0.0
  0
ARC
  5
488
330
1F
100
AcDbEntity
  8
1
  6
CONTINUOUS
 62
     7
100
AcDbCircle
 10
-91.26508533131351
 20
-41.63194866986862
 30
0.0
 40
0.4999999999999432
100
AcDbArc
 50
180.0
 51
270.0
  0
ARC
  5
489
330
1F
100
AcDbEntity
  8
1
  6
CONTINUOUS
 62
     7
100
AcDbCircle
 10
-91.26508533131351
 20
-40.63194866986862
 30
0.0
 40
0.5
100
AcDbArc
 50
89.99999999999349
 51
180.0
  0
ARC
  5
48A
330
1F
100
AcDbEntity
  8
1
  6
CONTINUOUS
 62
     7
100
AcDbCircle
 10
-83.66508533131349
 20
-40.63194866986862
 30
0.0
 40
0.5
100
AcDbArc
 50
90.0
 51
180.0
  0
ARC
  5
48B
330
1F
100
AcDbEntity
  8
1
  6
CONTINUOUS
 62
     7
100
AcDbCircle
 10
-83.66508533131349
 20
-41.63194866986862
 30
0.0
 40
0.5
100
AcDbArc
 50
180.0
 51
270.0
  0
ARC
  5
48C
330
1F
100
AcDbEntity
  8
1
  6
CONTINUOUS
 62
     7
100
AcDbCircle
 10
-79.66508533131349
 20
-41.63194866986862
 30
0.0
 40
0.5
100
AcDbArc
 50
270.0
 51
0.0
  0
ARC
  5
48D
330
1F
100
AcDbEntity
  8
1
  6
CONTINUOUS
 62
     7
100
AcDbCircle
 10
-79.66508533131349
 20
-40.63194866986862
 30
0.0
 40
0.5
100
AcDbArc
 50
0.0
 51
90.0
  0
ENDSEC
  0
SECTION
  2
OBJECTS
  0
DICTIONARY
  5
C
330
0
100
AcDbDictionary
  3
ACAD_GROUP
350
D
  3
ACAD_LAYOUT
350
1A
  3
ACAD_MATERIAL
350
3B
  3
ACAD_MLEADERSTYLE
350
4B0
  3
ACAD_MLINESTYLE
350
17
  3
ACAD_PLOTSETTINGS
350
19
  3
ACAD_VISUALSTYLE
350
2A
  3
ACDBHEADERROUNDTRIPXREC
350
48E
  3
ACDBVARIABLEDICTIONARY
350
4AE
  0
DICTIONARY
  5
D
102
{ACAD_REACTORS
330
C
102
}
330
C
100
AcDbDictionary
  0
DICTIONARY
  5
1A
102
{ACAD_REACTORS
330
C
102
}
330
C
100
AcDbDictionary
  0
DICTIONARY
  5
3B
102
{ACAD_REACTORS
330
C
102
}
330
C
100
AcDbDictionary
  3
BYBLOCK
350
3D
  3
BYLAYER
350
3C
  3
GLOBAL
350
3E
  0
DICTIONARY
  5
4B0
102
{ACAD_REACTORS
330
C
102
}
330
C
100
AcDbDictionary
  0
DICTIONARY
  5
17
102
{ACAD_REACTORS
330
C
102
}
330
C
100
AcDbDictionary
  3
STANDARD
350
18
  0
DICTIONARY
  5
19
102
{ACAD_REACTORS
330
C
102
}
330
C
100
AcDbDictionary
  0
DICTIONARY
  5
2A
102
{ACAD_REACTORS
330
C
102
}
330
C
100
AcDbDictionary
  3
2DWIREFRAME
350
2F
  3
3D_HIDDEN
350
31
  3
3DWIREFRAME
350
30
  3
BASIC
350
32
  3
BRIGHTEN
350
36
  3
COLORCHANGE
350
3A
  3
CONCEPTUAL
350
34
  3
DIM
350
35
  3
FACEPATTERN
350
39
  3
FLAT
350
2B
  3
FLATWITHEDGES
350
2C
  3
GOURAUD
350
2D
  3
GOURAUDWITHEDGES
350
2E
  3
LINEPATTERN
350
38
  3
REALISTIC
350
33
  3
THICKEN
350
37
  0
DICTIONARY
  5
48E
102
{ACAD_REACTORS
330
C
102
}
330
C
100
AcDbDictionary
  3
CEPSNTYPE
350
497
  3
DIMSTYLEDATA
350
4AD
  3
FINGERPRINTGUID
350
498
  3
HYPERLINKBASE
350
491
  3
INSUNITS
350
496
  3
LAYOUTDICT
350
493
  3
LWETCUNION
350
495
  3
PLOTSETDICT
350
494
  3
PSVPSCALE
350
49A
  3
PUCSBASE
350
49D
  3
PUCSORGBACK
350
4A3
  3
PUCSORGBOTTOM
350
49F
  3
PUCSORGFRONT
350
4A2
  3
PUCSORGLEFT
350
4A0
  3
PUCSORGRIGHT
350
4A1
  3
PUCSORGTOP
350
49E
  3
PUCSORTHOREF
350
49B
  3
PUCSORTHOVIEW
350
49C
  3
STYLESHEET
350
492
  3
TSTACKALIGN
350
48F
  3
TSTACKSIZE
350
490
  3
UCSBASE
350
4A6
  3
UCSORGBACK
350
4AC
  3
UCSORGBOTTOM
350
4A8
  3
UCSORGFRONT
350
4AB
  3
UCSORGLEFT
350
4A9
  3
UCSORGRIGHT
350
4AA
  3
UCSORGTOP
350
4A7
  3
UCSORTHOREF
350
4A4
  3
UCSORTHOVIEW
350
4A5
  3
VERSIONGUID
350
499
  0
DICTIONARY
  5
4AE
102
{ACAD_REACTORS
330
C
102
}
330
C
100
AcDbDictionary
  3
DIMASSOC
350
4B1
  3
HIDETEXT
350
4B2
  0
MATERIAL
  5
3D
102
{ACAD_REACTORS
330
3B
102
}
102
{ACAD_XDICTIONARY
360
4B5
102
}
330
3B
100
AcDbMaterial
  1
ByBlock
  0
MATERIAL
  5
3C
102
{ACAD_REACTORS
330
3B
102
}
102
{ACAD_XDICTIONARY
360
4B3
102
}
330
3B
100
AcDbMaterial
  1
ByLayer
  0
MATERIAL
  5
3E
102
{ACAD_REACTORS
330
3B
102
}
102
{ACAD_XDICTIONARY
360
4B7
102
}
330
3B
100
AcDbMaterial
  1
Global
  0
MLINESTYLE
  5
18
102
{ACAD_REACTORS
330
17
102
}
330
17
100
AcDbMlineStyle
  2
Standard
 70
     0
  3

 62
   256
 51
90.0
 52
90.0
 71
     2
 49
0.5
 62
   256
  6
BYLAYER
 49
-0.5
 62
   256
  6
BYLAYER
  0
ACAD_PROXY_OBJECT
  5
2F
102
{ACAD_REACTORS
330
2A
102
}
330
2A
100
AcDbProxyObject
 90
      499
 91
      501
 93
      436
310
42CC9915DA5C99599C985B595049028333333333333E3BF0000000000000FB0107901411070040501600405405064090741402480A0340
1001
ACAD
1000
AcDbSavedByObjectVersion
1070
     0
  0
ACAD_PROXY_OBJECT
  5
31
102
{ACAD_REACTORS
330
2A
102
}
330
2A
100
AcDbProxyObject
 90
      499
 91
      501
 93
      500
310
424CD108121A5919195B90640502408333333333333E3BF0000000000000FB01079024090700405020000000000001110200405405064090740C02480A0340
1001
ACAD
1000
AcDbSavedByObjectVersion
1070
     0
  0
ACAD_PROXY_OBJECT
  5
30
102
{ACAD_REACTORS
330
2A
102
}
330
2A
100
AcDbProxyObject
 90
      499
 91
      501
 93
      436
310
42CCD915DA5C99599C985B595059028333333333333E3BF0000000000000FB0107901411070040501600405405064090741402480A0340
1001
ACAD
1000
AcDbSavedByObjectVersion
1070
     0
  0
ACAD_PROXY_OBJECT
  5
32
102
{ACAD_REACTORS
330
2A
102
}
330
2A
100
AcDbProxyObject
 90
      499
 91
      501
 93
      388
310
4150985CDA58D07406404333333333333E3BF0000000000000FB0107A41107004050150841D405064090741402480A0350
1001
ACAD
1000
AcDbSavedByObjectVersion
1070
     0
  0
ACAD_PROXY_OBJECT
  5
36
102
{ACAD_REACTORS
330
2A
102
}
330
2A
100
AcDbProxyObject
 90
      499
 91
      501
 93
      428
310
42109C9A59DA1D195B90C409028333333333333E3BF0000000000000FB010790141107004050150841D405064090741402480A029950
1001
ACAD
1000
AcDbSavedByObjectVersion
1070
     0
  0
ACAD_PROXY_OBJECT
  5
3A
102
{ACAD_REACTORS
330
2A
102
}
330
2A
100
AcDbProxyObject
 90
      499
 91
      501
 93
      452
310
42D0DBDB1BDC90DA185B99D95104090240C333333333333E3BF0000000000000FB0108901411070040501508421405064090741402480A0350
1001
ACAD
1000
AcDbSavedByObjectVersion
1070
     0
  0
ACAD_PROXY_OBJECT
  5
34
102
{ACAD_REACTORS
330
2A
102
}
330
2A
100
AcDbProxyObject
 90
      499
 91
      501
 93
      500
310
4290DBDB98D95C1D1D585B10940D028333333333333E3BF0000000000000FB0107902409070040501000000000000111010841D405064090740C02480A0340
1001
ACAD
1000
AcDbSavedByObjectVersion
1070
     0
  0
ACAD_PROXY_OBJECT
  5
35
102
{ACAD_REACTORS
330
2A
102
}
330
2A
100
AcDbProxyObject
 90
      499
 91
      501
 93
      412
310
40D11A5B50B409028333333333333E3BF0000000000000FB010790141107004050150841D405064090741402480A02677FFFFFD0
1001
ACAD
1000
AcDbSavedByObjectVersion
1070
     0
  0
ACAD_PROXY_OBJECT
  5
39
102
{ACAD_REACTORS
330
2A
102
}
330
2A
100
AcDbProxyObject
 90
      499
 91
      501
 93
      444
310
42D19858D95C185D1D195C9B90F409028333333333333E3BF0000000000000FB010790141107004050150841D405064090741402480A0350
1001
ACAD
1000
AcDbSavedByObjectVersion
1070
     0
  0
ACAD_PROXY_OBJECT
  5
2B
102
{ACAD_REACTORS
330
2A
102
}
330
2A
100
AcDbProxyObject
 90
      499
 91
      501
 93
      388
310
41119B185D240901404333333333333E3BF0000000000000F9010740A41107004050150841D405064090741402480A1B50
1001
ACAD
1000
AcDbSavedByObjectVersion
1070
     0
  0
ACAD_PROXY_OBJECT
  5
2C
102
{ACAD_REACTORS
330
2A
102
}
330
2A
100
AcDbProxyObject
 90
      499
 91
      501
 93
      476
310
43519B185D15DA5D1A115919D95CD0140901404333333333333E3BF0000000000000F9010740901411070040501600405405064090741402480A1B50
1001
ACAD
1000
AcDbSavedByObjectVersion
1070
     0
  0
ACAD_PROXY_OBJECT
  5
2D
102
{ACAD_REACTORS
330
2A
102
}
330
2A
100
AcDbProxyObject
 90
      499
 91
      501
 93
      412
310
41D1DBDD5C985D5910240902404333333333333E3BF0000000000000F9010740A411070040501641D405064090741402480A1B50
1001
ACAD
1000
AcDbSavedByObjectVersion
1070
     0
  0
ACAD_PROXY_OBJECT
  5
2E
102
{ACAD_REACTORS
330
2A
102
}
330
2A
100
AcDbProxyObject
 90
      499
 91
      501
 93
      500
310
4411DBDD5C985D5915DA5D1A115919D95CD0340902404333333333333E3BF0000000000000F9010740901411070040501600405405064090741402480A1B50
1001
ACAD
1000
AcDbSavedByObjectVersion
1070
     0
  0
ACAD_PROXY_OBJECT
  5
38
102
{ACAD_REACTORS
330
2A
102
}
330
2A
100
AcDbProxyObject
 90
      499
 91
      501
 93
      444
310
42D31A5B995C185D1D195C9B90E409028333333333333E3BF0000000000000FB010790141107004050750841D405064090741402483A0350
1001
ACAD
1000
AcDbSavedByObjectVersion
1070
     0
  0
ACAD_PROXY_OBJECT
  5
33
102
{ACAD_REACTORS
330
2A
102
}
330
2A
100
AcDbProxyObject
 90
      499
 91
      501
 93
      420
310
425499585B1A5CDD1A58D08409028333333333333E3BF0000000000000FB01079019070040501508421405064090741402480A1B40
1001
ACAD
1000
AcDbSavedByObjectVersion
1070
     0
  0
ACAD_PROXY_OBJECT
  5
37
102
{ACAD_REACTORS
330
2A
102
}
330
2A
100
AcDbProxyObject
 90
      499
 91
      501
 93
      412
310
41D51A1A58DAD95B90D409028333333333333E3BF0000000000000FB010790141107004050150C41D405064090741402480A0350
1001
ACAD
1000
AcDbSavedByObjectVersion
1070
     0
  0
XRECORD
  5
497
102
{ACAD_REACTORS
330
48E
102
}
330
48E
100
AcDbXrecord
 90
        0
  0
XRECORD
  5
4AD
102
{ACAD_REACTORS
330
48E
102
}
330
48E
100
AcDbXrecord
1000
DSTYLE
1002
{
1070
   171
 70
     2
1070
   143
 40
25.4
1070
   274
 70
     2
1070
    41
 40
0.18
1070
   141
 40
0.09
1070
   271
 70
     4
1070
    43
 40
0.38
1070
   278
 70
    46
1070
    44
 40
0.18
1070
    42
 40
0.0625
1070
   147
 40
0.09
1070
    77
 70
     0
1070
   272
 70
     4
1070
    73
 70
     1
1070
   172
 70
     0
1070
    74
 70
     1
1070
   283
 70
     1
1070
   340
340
11
1070
   140
 40
0.18
1070
   284
 70
     0
1070
    78
 70
     0
1002
}
  0
XRECORD
  5
498
102
{ACAD_REACTORS
330
48E
102
}
330
48E
100
AcDbXrecord
  1
{D73A2299-58CC-4EE2-9B02-5C36BA8A2B99}
  0
XRECORD
  5
491
102
{ACAD_REACTORS
330
48E
102
}
330
48E
100
AcDbXrecord
  1

  0
XRECORD
  5
496
102
{ACAD_REACTORS
330
48E
102
}
330
48E
100
AcDbXrecord
 90
        4
  0
XRECORD
  5
493
102
{ACAD_REACTORS
330
48E
102
}
330
48E
100
AcDbXrecord
340
1A
  0
XRECORD
  5
495
102
{ACAD_REACTORS
330
48E
102
}
330
48E
100
AcDbXrecord
 90
    10781
  0
XRECORD
  5
494
102
{ACAD_REACTORS
330
48E
102
}
330
48E
100
AcDbXrecord
340
19
  0
XRECORD
  5
49A
102
{ACAD_REACTORS
330
48E
102
}
330
48E
100
AcDbXrecord
 40
0.0
  0
XRECORD
  5
49D
102
{ACAD_REACTORS
330
48E
102
}
330
48E
100
AcDbXrecord
340
0
  0
XRECORD
  5
4A3
102
{ACAD_REACTORS
330
48E
102
}
330
48E
100
AcDbXrecord
 10
0.0
 20
0.0
 30
0.0
  0
XRECORD
  5
49F
102
{ACAD_REACTORS
330
48E
102
}
330
48E
100
AcDbXrecord
 10
0.0
 20
0.0
 30
0.0
  0
XRECORD
  5
4A2
102
{ACAD_REACTORS
330
48E
102
}
330
48E
100
AcDbXrecord
 10
0.0
 20
0.0
 30
0.0
  0
XRECORD
  5
4A0
102
{ACAD_REACTORS
330
48E
102
}
330
48E
100
AcDbXrecord
 10
0.0
 20
0.0
 30
0.0
  0
XRECORD
  5
4A1
102
{ACAD_REACTORS
330
48E
102
}
330
48E
100
AcDbXrecord
 10
0.0
 20
0.0
 30
0.0
  0
XRECORD
  5
49E
102
{ACAD_REACTORS
330
48E
102
}
330
48E
100
AcDbXrecord
 10
0.0
 20
0.0
 30
0.0
  0
XRECORD
  5
49B
102
{ACAD_REACTORS
330
48E
102
}
330
48E
100
AcDbXrecord
340
0
  0
XRECORD
  5
49C
102
{ACAD_REACTORS
330
48E
102
}
330
48E
100
AcDbXrecord
 70
     0
  0
XRECORD
  5
492
102
{ACAD_REACTORS
330
48E
102
}
330
48E
100
AcDbXrecord
  1

  0
XRECORD
  5
48F
102
{ACAD_REACTORS
330
48E
102
}
330
48E
100
AcDbXrecord
 90
        1
  0
XRECORD
  5
490
102
{ACAD_REACTORS
330
48E
102
}
330
48E
100
AcDbXrecord
 90
       70
  0
XRECORD
  5
4A6
102
{ACAD_REACTORS
330
48E
102
}
330
48E
100
AcDbXrecord
340
0
  0
XRECORD
  5
4AC
102
{ACAD_REACTORS
330
48E
102
}
330
48E
100
AcDbXrecord
 10
0.0
 20
0.0
 30
0.0
  0
XRECORD
  5
4A8
102
{ACAD_REACTORS
330
48E
102
}
330
48E
100
AcDbXrecord
 10
0.0
 20
0.0
 30
0.0
  0
XRECORD
  5
4AB
102
{ACAD_REACTORS
330
48E
102
}
330
48E
100
AcDbXrecord
 10
0.0
 20
0.0
 30
0.0
  0
XRECORD
  5
4A9
102
{ACAD_REACTORS
330
48E
102
}
330
48E
100
AcDbXrecord
 10
0.0
 20
0.0
 30
0.0
  0
XRECORD
  5
4AA
102
{ACAD_REACTORS
330
48E
102
}
330
48E
100
AcDbXrecord
 10
0.0
 20
0.0
 30
0.0
  0
XRECORD
  5
4A7
102
{ACAD_REACTORS
330
48E
102
}
330
48E
100
AcDbXrecord
 10
0.0
 20
0.0
 30
0.0
  0
XRECORD
  5
4A4
102
{ACAD_REACTORS
330
48E
102
}
330
48E
100
AcDbXrecord
340
0
  0
XRECORD
  5
4A5
102
{ACAD_REACTORS
330
48E
102
}
330
48E
100
AcDbXrecord
 70
     0
  0
XRECORD
  5
499
102
{ACAD_REACTORS
330
48E
102
}
330
48E
100
AcDbXrecord
  1
{FAEB1C32-E019-11D5-929B-00C0DF256EC4}
  0
DICTIONARYVAR
  5
4B1
102
{ACAD_REACTORS
330
4AE
102
}
330
4AE
100
DictionaryVariables
280
     0
  1
2
  0
DICTIONARYVAR
  5
4B2
102
{ACAD_REACTORS
330
4AE
102
}
330
4AE
100
DictionaryVariables
280
     0
  1
1
  0
DICTIONARY
  5
4B5
330
3D
100
AcDbDictionary
280
     1
  3
ACAD_XREC_ROUNDTRIP
360
4B6
  0
DICTIONARY
  5
4B3
330
3C
100
AcDbDictionary
280
     1
  3
ACAD_XREC_ROUNDTRIP
360
4B4
  0
DICTIONARY
  5
4B7
330
3E
100
AcDbDictionary
280
     1
  3
ACAD_XREC_ROUNDTRIP
360
4B8
  0
XRECORD
  5
4B6
102
{ACAD_REACTORS
330
4B5
102
}
330
4B5
100
AcDbXrecord
102
MATERIAL
148
0.0
149
0.0
149
0.0
 93
        0
 94
      127
282
     0
 72
     1
 77
     1
171
     1
175
     1
179
     1
273
     0
  0
XRECORD
  5
4B4
102
{ACAD_REACTORS
330
4B3
102
}
330
4B3
100
AcDbXrecord
102
MATERIAL
148
0.0
149
0.0
149
0.0
 93
        0
 94
      127
282
     0
 72
     1
 77
     1
171
     1
175
     1
179
     1
273
     0
  0
XRECORD
  5
4B8
102
{ACAD_REACTORS
330
4B7
102
}
330
4B7
100
AcDbXrecord
102
MATERIAL
148
0.0
149
0.0
149
0.0
 93
        0
 94
      127
282
     0
 72
     1
 77
     1
171
     1
175
     1
179
     1
273
     0
  0
ENDSEC
  0
EOF
