  0
SECTION
  2
HEADER
  9
$ACADVER
  1
AC1014
  9
$ACADMAINTVER
 70
             0
  9
$DWGCODEPAGE
  3
ANSI_1252
  9
$INSBASE
 10
0.0
 20
0.0
 30
0.0
  9
$EXTMIN
 10
1.00000000000000E+20
 20
1.00000000000000E+20
 30
1.00000000000000E+20
  9
$EXTMAX
 10
-1.00000000000000E+20
 20
-1.00000000000000E+20
 30
-1.00000000000000E+20
  9
$LIMMIN
 10
0.0
 20
0.0
  9
$LIMMAX
 10
0.0
 20
0.0
  9
$ORTHOMODE
 70
             0
  9
$REGENMODE
 70
             1
  9
$FILLMODE
 70
             1
  9
$QTEXTMODE
 70
             0
  9
$MIRRTEXT
 70
             1
  9
$DRAGMODE
 70
             2
  9
$LTSCALE
 40
1.0
  9
$OSMODE
 70
             0
  9
$ATTMODE
 70
             1
  9
$TEXTSIZE
 40
0.2
  9
$TRACEWID
 40
0.05
  9
$TEXTSTYLE
  7
STANDARD
  9
$CLAYER
  8
0
  9
$CELTYPE
  6
CONTINUOUS
  9
$CECOLOR
 62
           256
  9
$CELTSCALE
 40
1.0
  9
$DELOBJ
 70
             1
  9
$DISPSILH
 70
             0
  9
$DIMSCALE
 40
1.0
  9
$DIMASZ
 40
0.18
  9
$DIMEXO
 40
0.0625
  9
$DIMDLI
 40
0.38
  9
$DIMRND
 40
0.0
  9
$DIMDLE
 40
0.0
  9
$DIMEXE
 40
0.18
  9
$DIMTP
 40
0.0
  9
$DIMTM
 40
0.0
  9
$DIMTXT
 40
0.18
  9
$DIMCEN
 40
0.09
  9
$DIMTSZ
 40
0.0
  9
$DIMTOL
 70
             0
  9
$DIMLIM
 70
             0
  9
$DIMTIH
 70
             1
  9
$DIMTOH
 70
             1
  9
$DIMSE1
 70
             0
  9
$DIMSE2
 70
             0
  9
$DIMTAD
 70
             0
  9
$DIMZIN
 70
             0
  9
$DIMBLK
  1

  9
$DIMASO
 70
             1
  9
$DIMSHO
 70
             1
  9
$DIMPOST
  1

  9
$DIMAPOST
  1

  9
$DIMALT
 70
             0
  9
$DIMALTD
 70
             2
  9
$DIMALTF
 40
25.4
  9
$DIMLFAC
 40
1.0
  9
$DIMTOFL
 70
             0
  9
$DIMTVP
 40
0.0
  9
$DIMTIX
 70
             0
  9
$DIMSOXD
 70
             0
  9
$DIMSAH
 70
             0
  9
$DIMBLK1
  1

  9
$DIMBLK2
  1

  9
$DIMSTYLE
  2
STANDARD
  9
$DIMCLRD
 70
             0
  9
$DIMCLRE
 70
             0
  9
$DIMCLRT
 70
             0
  9
$DIMTFAC
 40
1.0
  9
$DIMGAP
 40
0.09
  9
$DIMJUST
 70
             0
  9
$DIMSD1
 70
             0
  9
$DIMSD2
 70
             0
  9
$DIMTOLJ
 70
             1
  9
$DIMTZIN
 70
             0
  9
$DIMALTZ
 70
             0
  9
$DIMALTTZ
 70
             0
  9
$DIMFIT
 70
             3
  9
$DIMUPT
 70
             0
  9
$DIMUNIT
 70
             2
  9
$DIMDEC
 70
             4
  9
$DIMTDEC
 70
             4
  9
$DIMALTU
 70
             2
  9
$DIMALTTD
 70
             2
  9
$DIMTXSTY
  7
STANDARD
  9
$DIMAUNIT
 70
             0
  9
$LUNITS
 70
             2
  9
$LUPREC
 70
             4
  9
$SKETCHINC
 40
0.1
  9
$FILLETRAD
 40
0.0
  9
$AUNITS
 70
             0
  9
$AUPREC
 70
             0
  9
$MENU
  1
acad
  9
$ELEVATION
 40
0.0
  9
$PELEVATION
 40
0.0
  9
$THICKNESS
 40
0.0
  9
$LIMCHECK
 70
             0
  9
$BLIPMODE
 70
             1
  9
$CHAMFERA
 40
0.0
  9
$CHAMFERB
 40
0.0
  9
$CHAMFERC
 40
0.0
  9
$CHAMFERD
 40
0.0
  9
$SKPOLY
 70
             0
  9
$TDCREATE
 40
0.000000000
  9
$TDUPDATE
 40
0.000000000
  9
$TDINDWG
 40
0.0000000000
  9
$TDUSRTIMER
 40
0.0000000000
  9
$USRTIMER
 70
             1
  9
$ANGBASE
 50
0.0
  9
$ANGDIR
 70
             0
  9
$PDMODE
 70
             0
  9
$PDSIZE
 40
0.0
  9
$PLINEWID
 40
0.0
  9
$COORDS
 70
             0
  9
$SPLFRAME
 70
             0
  9
$SPLINETYPE
 70
             6
  9
$SPLINESEGS
 70
             8
  9
$ATTDIA
 70
             0
  9
$ATTREQ
 70
             1
  9
$HANDLING
 70
             1
  9
$HANDSEED
  5
661
  9
$SURFTAB1
 70
             6
  9
$SURFTAB2
 70
             6
  9
$SURFTYPE
 70
             6
  9
$SURFU
 70
             6
  9
$SURFV
 70
             6
  9
$UCSNAME
  2

  9
$UCSORG
 10
0.0
 20
0.0
 30
0.0
  9
$UCSXDIR
 10
1.0
 20
0.0
 30
0.0
  9
$UCSYDIR
 10
0.0
 20
1.0
 30
0.0
  9
$PUCSNAME
  2

  9
$PUCSORG
 10
0.0
 20
0.0
 30
0.0
  9
$PUCSXDIR
 10
1.0
 20
0.0
 30
0.0
  9
$PUCSYDIR
 10
0.0
 20
1.0
 30
0.0
  9
$USERI1
 70
             0
  9
$USERI2
 70
             0
  9
$USERI3
 70
             0
  9
$USERI4
 70
             0
  9
$USERI5
 70
             0
  9
$USERR1
 40
11.6
  9
$USERR2
 40
0.0
  9
$USERR3
 40
0.0
  9
$USERR4
 40
0.0
  9
$USERR5
 40
0.0
  9
$WORLDVIEW
 70
             1
  9
$SHADEDGE
 70
             3
  9
$SHADEDIF
 70
            70
  9
$TILEMODE
 70
             1
  9
$MAXACTVP
 70
            16
  9
$PINSBASE
 10
0.0
 20
0.0
 30
0.0
  9
$PLIMCHECK
 70
             0
  9
$PEXTMIN
 10
1.00000000000000E+20
 20
1.00000000000000E+20
 30
1.00000000000000E+20
  9
$PEXTMAX
 10
-1.00000000000000E+20
 20
-1.00000000000000E+20
 30
-1.00000000000000E+20
  9
$PLIMMIN
 10
0.0
 20
0.0
  9
$PLIMMAX
 10
12.0
 20
9.0
  9
$UNITMODE
 70
             0
  9
$VISRETAIN
 70
             0
  9
$PLINEGEN
 70
             1
  9
$PSLTSCALE
 70
             0
  9
$TREEDEPTH
 70
          3020
  9
$PICKSTYLE
 70
             1
  9
$CMLSTYLE
  2
STANDARD
  9
$CMLJUST
 70
             0
  9
$CMLSCALE
 40
1.0
  9
$PROXYGRAPHICS
 70
             0
  9
$MEASUREMENT
 70
             1
  0
ENDSEC
  0
SECTION
  2
CLASSES
  0
CLASS
  1
LWPOLYLINE
  2
AcDbPolyline
  3
"AutoCAD"
 90
        0
280
             0
281
             1
  0
CLASS
  1
IMAGE
  2
AcDbRasterImage
  3
ISM
 90
      127
280
             0
281
             1
  0
CLASS
  1
OLE2FRAME
  2
AcDbOle2Frame
  3
""
 90
        0
280
             0
281
             1
  0
CLASS
  1
HATCH
  2
AcDbHatch
  3
"ACAD_SEDONA"
 90
        0
280
             0
281
             1
  0
CLASS
  1
DICTIONARYVAR
  2
AcDbDictionaryVar
  3
"AutoCAD"
 90
        0
280
             0
281
             0
  0
CLASS
  1
RASTERVARIABLES
  2
AcDbRasterVariables
  3
ISM
 90
        0
280
             0
281
             0
  0
CLASS
  1
IMAGEDEF
  2
AcDbRasterImageDef
  3
ISM
 90
        0
280
             0
281
             0
  0
CLASS
  1
IMAGEDEF_REACTOR
  2
AcDbRasterImageDefReactor
  3
ISM
 90
        1
280
             0
281
             0
  0
CLASS
  1
IDBUFFER
  2
AcDbIdBuffer
  3
"Acad"
 90
        0
280
             0
281
             0
  0
CLASS
  1
SPATIAL_FILTER
  2
AcDbSpatialFilter
  3
"Acad"
 90
        0
280
             0
281
             0
  0
CLASS
  1
XRECORD
  2
AcDbXrecord
  3
"<Built In>"
 90
        0
280
             0
281
             0
  0
CLASS
  1
SORTENTSTABLE
  2
AcDbSortentsTable
  3
"AutoCAD"
 90
        0
280
             0
281
             0
  0
CLASS
  1
LAYER_INDEX
  2
AcDbLayerIndex
  3
"Acad"
 90
        0
280
             0
281
             0
  0
CLASS
  1
SPATIAL_INDEX
  2
AcDbSpatialIndex
  3
"Acad"
 90
        0
280
             0
281
             0
  0
CLASS
  1
OBJECT_PTR
  2
CAseDLPNTableRecord
  3
"ASE-LPNTableRecord"
 90
        1
280
             0
281
             0
  0
CLASS
  1
LAYOUT
  2
AcDbLayout
  3
"AutoCAD 2000"
 90
        1
280
             0
281
             0
  0
CLASS
  1
PLOTSETTINGS
  2
AcDbPlotSettings
  3
"AutoCAD 2000"
 90
        1
280
             0
281
             0
  0
CLASS
  1
ACDBDICTIONARYWDFLT
  2
AcDbDictionaryWithDefault
  3
"AutoCAD 2000"
 90
        1
280
             0
281
             0
  0
CLASS
  1
ACDBPLACEHOLDER
  2
AcDbPlaceHolder
  3
"AutoCAD 2000"
 90
        1
280
             0
281
             0
  0
ENDSEC
  0
SECTION
  2
TABLES
  0
TABLE
  2
VPORT
  5
7
100
AcDbSymbolTable
 70
             1
  0
VPORT
  5
15
100
AcDbSymbolTableRecord
100
AcDbViewportTableRecord
  2
*ACTIVE
 70
             0
 10
0.0
 20
0.0
 11
1.0
 21
1.0
 12
-137.92500000000041
 22
-2.0
 13
0.0
 23
0.0
 14
1.0
 24
1.0
 15
0.0
 25
0.0
 16
0.0
 26
0.0
 36
1.0
 17
0.0
 27
0.0
 37
0.0
 40
116.23353760445633
 41
1.60267857142857
 42
50.0
 43
0.0
 44
0.0
 50
0.0
 51
0.0
 71
             0
 72
           100
 73
             1
 74
             1
 75
             0
 76
             0
 77
             0
 78
             0
  0
ENDTAB
  0
TABLE
  2
LTYPE
  5
4
100
AcDbSymbolTable
 70
            10
  0
LTYPE
  5
11
100
AcDbSymbolTableRecord
100
AcDbLinetypeTableRecord
  2
BYBLOCK
 70
            64
  3

 72
            65
 73
             0
 40
0.0
  0
LTYPE
  5
12
100
AcDbSymbolTableRecord
100
AcDbLinetypeTableRecord
  2
BYLAYER
 70
            64
  3

 72
            65
 73
             0
 40
0.0
  0
LTYPE
  5
13
100
AcDbSymbolTableRecord
100
AcDbLinetypeTableRecord
  2
CONTINUOUS
 70
            64
  3
Solid line
 72
            65
 73
             0
 40
0.0
  0
LTYPE
  5
1D
100
AcDbSymbolTableRecord
100
AcDbLinetypeTableRecord
  2
DASHED
 70
            64
  3
Dashed
 72
            65
 73
             2
 40
15.0
 49
12.0
 74
             0
 49
-3.0
 74
             0
  0
LTYPE
  5
1E
100
AcDbSymbolTableRecord
100
AcDbLinetypeTableRecord
  2
DOTTED
 70
            64
  3
Dotted
 72
            65
 73
             2
 40
3.5
 49
0.5
 74
             0
 49
-3.0
 74
             0
  0
LTYPE
  5
1F
100
AcDbSymbolTableRecord
100
AcDbLinetypeTableRecord
  2
DOT_CENTER
 70
            64
  3
Dot_Center
 72
            65
 73
             4
 40
2.0
 49
1.25
 74
             0
 49
-0.25
 74
             0
 49
0.25
 74
             0
 49
-0.25
 74
             0
  0
LTYPE
  5
20
100
AcDbSymbolTableRecord
100
AcDbLinetypeTableRecord
  2
LONG_DASHED
 70
            64
  3
Long_Dashed
 72
            65
 73
             2
 40
2.0
 49
1.5
 74
             0
 49
-0.5
 74
             0
  0
LTYPE
  5
21
100
AcDbSymbolTableRecord
100
AcDbLinetypeTableRecord
  2
DASH_CENTER
 70
            64
  3
Dash_Center
 72
            65
 73
             4
 40
36.0
 49
24.0
 74
             0
 49
-3.0
 74
             0
 49
6.0
 74
             0
 49
-3.0
 74
             0
  0
LTYPE
  5
22
100
AcDbSymbolTableRecord
100
AcDbLinetypeTableRecord
  2
PHANTOM
 70
            64
  3
Phantom
 72
            65
 73
             6
 40
2.5
 49
1.25
 74
             0
 49
-0.25
 74
             0
 49
0.25
 74
             0
 49
-0.25
 74
             0
 49
0.25
 74
             0
 49
-0.25
 74
             0
  0
LTYPE
  5
23
100
AcDbSymbolTableRecord
100
AcDbLinetypeTableRecord
  2
CENTER_DASH_DASH
 70
            64
  3
Center_Dash_Dash
 72
            65
 73
             6
 40
22.0
 49
12.0
 74
             0
 49
-3.0
 74
             0
 49
0.5
 74
             0
 49
-3.0
 74
             0
 49
0.5
 74
             0
 49
-3.0
 74
             0
  0
ENDTAB
  0
TABLE
  2
LAYER
  5
2
100
AcDbSymbolTable
 70
             2
  0
LAYER
  5
14
100
AcDbSymbolTableRecord
100
AcDbLayerTableRecord
  2
0
 70
             0
 62
             7
  6
CONTINUOUS
  0
LAYER
  5
24
100
AcDbSymbolTableRecord
100
AcDbLayerTableRecord
  2
1
 70
             0
 62
             7
  6
CONTINUOUS
  0
ENDTAB
  0
TABLE
  2
STYLE
  5
3
100
AcDbSymbolTable
 70
             1
  0
STYLE
  5
17
100
AcDbSymbolTableRecord
100
AcDbTextStyleTableRecord
  2
STANDARD
 70
             0
 40
0.0
 41
1.0
 50
0.0
 71
             0
 42
0.0
  3
txt
  4

  0
ENDTAB
  0
TABLE
  2
VIEW
  5
5
100
AcDbSymbolTable
 70
             0
  0
ENDTAB
  0
TABLE
  2
UCS
  5
6
100
AcDbSymbolTable
 70
             0
  0
ENDTAB
  0
TABLE
  2
APPID
  5
8
100
AcDbSymbolTable
 70
             1
  0
APPID
  5
16
100
AcDbSymbolTableRecord
100
AcDbRegAppTableRecord
  2
ACAD
 70
             0
  0
ENDTAB
  0
TABLE
  2
DIMSTYLE
  5
9
100
AcDbSymbolTable
 70
             1
  0
DIMSTYLE
105
18
100
AcDbSymbolTableRecord
100
AcDbDimStyleTableRecord
  2
STANDARD
 70
             0
  3

  4

  5

  6

  7

 40
1.0
 41
0.18
 42
0.0625
 43
0.38
 44
0.18
 45
0.0
 46
0.0
 47
0.0
 48
0.0
 71
             0
 72
             0
 73
             1
 74
             1
 75
             0
 76
             0
 77
             0
 78
             0
140
0.18
141
0.09
142
0.0
143
25.4
144
1.0
145
0.0
146
1.0
147
0.09
170
             0
171
             2
172
             0
173
             0
174
             0
175
             0
176
             0
177
             0
178
             0
270
             2
271
             4
272
             4
273
             2
274
             2
275
             0
280
             0
281
             0
282
             0
283
             1
284
             0
285
             0
286
             0
287
             0
288
             0
340
17
  0
ENDTAB
  0
TABLE
  2
BLOCK_RECORD
  5
1
100
AcDbSymbolTable
 70
             0
  0
BLOCK_RECORD
  5
A
100
AcDbSymbolTableRecord
100
AcDbBlockTableRecord
  2
*MODEL_SPACE
  0
BLOCK_RECORD
  5
B
100
AcDbSymbolTableRecord
100
AcDbBlockTableRecord
  2
*PAPER_SPACE
  0
ENDTAB
  0
ENDSEC
  0
SECTION
  2
BLOCKS
  0
BLOCK
  5
D
100
AcDbEntity
  8
0
100
AcDbBlockBegin
  2
*MODEL_SPACE
 70
             0
 10
0.0
 20
0.0
 30
0.0
  3
*MODEL_SPACE
  1

  0
ENDBLK
  5
E
100
AcDbEntity
  8
0
100
AcDbBlockEnd
  0
BLOCK
  5
F
100
AcDbEntity
 67
             1
  8
0
100
AcDbBlockBegin
  2
*PAPER_SPACE
 70
             0
 10
0.0
 20
0.0
 30
0.0
  3
*PAPER_SPACE
  1

  0
ENDBLK
  5
10
100
AcDbEntity
 67
             1
  8
0
100
AcDbBlockEnd
  0
ENDSEC
  0
SECTION
  2
ENTITIES
  0
ARC
  5
65F
100
AcDbEntity
  8
1
  6
CONTINUOUS
 62
             7
100
AcDbCircle
 10
-58.56922359359568
 20
16.6999999999998
 40
1.0
100
AcDbArc
 50
-165.96375653204362
 51
-90.0
  0
ARC
  5
65E
100
AcDbEntity
  8
1
  6
CONTINUOUS
 62
             7
100
AcDbCircle
 10
-141.24999999999969
 20
-36.49999999999999
 40
1.0
100
AcDbArc
 50
180.0
 51
-90.0
  0
ARC
  5
65D
100
AcDbEntity
  8
1
  6
CONTINUOUS
 62
             7
100
AcDbCircle
 10
-199.49999999999969
 20
36.5
 40
1.0
100
AcDbArc
 50
0.0
 51
90.0
  0
ARC
  5
65C
100
AcDbEntity
  8
1
  6
CONTINUOUS
 62
             7
100
AcDbCircle
 10
-214.99999999999969
 20
36.5
 40
1.0
100
AcDbArc
 50
90.0
 51
180.0
  0
ARC
  5
65B
100
AcDbEntity
  8
1
  6
CONTINUOUS
 62
             7
100
AcDbCircle
 10
-214.99999999999969
 20
-36.5
 40
1.0
100
AcDbArc
 50
180.0
 51
-90.0
  0
ARC
  5
65A
100
AcDbEntity
  8
1
  6
CONTINUOUS
 62
             7
100
AcDbCircle
 10
-199.49999999999969
 20
-36.5
 40
1.0
100
AcDbArc
 50
-90.0
 51
0.0
  0
ARC
  5
659
100
AcDbEntity
  8
1
  6
CONTINUOUS
 62
             7
100
AcDbCircle
 10
-200.49999999999969
 20
-35.5
 40
0.5
100
AcDbArc
 50
-90.0
 51
0.0
  0
ARC
  5
658
100
AcDbEntity
  8
1
  6
CONTINUOUS
 62
             7
100
AcDbCircle
 10
-213.99999999999969
 20
-35.5
 40
0.5
100
AcDbArc
 50
180.0
 51
-90.0
  0
ARC
  5
657
100
AcDbEntity
  8
1
  6
CONTINUOUS
 62
             7
100
AcDbCircle
 10
-141.24999999999969
 20
36.5
 40
1.0
100
AcDbArc
 50
90.0
 51
180.0
  0
ARC
  5
656
100
AcDbEntity
  8
1
  6
CONTINUOUS
 62
             7
100
AcDbCircle
 10
-60.74999999999967
 20
17.19999999999977
 40
0.5
100
AcDbArc
 50
89.99999999999756
 51
180.0
  0
ARC
  5
655
100
AcDbEntity
  8
1
  6
CONTINUOUS
 62
             7
100
AcDbCircle
 10
-60.00615528128157
 20
17.49999999999973
 40
0.20000000000001
100
AcDbArc
 50
14.0362434679561
 51
89.99999999999389
  0
ARC
  5
654
100
AcDbEntity
  8
1
  6
CONTINUOUS
 62
             7
100
AcDbCircle
 10
-209.89999999999969
 20
29.75
 40
0.5
100
AcDbArc
 50
0.0
 51
90.0
  0
ARC
  5
653
100
AcDbEntity
  8
1
  6
CONTINUOUS
 62
             7
100
AcDbCircle
 10
-209.89999999999969
 20
29.242
 40
0.5
100
AcDbArc
 50
-90.0
 51
0.0
  0
ARC
  5
652
100
AcDbEntity
  8
1
  6
CONTINUOUS
 62
             7
100
AcDbCircle
 10
-210.89999999999969
 20
29.242
 40
0.5
100
AcDbArc
 50
180.0
 51
-90.0
  0
ARC
  5
651
100
AcDbEntity
  8
1
  6
CONTINUOUS
 62
             7
100
AcDbCircle
 10
-210.89999999999969
 20
29.75
 40
0.5
100
AcDbArc
 50
90.0
 51
180.0
  0
ARC
  5
650
100
AcDbEntity
  8
1
  6
CONTINUOUS
 62
             7
100
AcDbCircle
 10
-210.89999999999969
 20
32.246
 40
0.5
100
AcDbArc
 50
90.0
 51
180.0
  0
ARC
  5
64F
100
AcDbEntity
  8
1
  6
CONTINUOUS
 62
             7
100
AcDbCircle
 10
-210.89999999999969
 20
31.746
 40
0.5
100
AcDbArc
 50
-179.99999999999918
 51
-90.0
  0
ARC
  5
64E
100
AcDbEntity
  8
1
  6
CONTINUOUS
 62
             7
100
AcDbCircle
 10
-209.89999999999969
 20
31.746
 40
0.5
100
AcDbArc
 50
-90.0
 51
-0.00000000000081
  0
ARC
  5
64D
100
AcDbEntity
  8
1
  6
CONTINUOUS
 62
             7
100
AcDbCircle
 10
-209.89999999999969
 20
32.246
 40
0.5
100
AcDbArc
 50
0.0
 51
90.0
  0
ARC
  5
64C
100
AcDbEntity
  8
1
  6
CONTINUOUS
 62
             7
100
AcDbCircle
 10
-210.89999999999969
 20
27.25
 40
0.5
100
AcDbArc
 50
90.0
 51
180.0
  0
ARC
  5
64B
100
AcDbEntity
  8
1
  6
CONTINUOUS
 62
             7
100
AcDbCircle
 10
-210.89999999999969
 20
26.742
 40
0.5
100
AcDbArc
 50
180.0
 51
-90.0
  0
ARC
  5
64A
100
AcDbEntity
  8
1
  6
CONTINUOUS
 62
             7
100
AcDbCircle
 10
-209.89999999999969
 20
26.742
 40
0.5
100
AcDbArc
 50
-90.0
 51
0.0
  0
ARC
  5
649
100
AcDbEntity
  8
1
  6
CONTINUOUS
 62
             7
100
AcDbCircle
 10
-209.89999999999969
 20
27.25
 40
0.5
100
AcDbArc
 50
0.0
 51
90.0
  0
ARC
  5
648
100
AcDbEntity
  8
1
  6
DOTTED
 62
             7
100
AcDbCircle
 10
-54.2500000000008
 20
-13.00000000000001
 40
1.0
100
AcDbArc
 50
-90.0
 51
0.0
  0
ARC
  5
647
100
AcDbEntity
  8
1
  6
DOTTED
 62
             7
100
AcDbCircle
 10
-54.2500000000008
 20
13.0
 40
1.0
100
AcDbArc
 50
0.0
 51
90.0
  0
ARC
  5
646
100
AcDbEntity
  8
1
  6
DOTTED
 62
             7
100
AcDbCircle
 10
-58.7500000000008
 20
-14.50000000000001
 40
2.0
100
AcDbArc
 50
90.0
 51
180.0
  0
ARC
  5
645
100
AcDbEntity
  8
1
  6
DOTTED
 62
             7
100
AcDbCircle
 10
-58.7500000000008
 20
14.5
 40
2.0
100
AcDbArc
 50
180.0
 51
-90.0
  0
CIRCLE
  5
644
100
AcDbEntity
  8
0
  6
CONTINUOUS
 62
             7
100
AcDbCircle
 10
-60.99999900000052
 20
-3.8013159999993
 40
0.8
  0
CIRCLE
  5
643
100
AcDbEntity
  8
0
  6
CONTINUOUS
 62
             7
100
AcDbCircle
 10
-60.99999900000052
 20
0.0086840000007
 40
0.80000000000001
  0
CIRCLE
  5
642
100
AcDbEntity
  8
0
  6
CONTINUOUS
 62
             7
100
AcDbCircle
 10
-60.99999900000052
 20
3.8186840000007
 40
0.80000000000001
  0
CIRCLE
  5
641
100
AcDbEntity
  8
0
  6
CONTINUOUS
 62
             7
100
AcDbCircle
 10
-60.99999900000052
 20
7.6286840000007
 40
0.80000000000001
  0
CIRCLE
  5
640
100
AcDbEntity
  8
1
  6
CONTINUOUS
 62
             7
100
AcDbCircle
 10
-206.5499999999997
 20
21.5
 40
1.5
  0
CIRCLE
  5
63F
100
AcDbEntity
  8
1
  6
CONTINUOUS
 62
             7
100
AcDbCircle
 10
-206.5499999999997
 20
13.0
 40
1.5
  0
CIRCLE
  5
63E
100
AcDbEntity
  8
1
  6
CONTINUOUS
 62
             7
100
AcDbCircle
 10
-206.5499999999997
 20
21.5
 40
3.49755771500091
  0
CIRCLE
  5
63D
100
AcDbEntity
  8
1
  6
CONTINUOUS
 62
             7
100
AcDbCircle
 10
-206.5499999999997
 20
13.0
 40
3.5000112820718
  0
CIRCLE
  5
63C
100
AcDbEntity
  8
0
  6
CONTINUOUS
 62
             7
100
AcDbCircle
 10
-146.90999999999991
 20
-21.38000000000001
 40
0.4582575694962
  0
CIRCLE
  5
63B
100
AcDbEntity
  8
0
  6
CONTINUOUS
 62
             7
100
AcDbCircle
 10
-146.90999999999991
 20
4.02000000000004
 40
0.4582575694962
  0
CIRCLE
  5
63A
100
AcDbEntity
  8
0
  6
CONTINUOUS
 62
             7
100
AcDbCircle
 10
-146.90999999999991
 20
-11.22
 40
0.4582575694962
  0
CIRCLE
  5
639
100
AcDbEntity
  8
0
  6
CONTINUOUS
 62
             7
100
AcDbCircle
 10
-146.90999999999991
 20
-16.3
 40
0.4582575694962
  0
CIRCLE
  5
638
100
AcDbEntity
  8
0
  6
CONTINUOUS
 62
             7
100
AcDbCircle
 10
-146.90999999999991
 20
-26.46000000000001
 40
0.4582575694962
  0
CIRCLE
  5
637
100
AcDbEntity
  8
0
  6
CONTINUOUS
 62
             7
100
AcDbCircle
 10
-146.90999999999991
 20
-6.14000000000001
 40
0.4582575694962
  0
CIRCLE
  5
636
100
AcDbEntity
  8
0
  6
CONTINUOUS
 62
             7
100
AcDbCircle
 10
-146.90999999999991
 20
-1.06000000000001
 40
0.4582575694962
  0
ARC
  5
635
100
AcDbEntity
  8
0
  6
CONTINUOUS
 62
             7
100
AcDbCircle
 10
-61.38445276907279
 20
-0.43995161920361
 40
8.5060463043065
100
AcDbArc
 50
-71.12711426489096
 51
-70.64962202613086
  0
ARC
  5
634
100
AcDbEntity
  8
0
  6
CONTINUOUS
 62
             7
100
AcDbCircle
 10
-61.61032897172353
 20
-15.4431445613596
 40
9.20406706674915
100
AcDbArc
 50
71.12653755974972
 51
71.56670208039316
  0
ARC
  5
633
100
AcDbEntity
  8
0
  6
CONTINUOUS
 62
             7
100
AcDbCircle
 10
-61.61032959887361
 20
-7.82314641858871
 40
9.20406902699487
100
AcDbArc
 50
71.12653760546291
 51
71.56670203236176
  0
ARC
  5
632
100
AcDbEntity
  8
0
  6
CONTINUOUS
 62
             7
100
AcDbCircle
 10
-61.37534628024805
 20
3.3437676665792
 40
8.47823280754089
100
AcDbArc
 50
-71.12789747168198
 51
-70.64883879675712
  0
ARC
  5
631
100
AcDbEntity
  8
0
  6
CONTINUOUS
 62
             7
100
AcDbCircle
 10
-61.624115940048
 20
-11.6739858002705
 40
9.24717228689842
100
AcDbArc
 50
71.12756346694887
 51
71.56567617319553
  0
ARC
  5
630
100
AcDbEntity
  8
0
  6
CONTINUOUS
 62
             7
100
AcDbCircle
 10
-61.38437080308757
 20
14.79981183254569
 40
8.50579595972505
100
AcDbArc
 50
-71.127121268924
 51
-70.6496149994131
  0
ARC
  5
62F
100
AcDbEntity
  8
0
  6
CONTINUOUS
 62
             7
100
AcDbCircle
 10
-61.61023110249762
 20
-0.20285464193191
 40
9.20376107609899
100
AcDbArc
 50
71.12653022017436
 51
71.56670939594592
  0
ARC
  5
62E
100
AcDbEntity
  8
0
  6
CONTINUOUS
 62
             7
100
AcDbCircle
 10
-61.37534640674547
 20
10.96376803164719
 40
8.47823319390036
100
AcDbArc
 50
-71.12789746077736
 51
-70.64883880768369
  0
ARC
  5
62D
100
AcDbEntity
  8
0
  6
CONTINUOUS
 62
             7
100
AcDbCircle
 10
-61.61032668632756
 20
-4.0131377907373
 40
9.20405992086941
100
AcDbArc
 50
71.12653738773224
 51
71.56670225011401
  0
ARC
  5
62C
100
AcDbEntity
  8
0
  6
CONTINUOUS
 62
             7
100
AcDbCircle
 10
-61.37534986910602
 20
7.15377802378208
 40
8.47824376881149
100
AcDbArc
 50
-71.12789716200012
 51
-70.64883910643968
  0
ARC
  5
62B
100
AcDbEntity
  8
0
  6
CONTINUOUS
 62
             7
100
AcDbCircle
 10
-63.46999900000365
 20
0.60868400000069
 40
0.2
100
AcDbArc
 50
180.0
 51
-90.0
  0
ARC
  5
62A
100
AcDbEntity
  8
0
  6
CONTINUOUS
 62
             7
100
AcDbCircle
 10
-63.46999900000365
 20
-7.0113159999993
 40
0.2
100
AcDbArc
 50
180.0
 51
-90.0
  0
ARC
  5
629
100
AcDbEntity
  8
0
  6
CONTINUOUS
 62
             7
100
AcDbCircle
 10
-60.99999900000052
 20
-7.61131599999931
 40
0.8
100
AcDbArc
 50
-38.68218745348948
 51
-141.31781254651082
  0
ARC
  5
628
100
AcDbEntity
  8
0
  6
CONTINUOUS
 62
             7
100
AcDbCircle
 10
-57.49999900000081
 20
-7.61131599999931
 40
1.49999999999999
100
AcDbArc
 50
143.13010235432773
 51
-143.13010235432773
  0
ARC
  5
627
100
AcDbEntity
  8
0
  6
CONTINUOUS
 62
             7
100
AcDbCircle
 10
-57.49999900000081
 20
-7.61131599999931
 40
1.36602540378448
100
AcDbArc
 50
141.29581696701987
 51
-141.29581696702425
  0
ARC
  5
626
100
AcDbEntity
  8
0
  6
CONTINUOUS
 62
             7
100
AcDbCircle
 10
-63.46999900000364
 20
-8.2113159999993
 40
0.2
100
AcDbArc
 50
90.0
 51
180.0
  0
ARC
  5
625
100
AcDbEntity
  8
0
  6
CONTINUOUS
 62
             7
100
AcDbCircle
 10
-63.46999900000365
 20
-3.20131599999931
 40
0.2
100
AcDbArc
 50
180.0
 51
-90.0
  0
ARC
  5
624
100
AcDbEntity
  8
0
  6
CONTINUOUS
 62
             7
100
AcDbCircle
 10
-57.49999900000081
 20
-3.8013159999993
 40
1.49999999999999
100
AcDbArc
 50
143.13010235432773
 51
-143.13010235423582
  0
ARC
  5
623
100
AcDbEntity
  8
0
  6
CONTINUOUS
 62
             7
100
AcDbCircle
 10
-57.49999900000081
 20
-3.8013159999993
 40
1.36602540378445
100
AcDbArc
 50
141.29581696702425
 51
-141.29581696702624
  0
ARC
  5
622
100
AcDbEntity
  8
0
  6
CONTINUOUS
 62
             7
100
AcDbCircle
 10
-63.46999900000364
 20
-4.4013159999993
 40
0.19999999999999
100
AcDbArc
 50
90.0
 51
180.0
  0
ARC
  5
621
100
AcDbEntity
  8
0
  6
CONTINUOUS
 62
             7
100
AcDbCircle
 10
-57.49999900000081
 20
7.6286840000007
 40
1.36602540378447
100
AcDbArc
 50
141.29581696701885
 51
-141.29581696702257
  0
ARC
  5
620
100
AcDbEntity
  8
0
  6
CONTINUOUS
 62
             7
100
AcDbCircle
 10
-57.49999900000081
 20
0.0086840000007
 40
1.36602540378445
100
AcDbArc
 50
141.29581696702425
 51
-141.29581696702621
  0
ARC
  5
61F
100
AcDbEntity
  8
0
  6
CONTINUOUS
 62
             7
100
AcDbCircle
 10
-57.49999900000081
 20
0.0086840000007
 40
1.50000000000051
100
AcDbArc
 50
143.1301023542747
 51
-143.13010235423533
  0
ARC
  5
61E
100
AcDbEntity
  8
0
  6
CONTINUOUS
 62
             7
100
AcDbCircle
 10
-63.46999900000364
 20
-0.59131599999932
 40
0.20000000000002
100
AcDbArc
 50
90.0
 51
180.0
  0
ARC
  5
61D
100
AcDbEntity
  8
0
  6
CONTINUOUS
 62
             7
100
AcDbCircle
 10
-63.46999900000365
 20
4.4186840000007
 40
0.2
100
AcDbArc
 50
180.0
 51
-90.0
  0
ARC
  5
61C
100
AcDbEntity
  8
0
  6
CONTINUOUS
 62
             7
100
AcDbCircle
 10
-57.49999900000081
 20
3.8186840000007
 40
1.36602540378442
100
AcDbArc
 50
141.29581696702334
 51
-141.29581696702579
  0
ARC
  5
61B
100
AcDbEntity
  8
0
  6
CONTINUOUS
 62
             7
100
AcDbCircle
 10
-57.49999900000081
 20
3.8186840000007
 40
1.50000000000048
100
AcDbArc
 50
143.13010235427524
 51
-143.13010235423579
  0
ARC
  5
61A
100
AcDbEntity
  8
0
  6
CONTINUOUS
 62
             7
100
AcDbCircle
 10
-63.46999900000364
 20
3.21868400000068
 40
0.20000000000002
100
AcDbArc
 50
90.0
 51
180.0
  0
ARC
  5
619
100
AcDbEntity
  8
0
  6
CONTINUOUS
 62
             7
100
AcDbCircle
 10
-57.49999900000081
 20
7.6286840000007
 40
1.49999999999751
100
AcDbArc
 50
143.13010235423229
 51
-143.13010235423579
  0
ARC
  5
618
100
AcDbEntity
  8
0
  6
CONTINUOUS
 62
             7
100
AcDbCircle
 10
-63.46999900000364
 20
7.02868400000068
 40
0.20000000000002
100
AcDbArc
 50
90.0
 51
180.0
  0
ARC
  5
617
100
AcDbEntity
  8
0
  6
CONTINUOUS
 62
             7
100
AcDbCircle
 10
-63.46999900000365
 20
8.2286840000007
 40
0.2
100
AcDbArc
 50
180.0
 51
-90.0
  0
ARC
  5
616
100
AcDbEntity
  8
1
  6
CONTINUOUS
 62
             7
100
AcDbCircle
 10
-62.04999999999968
 20
14.5
 40
1.5
100
AcDbArc
 50
-57.76904736449793
 51
57.7690473644977
  0
ARC
  5
615
100
AcDbEntity
  8
0
  6
CONTINUOUS
 62
             7
100
AcDbCircle
 10
-149.18499999999989
 20
-21.38000000000001
 40
1.17499999999998
100
AcDbArc
 50
0.0
 51
90.0
  0
ARC
  5
614
100
AcDbEntity
  8
0
  6
CONTINUOUS
 62
             7
100
AcDbCircle
 10
-149.18499999999989
 20
-21.38000000000001
 40
1.175
100
AcDbArc
 50
-90.0
 51
0.0
  0
ARC
  5
613
100
AcDbEntity
  8
0
  6
CONTINUOUS
 62
             7
100
AcDbCircle
 10
-147.01000000000121
 20
-21.38000000000001
 40
2.49999999999995
100
AcDbArc
 50
-151.96570346511805
 51
-113.57817847816905
  0
ARC
  5
612
100
AcDbEntity
  8
0
  6
CONTINUOUS
 62
             7
100
AcDbCircle
 10
-147.01000000000121
 20
-16.30000000000001
 40
2.49999999999994
100
AcDbArc
 50
-151.96570346511814
 51
-113.57817847816955
  0
ARC
  5
611
100
AcDbEntity
  8
0
  6
CONTINUOUS
 62
             7
100
AcDbCircle
 10
-147.01000000000121
 20
4.02000000000004
 40
2.50000000000001
100
AcDbArc
 50
113.57817847816905
 51
151.96570346511783
  0
ARC
  5
610
100
AcDbEntity
  8
0
  6
CONTINUOUS
 62
             7
100
AcDbCircle
 10
-149.18499999999989
 20
4.02000000000004
 40
1.17499999999998
100
AcDbArc
 50
0.0
 51
90.0
  0
ARC
  5
60F
100
AcDbEntity
  8
0
  6
CONTINUOUS
 62
             7
100
AcDbCircle
 10
-147.01000000000121
 20
-11.22000000000001
 40
2.49999999999995
100
AcDbArc
 50
-151.96570346511805
 51
-113.57817847816951
  0
ARC
  5
60E
100
AcDbEntity
  8
0
  6
CONTINUOUS
 62
             7
100
AcDbCircle
 10
-147.01000000000121
 20
-16.30000000000001
 40
2.49999999999997
100
AcDbArc
 50
113.57817847816941
 51
151.96570346511785
  0
ARC
  5
60D
100
AcDbEntity
  8
0
  6
CONTINUOUS
 62
             7
100
AcDbCircle
 10
-149.18499999999989
 20
-16.30000000000001
 40
1.17499999999998
100
AcDbArc
 50
0.00000000000052
 51
90.0
  0
ARC
  5
60C
100
AcDbEntity
  8
0
  6
CONTINUOUS
 62
             7
100
AcDbCircle
 10
-149.18499999999989
 20
-16.30000000000001
 40
1.175
100
AcDbArc
 50
-90.0
 51
0.00000000000052
  0
ARC
  5
60B
100
AcDbEntity
  8
0
  6
CONTINUOUS
 62
             7
100
AcDbCircle
 10
-147.01000000000121
 20
4.02000000000004
 40
2.49999999999994
100
AcDbArc
 50
-151.96570346511814
 51
-113.57817847816958
  0
ARC
  5
60A
100
AcDbEntity
  8
0
  6
CONTINUOUS
 62
             7
100
AcDbCircle
 10
-147.01000000000121
 20
-11.22000000000001
 40
2.49999999999997
100
AcDbArc
 50
113.57817847816948
 51
151.96570346511788
  0
ARC
  5
609
100
AcDbEntity
  8
0
  6
CONTINUOUS
 62
             7
100
AcDbCircle
 10
-149.18499999999989
 20
-11.22
 40
1.17499999999998
100
AcDbArc
 50
0.0
 51
90.0
  0
ARC
  5
608
100
AcDbEntity
  8
0
  6
CONTINUOUS
 62
             7
100
AcDbCircle
 10
-149.18499999999989
 20
-11.22
 40
1.175
100
AcDbArc
 50
-90.0
 51
0.0
  0
ARC
  5
607
100
AcDbEntity
  8
0
  6
CONTINUOUS
 62
             7
100
AcDbCircle
 10
-149.18499999999989
 20
4.02000000000004
 40
1.175
100
AcDbArc
 50
-90.0
 51
0.0
  0
ARC
  5
606
100
AcDbEntity
  8
0
  6
CONTINUOUS
 62
             7
100
AcDbCircle
 10
-147.01000000000121
 20
-21.38000000000001
 40
2.49999999999997
100
AcDbArc
 50
113.57817847816941
 51
151.96570346511805
  0
ARC
  5
605
100
AcDbEntity
  8
0
  6
CONTINUOUS
 62
             7
100
AcDbCircle
 10
-149.18499999999989
 20
-26.46000000000001
 40
1.17499999999998
100
AcDbArc
 50
0.0
 51
90.0
  0
ARC
  5
604
100
AcDbEntity
  8
0
  6
CONTINUOUS
 62
             7
100
AcDbCircle
 10
-149.18499999999989
 20
-26.46000000000001
 40
1.175
100
AcDbArc
 50
-90.0
 51
0.0
  0
ARC
  5
603
100
AcDbEntity
  8
0
  6
CONTINUOUS
 62
             7
100
AcDbCircle
 10
-147.01000000000121
 20
-26.46000000000001
 40
2.49999999999994
100
AcDbArc
 50
-151.96570346511814
 51
-113.57817847816909
  0
ARC
  5
602
100
AcDbEntity
  8
0
  6
CONTINUOUS
 62
             7
100
AcDbCircle
 10
-147.01000000000121
 20
-26.46000000000001
 40
2.49999999999992
100
AcDbArc
 50
113.57817847816996
 51
151.96570346511805
  0
ARC
  5
601
100
AcDbEntity
  8
0
  6
CONTINUOUS
 62
             7
100
AcDbCircle
 10
-149.18499999999989
 20
-6.14000000000001
 40
1.175
100
AcDbArc
 50
-90.0
 51
0.0
  0
ARC
  5
600
100
AcDbEntity
  8
0
  6
CONTINUOUS
 62
             7
100
AcDbCircle
 10
-149.18499999999989
 20
-6.14000000000001
 40
1.17499999999998
100
AcDbArc
 50
0.0
 51
90.0
  0
ARC
  5
5FF
100
AcDbEntity
  8
0
  6
CONTINUOUS
 62
             7
100
AcDbCircle
 10
-147.01000000000121
 20
-6.14000000000001
 40
2.49999999999997
100
AcDbArc
 50
113.57817847816948
 51
151.96570346511791
  0
ARC
  5
5FE
100
AcDbEntity
  8
0
  6
CONTINUOUS
 62
             7
100
AcDbCircle
 10
-147.01000000000121
 20
-6.14000000000001
 40
2.49999999999995
100
AcDbArc
 50
-151.96570346511803
 51
-113.57817847816958
  0
ARC
  5
5FD
100
AcDbEntity
  8
0
  6
CONTINUOUS
 62
             7
100
AcDbCircle
 10
-147.01000000000121
 20
-1.06000000000002
 40
2.49999999999995
100
AcDbArc
 50
-151.96570346511805
 51
-113.57817847816958
  0
ARC
  5
5FC
100
AcDbEntity
  8
0
  6
CONTINUOUS
 62
             7
100
AcDbCircle
 10
-147.01000000000121
 20
-1.06000000000002
 40
2.49999999999997
100
AcDbArc
 50
113.57817847816948
 51
151.96570346511791
  0
ARC
  5
5FB
100
AcDbEntity
  8
0
  6
CONTINUOUS
 62
             7
100
AcDbCircle
 10
-149.18499999999989
 20
-1.06000000000001
 40
1.17499999999998
100
AcDbArc
 50
0.0
 51
90.0
  0
ARC
  5
5FA
100
AcDbEntity
  8
0
  6
CONTINUOUS
 62
             7
100
AcDbCircle
 10
-149.18499999999989
 20
-1.06000000000001
 40
1.175
100
AcDbArc
 50
-90.0
 51
0.0
  0
ARC
  5
5F9
100
AcDbEntity
  8
0
  6
CONTINUOUS
 62
             7
100
AcDbCircle
 10
-201.2250000000009
 20
4.06999999999999
 40
1.17499999999998
100
AcDbArc
 50
180.0
 51
-126.56573693214294
  0
ARC
  5
5F8
100
AcDbEntity
  8
0
  6
CONTINUOUS
 62
             7
100
AcDbCircle
 10
-202.6249999999996
 20
-1.01
 40
1.375
100
AcDbArc
 50
-90.0
 51
90.0
  0
ARC
  5
5F7
100
AcDbEntity
  8
0
  6
CONTINUOUS
 62
             7
100
AcDbCircle
 10
-201.2250000000009
 20
-1.01
 40
1.17500000000001
100
AcDbArc
 50
126.56573693214628
 51
180.0
  0
ARC
  5
5F6
100
AcDbEntity
  8
0
  6
CONTINUOUS
 62
             7
100
AcDbCircle
 10
-202.6249999999996
 20
-1.01
 40
1.17500000000001
100
AcDbArc
 50
-90.0
 51
90.0
  0
ARC
  5
5F5
100
AcDbEntity
  8
0
  6
CONTINUOUS
 62
             7
100
AcDbCircle
 10
-201.2250000000009
 20
-1.01
 40
1.17499999999998
100
AcDbArc
 50
180.0
 51
-126.56573693214251
  0
ARC
  5
5F4
100
AcDbEntity
  8
0
  6
CONTINUOUS
 62
             7
100
AcDbCircle
 10
-202.5999999999996
 20
-1.01
 40
0.49999999999997
100
AcDbArc
 50
-56.44568279068945
 51
56.44568279069035
  0
ARC
  5
5F3
100
AcDbEntity
  8
0
  6
CONTINUOUS
 62
             7
100
AcDbCircle
 10
-202.6249999999996
 20
-6.09000000000002
 40
1.375
100
AcDbArc
 50
-90.0
 51
90.0
  0
ARC
  5
5F2
100
AcDbEntity
  8
0
  6
CONTINUOUS
 62
             7
100
AcDbCircle
 10
-202.6249999999996
 20
-11.17000000000001
 40
1.37500000000001
100
AcDbArc
 50
-90.0
 51
90.0
  0
ARC
  5
5F1
100
AcDbEntity
  8
0
  6
CONTINUOUS
 62
             7
100
AcDbCircle
 10
-202.5999999999996
 20
-11.17000000000001
 40
0.49999999999997
100
AcDbArc
 50
-56.44568279068946
 51
56.44568279069081
  0
ARC
  5
5F0
100
AcDbEntity
  8
0
  6
CONTINUOUS
 62
             7
100
AcDbCircle
 10
-201.2250000000009
 20
-11.17000000000001
 40
1.175
100
AcDbArc
 50
126.56573693214634
 51
180.0
  0
ARC
  5
5EF
100
AcDbEntity
  8
0
  6
CONTINUOUS
 62
             7
100
AcDbCircle
 10
-202.6249999999996
 20
-11.17000000000001
 40
1.175
100
AcDbArc
 50
-90.0
 51
90.0
  0
ARC
  5
5EE
100
AcDbEntity
  8
0
  6
CONTINUOUS
 62
             7
100
AcDbCircle
 10
-201.2250000000009
 20
-11.17000000000001
 40
1.17499999999998
100
AcDbArc
 50
180.0
 51
-126.56573693214271
  0
ARC
  5
5ED
100
AcDbEntity
  8
0
  6
CONTINUOUS
 62
             7
100
AcDbCircle
 10
-201.2250000000009
 20
-6.09000000000001
 40
1.175
100
AcDbArc
 50
126.56573693214654
 51
180.0
  0
ARC
  5
5EC
100
AcDbEntity
  8
0
  6
CONTINUOUS
 62
             7
100
AcDbCircle
 10
-201.2250000000009
 20
-6.09000000000001
 40
1.17499999999998
100
AcDbArc
 50
180.0
 51
-126.56573693214294
  0
ARC
  5
5EB
100
AcDbEntity
  8
0
  6
CONTINUOUS
 62
             7
100
AcDbCircle
 10
-202.6249999999996
 20
-6.09000000000002
 40
1.175
100
AcDbArc
 50
-90.0
 51
90.0
  0
ARC
  5
5EA
100
AcDbEntity
  8
0
  6
CONTINUOUS
 62
             7
100
AcDbCircle
 10
-202.5999999999996
 20
-6.09000000000002
 40
0.49999999999996
100
AcDbArc
 50
-56.44568279068857
 51
56.44568279068946
  0
ARC
  5
5E9
100
AcDbEntity
  8
0
  6
CONTINUOUS
 62
             7
100
AcDbCircle
 10
-201.2250000000009
 20
-26.41000000000002
 40
1.17500000000001
100
AcDbArc
 50
126.56573693214628
 51
179.99999999999895
  0
ARC
  5
5E8
100
AcDbEntity
  8
0
  6
CONTINUOUS
 62
             7
100
AcDbCircle
 10
-202.6249999999996
 20
-26.41
 40
1.37500000000002
100
AcDbArc
 50
-90.0
 51
90.0
  0
ARC
  5
5E7
100
AcDbEntity
  8
0
  6
CONTINUOUS
 62
             7
100
AcDbCircle
 10
-202.6249999999996
 20
-26.41
 40
1.17500000000002
100
AcDbArc
 50
-90.0
 51
90.0
  0
ARC
  5
5E6
100
AcDbEntity
  8
0
  6
CONTINUOUS
 62
             7
100
AcDbCircle
 10
-202.5999999999996
 20
-26.41000000000002
 40
0.49999999999995
100
AcDbArc
 50
-56.44568279068811
 51
56.4456827906897
  0
ARC
  5
5E5
100
AcDbEntity
  8
0
  6
CONTINUOUS
 62
             7
100
AcDbCircle
 10
-201.2250000000009
 20
-26.41000000000002
 40
1.17499999999998
100
AcDbArc
 50
179.99999999999895
 51
-126.56573693214366
  0
ARC
  5
5E4
100
AcDbEntity
  8
0
  6
CONTINUOUS
 62
             7
100
AcDbCircle
 10
-201.2250000000009
 20
-16.25000000000001
 40
1.175
100
AcDbArc
 50
126.56573693214634
 51
179.99999999999949
  0
ARC
  5
5E3
100
AcDbEntity
  8
0
  6
CONTINUOUS
 62
             7
100
AcDbCircle
 10
-202.6249999999996
 20
-21.33000000000001
 40
1.37500000000001
100
AcDbArc
 50
-90.0
 51
90.0
  0
ARC
  5
5E2
100
AcDbEntity
  8
0
  6
CONTINUOUS
 62
             7
100
AcDbCircle
 10
-202.6249999999996
 20
-21.33000000000001
 40
1.17500000000001
100
AcDbArc
 50
-90.0
 51
90.0
  0
ARC
  5
5E1
100
AcDbEntity
  8
0
  6
CONTINUOUS
 62
             7
100
AcDbCircle
 10
-201.2250000000009
 20
-21.33000000000001
 40
1.17499999999998
100
AcDbArc
 50
-179.99999999999949
 51
-126.56573693214271
  0
ARC
  5
5E0
100
AcDbEntity
  8
0
  6
CONTINUOUS
 62
             7
100
AcDbCircle
 10
-201.2250000000009
 20
-21.33000000000001
 40
1.17499999999999
100
AcDbArc
 50
126.56573693214669
 51
-179.99999999999949
  0
ARC
  5
5DF
100
AcDbEntity
  8
0
  6
CONTINUOUS
 62
             7
100
AcDbCircle
 10
-202.5999999999996
 20
-21.33000000000001
 40
0.49999999999997
100
AcDbArc
 50
-56.44568279068946
 51
56.44568279068879
  0
ARC
  5
5DE
100
AcDbEntity
  8
0
  6
CONTINUOUS
 62
             7
100
AcDbCircle
 10
-202.6249999999996
 20
-16.25
 40
1.17500000000001
100
AcDbArc
 50
-90.0
 51
90.0
  0
ARC
  5
5DD
100
AcDbEntity
  8
0
  6
CONTINUOUS
 62
             7
100
AcDbCircle
 10
-201.2250000000009
 20
-16.25000000000001
 40
1.17499999999998
100
AcDbArc
 50
179.99999999999949
 51
-126.56573693214335
  0
ARC
  5
5DC
100
AcDbEntity
  8
0
  6
CONTINUOUS
 62
             7
100
AcDbCircle
 10
-202.5999999999996
 20
-16.25000000000001
 40
0.49999999999996
100
AcDbArc
 50
-56.44568279068879
 51
56.44568279068891
  0
ARC
  5
5DB
100
AcDbEntity
  8
0
  6
CONTINUOUS
 62
             7
100
AcDbCircle
 10
-202.6249999999996
 20
-16.25
 40
1.37500000000001
100
AcDbArc
 50
-90.0
 51
90.0
  0
ARC
  5
5DA
100
AcDbEntity
  8
0
  6
CONTINUOUS
 62
             7
100
AcDbCircle
 10
-202.5999999999996
 20
4.06999999999998
 40
0.49999999999996
100
AcDbArc
 50
-56.44568279068857
 51
56.44568279068946
  0
ARC
  5
5D9
100
AcDbEntity
  8
0
  6
CONTINUOUS
 62
             7
100
AcDbCircle
 10
-213.0499999999997
 20
-10.97000000000001
 40
1.5
100
AcDbArc
 50
39.94450518981439
 51
140.05549481018559
  0
ARC
  5
5D8
100
AcDbEntity
  8
0
  6
CONTINUOUS
 62
             7
100
AcDbCircle
 10
-213.0499999999997
 20
-5.89000000000001
 40
1.99999999999991
100
AcDbArc
 50
-174.26082952260128
 51
-0.00000000000025
  0
ARC
  5
5D7
100
AcDbEntity
  8
0
  6
CONTINUOUS
 62
             7
100
AcDbCircle
 10
-213.0499999999997
 20
-5.89000000000001
 40
2.0
100
AcDbArc
 50
-179.99999999999935
 51
-174.26082952260128
  0
ARC
  5
5D6
100
AcDbEntity
  8
0
  6
CONTINUOUS
 62
             7
100
AcDbCircle
 10
-213.0499999999997
 20
-5.89000000000001
 40
1.50000000000001
100
AcDbArc
 50
-140.05549481018511
 51
-39.94450518981492
  0
ARC
  5
5D5
100
AcDbEntity
  8
0
  6
CONTINUOUS
 62
             7
100
AcDbCircle
 10
-213.0499999999997
 20
-5.89000000000001
 40
2.0
100
AcDbArc
 50
-0.00000000000025
 51
-179.99999999999935
  0
ARC
  5
5D4
100
AcDbEntity
  8
0
  6
CONTINUOUS
 62
             7
100
AcDbCircle
 10
-213.0499999999997
 20
-5.89000000000001
 40
1.5
100
AcDbArc
 50
39.94450518981439
 51
140.05549481018559
  0
ARC
  5
5D3
100
AcDbEntity
  8
0
  6
CONTINUOUS
 62
             7
100
AcDbCircle
 10
-202.6249999999996
 20
4.06999999999998
 40
1.37499999999999
100
AcDbArc
 50
-90.0
 51
90.0
  0
ARC
  5
5D2
100
AcDbEntity
  8
0
  6
CONTINUOUS
 62
             7
100
AcDbCircle
 10
-213.0499999999997
 20
4.27
 40
1.99999999999991
100
AcDbArc
 50
-174.26082952260072
 51
0.0
  0
ARC
  5
5D1
100
AcDbEntity
  8
0
  6
CONTINUOUS
 62
             7
100
AcDbCircle
 10
-213.0499999999997
 20
4.27
 40
2.0
100
AcDbArc
 50
180.0
 51
-174.26082952260072
  0
ARC
  5
5D0
100
AcDbEntity
  8
0
  6
CONTINUOUS
 62
             7
100
AcDbCircle
 10
-213.0499999999997
 20
4.27
 40
1.49999999999999
100
AcDbArc
 50
-140.05549481018576
 51
-39.94450518981426
  0
ARC
  5
5CF
100
AcDbEntity
  8
0
  6
CONTINUOUS
 62
             7
100
AcDbCircle
 10
-213.0499999999997
 20
-0.81
 40
2.0
100
AcDbArc
 50
0.0
 51
180.0
  0
ARC
  5
5CE
100
AcDbEntity
  8
0
  6
CONTINUOUS
 62
             7
100
AcDbCircle
 10
-213.0499999999997
 20
-0.81
 40
1.5
100
AcDbArc
 50
39.94450518981466
 51
140.05549481018534
  0
ARC
  5
5CD
100
AcDbEntity
  8
0
  6
CONTINUOUS
 62
             7
100
AcDbCircle
 10
-213.0499999999997
 20
-0.81
 40
2.00000000000005
100
AcDbArc
 50
-5.73917047726672
 51
0.0
  0
ARC
  5
5CC
100
AcDbEntity
  8
0
  6
CONTINUOUS
 62
             7
100
AcDbCircle
 10
-213.0499999999997
 20
-0.81
 40
2.0
100
AcDbArc
 50
180.0
 51
-5.73917047726672
  0
ARC
  5
5CB
100
AcDbEntity
  8
0
  6
CONTINUOUS
 62
             7
100
AcDbCircle
 10
-213.0499999999997
 20
-0.81
 40
1.50000000000001
100
AcDbArc
 50
-140.05549481018491
 51
-39.94450518981508
  0
ARC
  5
5CA
100
AcDbEntity
  8
0
  6
CONTINUOUS
 62
             7
100
AcDbCircle
 10
-201.2250000000009
 20
4.06999999999999
 40
1.175
100
AcDbArc
 50
126.56573693214654
 51
180.0
  0
ARC
  5
5C9
100
AcDbEntity
  8
0
  6
CONTINUOUS
 62
             7
100
AcDbCircle
 10
-202.6249999999996
 20
4.06999999999998
 40
1.17499999999999
100
AcDbArc
 50
-90.0
 51
90.0
  0
ARC
  5
5C8
100
AcDbEntity
  8
0
  6
CONTINUOUS
 62
             7
100
AcDbCircle
 10
-213.0499999999997
 20
4.27
 40
2.0
100
AcDbArc
 50
0.0
 51
180.0
  0
ARC
  5
5C7
100
AcDbEntity
  8
0
  6
CONTINUOUS
 62
             7
100
AcDbCircle
 10
-213.0499999999997
 20
4.27
 40
1.49999999999999
100
AcDbArc
 50
39.94450518981424
 51
140.05549481018576
  0
ARC
  5
5C6
100
AcDbEntity
  8
0
  6
CONTINUOUS
 62
             7
100
AcDbCircle
 10
-213.0499999999997
 20
-16.05000000000001
 40
2.0
100
AcDbArc
 50
0.0
 51
-179.99999999999949
  0
ARC
  5
5C5
100
AcDbEntity
  8
0
  6
CONTINUOUS
 62
             7
100
AcDbCircle
 10
-213.0499999999997
 20
-10.97000000000001
 40
2.0
100
AcDbArc
 50
0.0
 51
-179.99999999999937
  0
ARC
  5
5C4
100
AcDbEntity
  8
0
  6
CONTINUOUS
 62
             7
100
AcDbCircle
 10
-213.0499999999997
 20
-10.97000000000001
 40
1.99999999999991
100
AcDbArc
 50
-174.2608295226014
 51
0.0
  0
ARC
  5
5C3
100
AcDbEntity
  8
0
  6
CONTINUOUS
 62
             7
100
AcDbCircle
 10
-213.0499999999997
 20
-16.05000000000001
 40
1.99999999999991
100
AcDbArc
 50
-174.26082952260143
 51
0.0
  0
ARC
  5
5C2
100
AcDbEntity
  8
0
  6
CONTINUOUS
 62
             7
100
AcDbCircle
 10
-213.0499999999997
 20
-10.97000000000001
 40
1.5
100
AcDbArc
 50
-140.05549481018531
 51
-39.94450518981471
  0
ARC
  5
5C1
100
AcDbEntity
  8
0
  6
CONTINUOUS
 62
             7
100
AcDbCircle
 10
-213.0499999999997
 20
-10.97000000000001
 40
2.0
100
AcDbArc
 50
-179.99999999999937
 51
-174.2608295226014
  0
ARC
  5
5C0
100
AcDbEntity
  8
0
  6
CONTINUOUS
 62
             7
100
AcDbCircle
 10
-213.0499999999997
 20
-16.05000000000001
 40
2.0
100
AcDbArc
 50
-179.99999999999949
 51
-174.26082952260143
  0
ARC
  5
5BF
100
AcDbEntity
  8
0
  6
CONTINUOUS
 62
             7
100
AcDbCircle
 10
-213.0499999999997
 20
-16.05000000000001
 40
1.5
100
AcDbArc
 50
39.94450518981476
 51
140.05549481018525
  0
ARC
  5
5BE
100
AcDbEntity
  8
0
  6
CONTINUOUS
 62
             7
100
AcDbCircle
 10
-213.0499999999997
 20
-16.05000000000001
 40
1.5
100
AcDbArc
 50
-140.05549481018534
 51
-39.94450518981466
  0
ARC
  5
5BD
100
AcDbEntity
  8
0
  6
CONTINUOUS
 62
             7
100
AcDbCircle
 10
-213.0499999999997
 20
-21.13000000000002
 40
2.00000000000005
100
AcDbArc
 50
-5.73917047726602
 51
0.0
  0
ARC
  5
5BC
100
AcDbEntity
  8
0
  6
CONTINUOUS
 62
             7
100
AcDbCircle
 10
-213.0499999999997
 20
-21.13000000000002
 40
2.0
100
AcDbArc
 50
-179.99999999999969
 51
-5.73917047726602
  0
ARC
  5
5BB
100
AcDbEntity
  8
0
  6
CONTINUOUS
 62
             7
100
AcDbCircle
 10
-213.0499999999997
 20
-21.13000000000002
 40
1.5
100
AcDbArc
 50
-140.05549481018534
 51
-39.94450518981466
  0
ARC
  5
5BA
100
AcDbEntity
  8
0
  6
CONTINUOUS
 62
             7
100
AcDbCircle
 10
-213.0499999999997
 20
-21.13000000000002
 40
2.0
100
AcDbArc
 50
0.0
 51
-179.99999999999969
  0
ARC
  5
5B9
100
AcDbEntity
  8
0
  6
CONTINUOUS
 62
             7
100
AcDbCircle
 10
-213.0499999999997
 20
-21.13000000000002
 40
1.5
100
AcDbArc
 50
39.94450518981476
 51
140.05549481018525
  0
ARC
  5
5B8
100
AcDbEntity
  8
0
  6
CONTINUOUS
 62
             7
100
AcDbCircle
 10
-213.0499999999997
 20
-26.21000000000002
 40
2.0
100
AcDbArc
 50
0.0
 51
-179.99999999999969
  0
ARC
  5
5B7
100
AcDbEntity
  8
0
  6
CONTINUOUS
 62
             7
100
AcDbCircle
 10
-213.0499999999997
 20
-26.21000000000002
 40
2.00000000000004
100
AcDbArc
 50
-5.73917047726328
 51
0.0
  0
ARC
  5
5B6
100
AcDbEntity
  8
0
  6
CONTINUOUS
 62
             7
100
AcDbCircle
 10
-213.0499999999997
 20
-26.21000000000002
 40
2.0
100
AcDbArc
 50
-179.99999999999969
 51
-5.73917047726328
  0
ARC
  5
5B5
100
AcDbEntity
  8
0
  6
CONTINUOUS
 62
             7
100
AcDbCircle
 10
-213.0499999999997
 20
-26.21000000000002
 40
1.5
100
AcDbArc
 50
39.94450518981466
 51
140.05549481018534
  0
ARC
  5
5B4
100
AcDbEntity
  8
0
  6
CONTINUOUS
 62
             7
100
AcDbCircle
 10
-213.0499999999997
 20
-26.21000000000002
 40
1.5
100
AcDbArc
 50
-140.05549481018556
 51
-39.94450518981444
  0
ARC
  5
5B3
100
AcDbEntity
  8
0
  6
CONTINUOUS
 62
             7
100
AcDbCircle
 10
-214.21993670765951
 20
-5.88963478141828
 40
0.83006337268623
100
AcDbArc
 50
-179.97479049829488
 51
-168.32244766149009
  0
ARC
  5
5B2
100
AcDbEntity
  8
0
  6
CONTINUOUS
 62
             7
100
AcDbCircle
 10
-214.18976962131029
 20
-5.88313318527375
 40
0.86092205253328
100
AcDbArc
 50
-168.30507106701049
 51
-156.93356900525444
  0
ARC
  5
5B1
100
AcDbEntity
  8
0
  6
CONTINUOUS
 62
             7
100
AcDbCircle
 10
-214.1292389195111
 20
-5.85790770291499
 40
0.92649683342293
100
AcDbArc
 50
-156.96492753875501
 51
-146.0972928948355
  0
ARC
  5
5B0
100
AcDbEntity
  8
0
  6
CONTINUOUS
 62
             7
100
AcDbCircle
 10
-214.0510188888841
 20
-5.8065767849053
 40
1.02005045583206
100
AcDbArc
 50
-146.15492102168983
 51
-135.99002064126557
  0
ARC
  5
5AF
100
AcDbEntity
  8
0
  6
CONTINUOUS
 62
             7
100
AcDbCircle
 10
-213.9702825214053
 20
-5.73069779928611
 40
1.13083807011522
100
AcDbArc
 50
-136.06707020917821
 51
-126.55544188698902
  0
ARC
  5
5AE
100
AcDbEntity
  8
0
  6
CONTINUOUS
 62
             7
100
AcDbCircle
 10
-213.8874719199701
 20
-5.62076781840689
 40
1.26846517972581
100
AcDbArc
 50
-126.60268180788529
 51
-115.60327941901026
  0
ARC
  5
5AD
100
AcDbEntity
  8
0
  6
CONTINUOUS
 62
             7
100
AcDbCircle
 10
-213.82614778883871
 20
-5.49821156328416
 40
1.40548976460638
100
AcDbArc
 50
-115.69872999957131
 51
-105.42604030833645
  0
ARC
  5
5AC
100
AcDbEntity
  8
0
  6
CONTINUOUS
 62
             7
100
AcDbCircle
 10
-213.8176085853631
 20
-6.30455198416819
 40
1.42970628239763
100
AcDbArc
 50
105.51326813948261
 51
115.61150216842594
  0
ARC
  5
5AB
100
AcDbEntity
  8
0
  6
CONTINUOUS
 62
             7
100
AcDbCircle
 10
-213.8763372970007
 20
-6.17768808620379
 40
1.28992219917427
100
AcDbArc
 50
115.69503835452244
 51
126.5109228723704
  0
ARC
  5
5AA
100
AcDbEntity
  8
0
  6
CONTINUOUS
 62
             7
100
AcDbCircle
 10
-213.95516196500321
 20
-6.06650675109451
 40
1.15366552868956
100
AcDbArc
 50
126.64975497934569
 51
135.97275711682062
  0
ARC
  5
5A9
100
AcDbEntity
  8
0
  6
CONTINUOUS
 62
             7
100
AcDbCircle
 10
-214.0379138398047
 20
-5.98400805697655
 40
1.03683110256798
100
AcDbArc
 50
136.07248900242044
 51
146.07245266053738
  0
ARC
  5
5A8
100
AcDbEntity
  8
0
  6
CONTINUOUS
 62
             7
100
AcDbCircle
 10
-214.11709720040821
 20
-5.92867617901014
 40
0.94024758529986
100
AcDbArc
 50
146.17699420316617
 51
156.88522623042115
  0
ARC
  5
5A7
100
AcDbEntity
  8
0
  6
CONTINUOUS
 62
             7
100
AcDbCircle
 10
-214.18078880275371
 20
-5.89967790729388
 40
0.87028674568725
100
AcDbArc
 50
156.99494871284733
 51
168.24369135942538
  0
ARC
  5
5A6
100
AcDbEntity
  8
0
  6
CONTINUOUS
 62
             7
100
AcDbCircle
 10
-214.2190850270145
 20
-5.89045250085613
 40
0.83091509619691
100
AcDbArc
 50
168.32844037367872
 51
179.96879778610273
  0
ARC
  5
5A5
100
AcDbEntity
  8
0
  6
CONTINUOUS
 62
             7
100
AcDbCircle
 10
-212.28239141463601
 20
-5.47544801583237
 40
1.42970628239705
100
AcDbArc
 50
-74.48673186052274
 51
-64.388497831576
  0
ARC
  5
5A4
100
AcDbEntity
  8
0
  6
CONTINUOUS
 62
             7
100
AcDbCircle
 10
-212.2236627029983
 20
-5.60231191379677
 40
1.2899221991736
100
AcDbArc
 50
-64.30496164548423
 51
-53.48907712762991
  0
ARC
  5
5A3
100
AcDbEntity
  8
0
  6
CONTINUOUS
 62
             7
100
AcDbCircle
 10
-212.14483803499601
 20
-5.71349324890568
 40
1.15366552868933
100
AcDbArc
 50
-53.35024502065647
 51
-44.02724288317971
  0
ARC
  5
5A2
100
AcDbEntity
  8
0
  6
CONTINUOUS
 62
             7
100
AcDbCircle
 10
-212.0620861601943
 20
-5.79599194302369
 40
1.03683110256755
100
AcDbArc
 50
-43.92751099758635
 51
-33.92754733946449
  0
ARC
  5
5A1
100
AcDbEntity
  8
0
  6
CONTINUOUS
 62
             7
100
AcDbCircle
 10
-211.9829027995915
 20
-5.85132382098971
 40
0.94024758530021
100
AcDbArc
 50
-33.82300579683193
 51
-23.11477376957889
  0
ARC
  5
5A0
100
AcDbEntity
  8
0
  6
CONTINUOUS
 62
             7
100
AcDbCircle
 10
-211.919211197246
 20
-5.88032209270597
 40
0.87028674568768
100
AcDbArc
 50
-23.00505128715276
 51
-11.75630864058028
  0
ARC
  5
59F
100
AcDbEntity
  8
0
  6
CONTINUOUS
 62
             7
100
AcDbCircle
 10
-211.8809149729845
 20
-5.88954749914396
 40
0.83091509619659
100
AcDbArc
 50
-11.6715596263208
 51
-0.0312022138943
  0
ARC
  5
59E
100
AcDbEntity
  8
0
  6
CONTINUOUS
 62
             7
100
AcDbCircle
 10
-211.88006329233849
 20
-5.89036521858161
 40
0.83006337268484
100
AcDbArc
 50
0.0252095016944
 51
11.67755233851955
  0
ARC
  5
59D
100
AcDbEntity
  8
0
  6
CONTINUOUS
 62
             7
100
AcDbCircle
 10
-211.91023037868879
 20
-5.89686681472617
 40
0.86092205253304
100
AcDbArc
 50
11.6949289329861
 51
23.06643099474454
  0
ARC
  5
59C
100
AcDbEntity
  8
0
  6
CONTINUOUS
 62
             7
100
AcDbCircle
 10
-211.9707610804889
 20
-5.9220922970854
 40
0.9264968334237
100
AcDbArc
 50
23.03507246124873
 51
33.90270710516471
  0
ARC
  5
59B
100
AcDbEntity
  8
0
  6
CONTINUOUS
 62
             7
100
AcDbCircle
 10
-212.04898111111501
 20
-5.97342321509461
 40
1.02005045583178
100
AcDbArc
 50
33.84507897831607
 51
44.00997935874095
  0
ARC
  5
59A
100
AcDbEntity
  8
0
  6
CONTINUOUS
 62
             7
100
AcDbCircle
 10
-212.1297174785939
 20
-6.04930220071368
 40
1.13083807011491
100
AcDbArc
 50
43.93292979081997
 51
53.44455811301179
  0
ARC
  5
599
100
AcDbEntity
  8
0
  6
CONTINUOUS
 62
             7
100
AcDbCircle
 10
-212.21252808002919
 20
-6.15923218159301
 40
1.26846517972564
100
AcDbArc
 50
53.39731819211539
 51
64.39672058099332
  0
ARC
  5
598
100
AcDbEntity
  8
0
  6
CONTINUOUS
 62
             7
100
AcDbCircle
 10
-212.27385221116049
 20
-6.28178843671556
 40
1.40548976460601
100
AcDbArc
 50
64.3012700004318
 51
74.57395969166798
  0
ARC
  5
597
100
AcDbEntity
  8
0
  6
CONTINUOUS
 62
             7
100
AcDbCircle
 10
-212.28239141463601
 20
4.68455198416763
 40
1.42970628239703
100
AcDbArc
 50
-74.4867318605225
 51
-64.38849783157599
  0
ARC
  5
596
100
AcDbEntity
  8
0
  6
CONTINUOUS
 62
             7
100
AcDbCircle
 10
-212.2236627029983
 20
4.55768808620323
 40
1.2899221991736
100
AcDbArc
 50
-64.30496164548423
 51
-53.48907712762993
  0
ARC
  5
595
100
AcDbEntity
  8
0
  6
CONTINUOUS
 62
             7
100
AcDbCircle
 10
-212.14483803499601
 20
4.44650675109432
 40
1.15366552868933
100
AcDbArc
 50
-53.35024502065648
 51
-44.02724288317969
  0
ARC
  5
594
100
AcDbEntity
  8
0
  6
CONTINUOUS
 62
             7
100
AcDbCircle
 10
-212.0620861601943
 20
4.36400805697631
 40
1.03683110256755
100
AcDbArc
 50
-43.92751099758633
 51
-33.92754733946448
  0
ARC
  5
593
100
AcDbEntity
  8
0
  6
CONTINUOUS
 62
             7
100
AcDbCircle
 10
-211.9829027995915
 20
4.3086761790103
 40
0.94024758530021
100
AcDbArc
 50
-33.82300579683195
 51
-23.11477376957891
  0
ARC
  5
592
100
AcDbEntity
  8
0
  6
CONTINUOUS
 62
             7
100
AcDbCircle
 10
-211.919211197246
 20
4.27967790729404
 40
0.87028674568768
100
AcDbArc
 50
-23.00505128715274
 51
-11.75630864058028
  0
ARC
  5
591
100
AcDbEntity
  8
0
  6
CONTINUOUS
 62
             7
100
AcDbCircle
 10
-211.8809149729845
 20
4.27045250085604
 40
0.83091509619659
100
AcDbArc
 50
-11.67155962632086
 51
-0.03120221389375
  0
ARC
  5
590
100
AcDbEntity
  8
0
  6
CONTINUOUS
 62
             7
100
AcDbCircle
 10
-214.21993670765951
 20
4.27036521858172
 40
0.83006337268623
100
AcDbArc
 50
-179.97479049829644
 51
-168.32244766149009
  0
ARC
  5
58F
100
AcDbEntity
  8
0
  6
CONTINUOUS
 62
             7
100
AcDbCircle
 10
-214.18976962131029
 20
4.27686681472625
 40
0.86092205253328
100
AcDbArc
 50
-168.30507106701049
 51
-156.93356900525441
  0
ARC
  5
58E
100
AcDbEntity
  8
0
  6
CONTINUOUS
 62
             7
100
AcDbCircle
 10
-214.1292389195111
 20
4.30209229708502
 40
0.92649683342293
100
AcDbArc
 50
-156.96492753875498
 51
-146.09729289483553
  0
ARC
  5
58D
100
AcDbEntity
  8
0
  6
CONTINUOUS
 62
             7
100
AcDbCircle
 10
-214.0510188888841
 20
4.3534232150947
 40
1.02005045583206
100
AcDbArc
 50
-146.15492102168986
 51
-135.99002064126557
  0
ARC
  5
58C
100
AcDbEntity
  8
0
  6
CONTINUOUS
 62
             7
100
AcDbCircle
 10
-213.9702825214053
 20
4.4293022007139
 40
1.13083807011522
100
AcDbArc
 50
-136.06707020917824
 51
-126.555441886989
  0
ARC
  5
58B
100
AcDbEntity
  8
0
  6
CONTINUOUS
 62
             7
100
AcDbCircle
 10
-213.8874719199701
 20
4.53923218159311
 40
1.26846517972581
100
AcDbArc
 50
-126.60268180788526
 51
-115.60327941901026
  0
ARC
  5
58A
100
AcDbEntity
  8
0
  6
CONTINUOUS
 62
             7
100
AcDbCircle
 10
-213.82614778883871
 20
4.66178843671584
 40
1.40548976460638
100
AcDbArc
 50
-115.69872999957131
 51
-105.42604030833668
  0
ARC
  5
589
100
AcDbEntity
  8
0
  6
CONTINUOUS
 62
             7
100
AcDbCircle
 10
-214.21993670765951
 20
-0.8096347814183
 40
0.83006337268623
100
AcDbArc
 50
-179.97479049829778
 51
-168.32244766149009
  0
ARC
  5
588
100
AcDbEntity
  8
0
  6
CONTINUOUS
 62
             7
100
AcDbCircle
 10
-214.18976962131029
 20
-0.80313318527381
 40
0.86092205253327
100
AcDbArc
 50
-168.30507106701327
 51
-156.93356900525964
  0
ARC
  5
587
100
AcDbEntity
  8
0
  6
CONTINUOUS
 62
             7
100
AcDbCircle
 10
-214.1292389195111
 20
-0.777907702915
 40
0.92649683342292
100
AcDbArc
 50
-156.96492753875742
 51
-146.09729289483701
  0
ARC
  5
586
100
AcDbEntity
  8
0
  6
CONTINUOUS
 62
             7
100
AcDbCircle
 10
-214.0510188888843
 20
-0.7265767849054
 40
1.02005045583183
100
AcDbArc
 50
-146.15492102168895
 51
-135.99002064126239
  0
ARC
  5
585
100
AcDbEntity
  8
0
  6
CONTINUOUS
 62
             7
100
AcDbCircle
 10
-213.97028252140541
 20
-0.65069779928621
 40
1.13083807011506
100
AcDbArc
 50
-136.06707020917835
 51
-126.55544188698782
  0
ARC
  5
584
100
AcDbEntity
  8
0
  6
CONTINUOUS
 62
             7
100
AcDbCircle
 10
-213.88747191997001
 20
-0.54076781840671
 40
1.268465179726
100
AcDbArc
 50
-126.6026818078838
 51
-115.60327941901039
  0
ARC
  5
583
100
AcDbEntity
  8
0
  6
CONTINUOUS
 62
             7
100
AcDbCircle
 10
-213.82614778883851
 20
-0.41821156328371
 40
1.40548976460686
100
AcDbArc
 50
-115.69872999957083
 51
-105.42604030833932
  0
ARC
  5
582
100
AcDbEntity
  8
0
  6
CONTINUOUS
 62
             7
100
AcDbCircle
 10
-213.8176085853629
 20
-1.22455198416891
 40
1.4297062823984
100
AcDbArc
 50
105.51326813948236
 51
115.61150216842108
  0
ARC
  5
581
100
AcDbEntity
  8
0
  6
CONTINUOUS
 62
             7
100
AcDbCircle
 10
-213.87633729700059
 20
-1.0976880862039
 40
1.2899221991744
100
AcDbArc
 50
115.69503835452534
 51
126.51092287237033
  0
ARC
  5
580
100
AcDbEntity
  8
0
  6
CONTINUOUS
 62
             7
100
AcDbCircle
 10
-213.9551619650033
 20
-0.9865067510943
 40
1.15366552868937
100
AcDbArc
 50
126.64975497934736
 51
135.97275711682627
  0
ARC
  5
57F
100
AcDbEntity
  8
0
  6
CONTINUOUS
 62
             7
100
AcDbCircle
 10
-214.0379138398047
 20
-0.90400805697661
 40
1.036831102568
100
AcDbArc
 50
136.0724890024193
 51
146.07245266053283
  0
ARC
  5
57E
100
AcDbEntity
  8
0
  6
CONTINUOUS
 62
             7
100
AcDbCircle
 10
-214.11709720040821
 20
-0.8486761790102
 40
0.94024758529991
100
AcDbArc
 50
146.17699420316112
 51
156.88522623041797
  0
ARC
  5
57D
100
AcDbEntity
  8
0
  6
CONTINUOUS
 62
             7
100
AcDbCircle
 10
-214.1807888027536
 20
-0.81967790729389
 40
0.87028674568736
100
AcDbArc
 50
156.99494871284941
 51
168.24369135942416
  0
ARC
  5
57C
100
AcDbEntity
  8
0
  6
CONTINUOUS
 62
             7
100
AcDbCircle
 10
-214.2190850270145
 20
-0.8104525008561
 40
0.83091509619691
100
AcDbArc
 50
168.32844037367872
 51
179.96879778610273
  0
ARC
  5
57B
100
AcDbEntity
  8
0
  6
CONTINUOUS
 62
             7
100
AcDbCircle
 10
-212.28239141463609
 20
-0.3954480158322
 40
1.42970628239724
100
AcDbArc
 50
-74.48673186052127
 51
-64.38849783157563
  0
ARC
  5
57A
100
AcDbEntity
  8
0
  6
CONTINUOUS
 62
             7
100
AcDbCircle
 10
-212.22366270299821
 20
-0.5223119137971
 40
1.28992219917326
100
AcDbArc
 50
-64.30496164548109
 51
-53.48907712762394
  0
ARC
  5
579
100
AcDbEntity
  8
0
  6
CONTINUOUS
 62
             7
100
AcDbCircle
 10
-212.1448380349959
 20
-0.63349324890581
 40
1.15366552868915
100
AcDbArc
 50
-53.35024502065679
 51
-44.02724288317856
  0
ARC
  5
578
100
AcDbEntity
  8
0
  6
CONTINUOUS
 62
             7
100
AcDbCircle
 10
-212.06208616019421
 20
-0.71599194302381
 40
1.0368311025674
100
AcDbArc
 50
-43.92751099758453
 51
-33.92754733946121
  0
ARC
  5
577
100
AcDbEntity
  8
0
  6
CONTINUOUS
 62
             7
100
AcDbCircle
 10
-211.98290279959139
 20
-0.77132382098971
 40
0.94024758530011
100
AcDbArc
 50
-33.82300579683502
 51
-23.11477376958082
  0
ARC
  5
576
100
AcDbEntity
  8
0
  6
CONTINUOUS
 62
             7
100
AcDbCircle
 10
-211.91921119724631
 20
-0.8003220927059
 40
0.87028674568799
100
AcDbArc
 50
-23.00505128714817
 51
-11.75630864058158
  0
ARC
  5
575
100
AcDbEntity
  8
0
  6
CONTINUOUS
 62
             7
100
AcDbCircle
 10
-211.88091497298481
 20
-0.8095474991439
 40
0.83091509619691
100
AcDbArc
 50
-11.67155962632129
 51
-0.03120221389729
  0
ARC
  5
574
100
AcDbEntity
  8
0
  6
CONTINUOUS
 62
             7
100
AcDbCircle
 10
-211.88006329233849
 20
-0.81036521858159
 40
0.83006337268484
100
AcDbArc
 50
0.0252095016944
 51
11.67755233852051
  0
ARC
  5
573
100
AcDbEntity
  8
0
  6
CONTINUOUS
 62
             7
100
AcDbCircle
 10
-211.91023037868871
 20
-0.8168668147262
 40
0.86092205253297
100
AcDbArc
 50
11.69492893299096
 51
23.06643099474851
  0
ARC
  5
572
100
AcDbEntity
  8
0
  6
CONTINUOUS
 62
             7
100
AcDbCircle
 10
-211.9707610804889
 20
-0.8420922970854
 40
0.9264968334237
100
AcDbArc
 50
23.03507246124873
 51
33.90270710516503
  0
ARC
  5
571
100
AcDbEntity
  8
0
  6
CONTINUOUS
 62
             7
100
AcDbCircle
 10
-212.0489811111151
 20
-0.8934232150946
 40
1.02005045583185
100
AcDbArc
 50
33.84507897831304
 51
44.0099793587359
  0
ARC
  5
570
100
AcDbEntity
  8
0
  6
CONTINUOUS
 62
             7
100
AcDbCircle
 10
-212.12971747859399
 20
-0.9693022007138
 40
1.13083807011503
100
AcDbArc
 50
43.93292979082008
 51
53.44455811301304
  0
ARC
  5
56F
100
AcDbEntity
  8
0
  6
CONTINUOUS
 62
             7
100
AcDbCircle
 10
-212.2125280800291
 20
-1.0792321815929
 40
1.26846517972553
100
AcDbArc
 50
53.39731819211657
 51
64.39672058099401
  0
ARC
  5
56E
100
AcDbEntity
  8
0
  6
CONTINUOUS
 62
             7
100
AcDbCircle
 10
-212.27385221116049
 20
-1.20178843671562
 40
1.40548976460604
100
AcDbArc
 50
64.30127000043228
 51
74.57395969166875
  0
ARC
  5
56D
100
AcDbEntity
  8
0
  6
CONTINUOUS
 62
             7
100
AcDbCircle
 10
-211.88006329233849
 20
4.26963478141839
 40
0.83006337268484
100
AcDbArc
 50
0.02520950169501
 51
11.67755233851955
  0
ARC
  5
56C
100
AcDbEntity
  8
0
  6
CONTINUOUS
 62
             7
100
AcDbCircle
 10
-211.91023037868879
 20
4.26313318527384
 40
0.86092205253304
100
AcDbArc
 50
11.6949289329861
 51
23.06643099474454
  0
ARC
  5
56B
100
AcDbEntity
  8
0
  6
CONTINUOUS
 62
             7
100
AcDbCircle
 10
-211.9707610804889
 20
4.2379077029146
 40
0.9264968334237
100
AcDbArc
 50
23.03507246124873
 51
33.90270710516476
  0
ARC
  5
56A
100
AcDbEntity
  8
0
  6
CONTINUOUS
 62
             7
100
AcDbCircle
 10
-212.04898111111501
 20
4.18657678490539
 40
1.02005045583178
100
AcDbArc
 50
33.84507897831612
 51
44.00997935874095
  0
ARC
  5
569
100
AcDbEntity
  8
0
  6
CONTINUOUS
 62
             7
100
AcDbCircle
 10
-212.1297174785939
 20
4.11069779928632
 40
1.13083807011491
100
AcDbArc
 50
43.93292979081997
 51
53.44455811301179
  0
ARC
  5
568
100
AcDbEntity
  8
0
  6
CONTINUOUS
 62
             7
100
AcDbCircle
 10
-212.21252808002919
 20
4.00076781840699
 40
1.26846517972564
100
AcDbArc
 50
53.39731819211539
 51
64.39672058099332
  0
ARC
  5
567
100
AcDbEntity
  8
0
  6
CONTINUOUS
 62
             7
100
AcDbCircle
 10
-212.27385221116049
 20
3.87821156328444
 40
1.40548976460601
100
AcDbArc
 50
64.30127000043179
 51
74.57395969166794
  0
ARC
  5
566
100
AcDbEntity
  8
0
  6
CONTINUOUS
 62
             7
100
AcDbCircle
 10
-213.8176085853631
 20
3.85544801583182
 40
1.42970628239763
100
AcDbArc
 50
105.51326813948266
 51
115.61150216842596
  0
ARC
  5
565
100
AcDbEntity
  8
0
  6
CONTINUOUS
 62
             7
100
AcDbCircle
 10
-213.8763372970007
 20
3.98231191379621
 40
1.28992219917427
100
AcDbArc
 50
115.69503835452244
 51
126.5109228723704
  0
ARC
  5
564
100
AcDbEntity
  8
0
  6
CONTINUOUS
 62
             7
100
AcDbCircle
 10
-213.95516196500321
 20
4.09349324890549
 40
1.15366552868956
100
AcDbArc
 50
126.64975497934569
 51
135.97275711682062
  0
ARC
  5
563
100
AcDbEntity
  8
0
  6
CONTINUOUS
 62
             7
100
AcDbCircle
 10
-214.0379138398047
 20
4.17599194302345
 40
1.03683110256798
100
AcDbArc
 50
136.07248900242044
 51
146.07245266053738
  0
ARC
  5
562
100
AcDbEntity
  8
0
  6
CONTINUOUS
 62
             7
100
AcDbCircle
 10
-214.11709720040821
 20
4.23132382098986
 40
0.94024758529986
100
AcDbArc
 50
146.17699420316617
 51
156.88522623042121
  0
ARC
  5
561
100
AcDbEntity
  8
0
  6
CONTINUOUS
 62
             7
100
AcDbCircle
 10
-214.18078880275371
 20
4.26032209270612
 40
0.87028674568725
100
AcDbArc
 50
156.99494871284733
 51
168.24369135942538
  0
ARC
  5
560
100
AcDbEntity
  8
0
  6
CONTINUOUS
 62
             7
100
AcDbCircle
 10
-214.21908502701439
 20
4.2695474991439
 40
0.83091509619702
100
AcDbArc
 50
168.32844037368184
 51
179.96879778610273
  0
ARC
  5
55F
100
AcDbEntity
  8
0
  6
CONTINUOUS
 62
             7
100
AcDbCircle
 10
-211.88006329233849
 20
-10.9703652185816
 40
0.83006337268484
100
AcDbArc
 50
0.02520950169428
 51
11.67755233852087
  0
ARC
  5
55E
100
AcDbEntity
  8
0
  6
CONTINUOUS
 62
             7
100
AcDbCircle
 10
-211.91023037868871
 20
-10.9768668147262
 40
0.86092205253297
100
AcDbArc
 50
11.69492893299119
 51
23.0664309947484
  0
ARC
  5
55D
100
AcDbEntity
  8
0
  6
CONTINUOUS
 62
             7
100
AcDbCircle
 10
-211.9707610804889
 20
-11.0020922970854
 40
0.9264968334237
100
AcDbArc
 50
23.03507246124832
 51
33.90270710516467
  0
ARC
  5
55C
100
AcDbEntity
  8
0
  6
CONTINUOUS
 62
             7
100
AcDbCircle
 10
-212.0489811111151
 20
-11.0534232150946
 40
1.02005045583185
100
AcDbArc
 50
33.84507897831279
 51
44.00997935873583
  0
ARC
  5
55B
100
AcDbEntity
  8
0
  6
CONTINUOUS
 62
             7
100
AcDbCircle
 10
-212.12971747859399
 20
-11.1293022007138
 40
1.13083807011503
100
AcDbArc
 50
43.93292979082008
 51
53.44455811301304
  0
ARC
  5
55A
100
AcDbEntity
  8
0
  6
CONTINUOUS
 62
             7
100
AcDbCircle
 10
-212.2125280800291
 20
-11.2392321815929
 40
1.26846517972553
100
AcDbArc
 50
53.39731819211652
 51
64.39672058099396
  0
ARC
  5
559
100
AcDbEntity
  8
0
  6
CONTINUOUS
 62
             7
100
AcDbCircle
 10
-212.27385221116049
 20
-11.36178843671562
 40
1.40548976460604
100
AcDbArc
 50
64.30127000043228
 51
74.57395969166862
  0
ARC
  5
558
100
AcDbEntity
  8
0
  6
CONTINUOUS
 62
             7
100
AcDbCircle
 10
-212.28239141463609
 20
-10.5554480158322
 40
1.42970628239724
100
AcDbArc
 50
-74.48673186052125
 51
-64.38849783157573
  0
ARC
  5
557
100
AcDbEntity
  8
0
  6
CONTINUOUS
 62
             7
100
AcDbCircle
 10
-212.22366270299821
 20
-10.6823119137971
 40
1.28992219917326
100
AcDbArc
 50
-64.30496164548107
 51
-53.4890771276239
  0
ARC
  5
556
100
AcDbEntity
  8
0
  6
CONTINUOUS
 62
             7
100
AcDbCircle
 10
-212.1448380349959
 20
-10.79349324890581
 40
1.15366552868915
100
AcDbArc
 50
-53.35024502065679
 51
-44.0272428831785
  0
ARC
  5
555
100
AcDbEntity
  8
0
  6
CONTINUOUS
 62
             7
100
AcDbCircle
 10
-212.06208616019421
 20
-10.87599194302381
 40
1.0368311025674
100
AcDbArc
 50
-43.92751099758452
 51
-33.92754733946138
  0
ARC
  5
554
100
AcDbEntity
  8
0
  6
CONTINUOUS
 62
             7
100
AcDbCircle
 10
-211.98290279959139
 20
-10.93132382098971
 40
0.94024758530011
100
AcDbArc
 50
-33.82300579683502
 51
-23.11477376958061
  0
ARC
  5
553
100
AcDbEntity
  8
0
  6
CONTINUOUS
 62
             7
100
AcDbCircle
 10
-211.91921119724631
 20
-10.9603220927059
 40
0.87028674568799
100
AcDbArc
 50
-23.00505128714806
 51
-11.75630864058044
  0
ARC
  5
552
100
AcDbEntity
  8
0
  6
CONTINUOUS
 62
             7
100
AcDbCircle
 10
-211.88091497298481
 20
-10.96954749914391
 40
0.83091509619691
100
AcDbArc
 50
-11.67155962631974
 51
-0.03120221389729
  0
ARC
  5
551
100
AcDbEntity
  8
0
  6
CONTINUOUS
 62
             7
100
AcDbCircle
 10
-211.88006329233849
 20
-16.05036521858161
 40
0.83006337268484
100
AcDbArc
 50
0.02520950169489
 51
11.67755233851955
  0
ARC
  5
550
100
AcDbEntity
  8
0
  6
CONTINUOUS
 62
             7
100
AcDbCircle
 10
-211.91023037868879
 20
-16.05686681472617
 40
0.86092205253304
100
AcDbArc
 50
11.6949289329861
 51
23.06643099474433
  0
ARC
  5
54F
100
AcDbEntity
  8
0
  6
CONTINUOUS
 62
             7
100
AcDbCircle
 10
-211.9707610804889
 20
-16.0820922970854
 40
0.9264968334237
100
AcDbArc
 50
23.03507246124832
 51
33.90270710516266
  0
ARC
  5
54E
100
AcDbEntity
  8
0
  6
CONTINUOUS
 62
             7
100
AcDbCircle
 10
-212.04898111111501
 20
-16.13342321509462
 40
1.02005045583177
100
AcDbArc
 50
33.84507897831454
 51
44.00997935874116
  0
ARC
  5
54D
100
AcDbEntity
  8
0
  6
CONTINUOUS
 62
             7
100
AcDbCircle
 10
-212.1297174785939
 20
-16.20930220071369
 40
1.13083807011491
100
AcDbArc
 50
43.93292979082016
 51
53.44455811301201
  0
ARC
  5
54C
100
AcDbEntity
  8
0
  6
CONTINUOUS
 62
             7
100
AcDbCircle
 10
-212.21252808002919
 20
-16.31923218159301
 40
1.26846517972564
100
AcDbArc
 50
53.3973181921153
 51
64.39672058099318
  0
ARC
  5
54B
100
AcDbEntity
  8
0
  6
CONTINUOUS
 62
             7
100
AcDbCircle
 10
-212.27385221116049
 20
-16.44178843671556
 40
1.40548976460601
100
AcDbArc
 50
64.30127000043171
 51
74.57395969166807
  0
ARC
  5
54A
100
AcDbEntity
  8
0
  6
CONTINUOUS
 62
             7
100
AcDbCircle
 10
-212.28239141463601
 20
-15.63544801583237
 40
1.42970628239705
100
AcDbArc
 50
-74.48673186052271
 51
-64.388497831576
  0
ARC
  5
549
100
AcDbEntity
  8
0
  6
CONTINUOUS
 62
             7
100
AcDbCircle
 10
-212.2236627029983
 20
-15.76231191379677
 40
1.2899221991736
100
AcDbArc
 50
-64.3049616454842
 51
-53.48907712762987
  0
ARC
  5
548
100
AcDbEntity
  8
0
  6
CONTINUOUS
 62
             7
100
AcDbCircle
 10
-212.14483803499601
 20
-15.87349324890568
 40
1.15366552868933
100
AcDbArc
 50
-53.35024502065642
 51
-44.0272428831799
  0
ARC
  5
547
100
AcDbEntity
  8
0
  6
CONTINUOUS
 62
             7
100
AcDbCircle
 10
-212.0620861601943
 20
-15.9559919430237
 40
1.03683110256755
100
AcDbArc
 50
-43.92751099758641
 51
-33.92754733946421
  0
ARC
  5
546
100
AcDbEntity
  8
0
  6
CONTINUOUS
 62
             7
100
AcDbCircle
 10
-211.9829027995915
 20
-16.01132382098971
 40
0.94024758530021
100
AcDbArc
 50
-33.8230057968317
 51
-23.11477376957849
  0
ARC
  5
545
100
AcDbEntity
  8
0
  6
CONTINUOUS
 62
             7
100
AcDbCircle
 10
-211.919211197246
 20
-16.04032209270597
 40
0.87028674568768
100
AcDbArc
 50
-23.00505128715233
 51
-11.75630864058005
  0
ARC
  5
544
100
AcDbEntity
  8
0
  6
CONTINUOUS
 62
             7
100
AcDbCircle
 10
-211.8809149729845
 20
-16.04954749914396
 40
0.83091509619659
100
AcDbArc
 50
-11.67155962632086
 51
-0.03120221389411
  0
ARC
  5
543
100
AcDbEntity
  8
0
  6
CONTINUOUS
 62
             7
100
AcDbCircle
 10
-213.8176085853629
 20
-11.38455198416891
 40
1.42970628239838
100
AcDbArc
 50
105.51326813948256
 51
115.61150216842115
  0
ARC
  5
542
100
AcDbEntity
  8
0
  6
CONTINUOUS
 62
             7
100
AcDbCircle
 10
-213.87633729700059
 20
-11.2576880862039
 40
1.2899221991744
100
AcDbArc
 50
115.69503835452544
 51
126.51092287237043
  0
ARC
  5
541
100
AcDbEntity
  8
0
  6
CONTINUOUS
 62
             7
100
AcDbCircle
 10
-213.9551619650033
 20
-11.1465067510943
 40
1.15366552868937
100
AcDbArc
 50
126.64975497934732
 51
135.97275711682622
  0
ARC
  5
540
100
AcDbEntity
  8
0
  6
CONTINUOUS
 62
             7
100
AcDbCircle
 10
-214.0379138398047
 20
-11.06400805697661
 40
1.036831102568
100
AcDbArc
 50
136.0724890024193
 51
146.072452660533
  0
ARC
  5
53F
100
AcDbEntity
  8
0
  6
CONTINUOUS
 62
             7
100
AcDbCircle
 10
-214.11709720040821
 20
-11.0086761790102
 40
0.94024758529991
100
AcDbArc
 50
146.17699420316131
 51
156.88522623041817
  0
ARC
  5
53E
100
AcDbEntity
  8
0
  6
CONTINUOUS
 62
             7
100
AcDbCircle
 10
-214.1807888027536
 20
-10.9796779072939
 40
0.87028674568736
100
AcDbArc
 50
156.99494871284941
 51
168.24369135942379
  0
ARC
  5
53D
100
AcDbEntity
  8
0
  6
CONTINUOUS
 62
             7
100
AcDbCircle
 10
-214.2190850270145
 20
-10.9704525008561
 40
0.83091509619691
100
AcDbArc
 50
168.32844037367883
 51
179.9687977861048
  0
ARC
  5
53C
100
AcDbEntity
  8
0
  6
CONTINUOUS
 62
             7
100
AcDbCircle
 10
-214.21993670765951
 20
-10.9696347814183
 40
0.83006337268623
100
AcDbArc
 50
-179.97479049829607
 51
-168.32244766149009
  0
ARC
  5
53B
100
AcDbEntity
  8
0
  6
CONTINUOUS
 62
             7
100
AcDbCircle
 10
-214.18976962131029
 20
-10.96313318527381
 40
0.86092205253327
100
AcDbArc
 50
-168.30507106701316
 51
-156.93356900525976
  0
ARC
  5
53A
100
AcDbEntity
  8
0
  6
CONTINUOUS
 62
             7
100
AcDbCircle
 10
-214.1292389195111
 20
-10.937907702915
 40
0.92649683342292
100
AcDbArc
 50
-156.96492753875731
 51
-146.09729289483673
  0
ARC
  5
539
100
AcDbEntity
  8
0
  6
CONTINUOUS
 62
             7
100
AcDbCircle
 10
-214.0510188888843
 20
-10.88657678490541
 40
1.02005045583183
100
AcDbArc
 50
-146.15492102168906
 51
-135.99002064126262
  0
ARC
  5
538
100
AcDbEntity
  8
0
  6
CONTINUOUS
 62
             7
100
AcDbCircle
 10
-213.97028252140541
 20
-10.81069779928621
 40
1.13083807011505
100
AcDbArc
 50
-136.0670702091785
 51
-126.55544188698788
  0
ARC
  5
537
100
AcDbEntity
  8
0
  6
CONTINUOUS
 62
             7
100
AcDbCircle
 10
-213.88747191997001
 20
-10.70076781840671
 40
1.268465179726
100
AcDbArc
 50
-126.60268180788384
 51
-115.60327941901022
  0
ARC
  5
536
100
AcDbEntity
  8
0
  6
CONTINUOUS
 62
             7
100
AcDbCircle
 10
-213.82614778883851
 20
-10.57821156328371
 40
1.40548976460687
100
AcDbArc
 50
-115.6987299995707
 51
-105.42604030833945
  0
ARC
  5
535
100
AcDbEntity
  8
0
  6
CONTINUOUS
 62
             7
100
AcDbCircle
 10
-213.8176085853631
 20
-16.46455198416819
 40
1.42970628239764
100
AcDbArc
 50
105.51326813948249
 51
115.61150216842594
  0
ARC
  5
534
100
AcDbEntity
  8
0
  6
CONTINUOUS
 62
             7
100
AcDbCircle
 10
-213.8763372970007
 20
-16.33768808620379
 40
1.28992219917427
100
AcDbArc
 50
115.69503835452244
 51
126.5109228723703
  0
ARC
  5
533
100
AcDbEntity
  8
0
  6
CONTINUOUS
 62
             7
100
AcDbCircle
 10
-213.95516196500321
 20
-16.22650675109451
 40
1.15366552868956
100
AcDbArc
 50
126.64975497934559
 51
135.97275711682056
  0
ARC
  5
532
100
AcDbEntity
  8
0
  6
CONTINUOUS
 62
             7
100
AcDbCircle
 10
-214.0379138398047
 20
-16.14400805697655
 40
1.03683110256798
100
AcDbArc
 50
136.0724890024205
 51
146.07245266053758
  0
ARC
  5
531
100
AcDbEntity
  8
0
  6
CONTINUOUS
 62
             7
100
AcDbCircle
 10
-214.11709720040821
 20
-16.08867617901014
 40
0.94024758529985
100
AcDbArc
 50
146.17699420316634
 51
156.88522623042155
  0
ARC
  5
530
100
AcDbEntity
  8
0
  6
CONTINUOUS
 62
             7
100
AcDbCircle
 10
-214.18078880275371
 20
-16.05967790729388
 40
0.87028674568725
100
AcDbArc
 50
156.99494871284756
 51
168.24369135942538
  0
ARC
  5
52F
100
AcDbEntity
  8
0
  6
CONTINUOUS
 62
             7
100
AcDbCircle
 10
-214.2190850270145
 20
-16.05045250085613
 40
0.83091509619691
100
AcDbArc
 50
168.32844037367872
 51
179.9687977861025
  0
ARC
  5
52E
100
AcDbEntity
  8
0
  6
CONTINUOUS
 62
             7
100
AcDbCircle
 10
-214.21993670765951
 20
-16.04963478141828
 40
0.83006337268623
100
AcDbArc
 50
-179.97479049829488
 51
-168.32244766149009
  0
ARC
  5
52D
100
AcDbEntity
  8
0
  6
CONTINUOUS
 62
             7
100
AcDbCircle
 10
-214.18976962131029
 20
-16.04313318527375
 40
0.86092205253328
100
AcDbArc
 50
-168.30507106701049
 51
-156.93356900525421
  0
ARC
  5
52C
100
AcDbEntity
  8
0
  6
CONTINUOUS
 62
             7
100
AcDbCircle
 10
-214.1292389195111
 20
-16.01790770291499
 40
0.92649683342293
100
AcDbArc
 50
-156.96492753875501
 51
-146.09729289483573
  0
ARC
  5
52B
100
AcDbEntity
  8
0
  6
CONTINUOUS
 62
             7
100
AcDbCircle
 10
-214.0510188888841
 20
-15.96657678490531
 40
1.02005045583205
100
AcDbArc
 50
-146.15492102169023
 51
-135.99002064126557
  0
ARC
  5
52A
100
AcDbEntity
  8
0
  6
CONTINUOUS
 62
             7
100
AcDbCircle
 10
-213.9702825214053
 20
-15.89069779928611
 40
1.13083807011522
100
AcDbArc
 50
-136.06707020917815
 51
-126.55544188698917
  0
ARC
  5
529
100
AcDbEntity
  8
0
  6
CONTINUOUS
 62
             7
100
AcDbCircle
 10
-213.8874719199701
 20
-15.78076781840689
 40
1.26846517972581
100
AcDbArc
 50
-126.60268180788529
 51
-115.60327941901026
  0
ARC
  5
528
100
AcDbEntity
  8
0
  6
CONTINUOUS
 62
             7
100
AcDbCircle
 10
-213.82614778883871
 20
-15.65821156328416
 40
1.40548976460638
100
AcDbArc
 50
-115.69872999957133
 51
-105.42604030833651
  0
ARC
  5
527
100
AcDbEntity
  8
0
  6
CONTINUOUS
 62
             7
100
AcDbCircle
 10
-214.2199367076594
 20
-21.12963478141828
 40
0.83006337268634
100
AcDbArc
 50
-179.97479049829462
 51
-168.32244766149023
  0
ARC
  5
526
100
AcDbEntity
  8
0
  6
CONTINUOUS
 62
             7
100
AcDbCircle
 10
-214.18976962131029
 20
-21.12313318527375
 40
0.86092205253329
100
AcDbArc
 50
-168.30507106700935
 51
-156.93356900525552
  0
ARC
  5
525
100
AcDbEntity
  8
0
  6
CONTINUOUS
 62
             7
100
AcDbCircle
 10
-214.1292389195111
 20
-21.097907702915
 40
0.92649683342292
100
AcDbArc
 50
-156.9649275387566
 51
-146.09729289483607
  0
ARC
  5
524
100
AcDbEntity
  8
0
  6
CONTINUOUS
 62
             7
100
AcDbCircle
 10
-214.0510188888841
 20
-21.04657678490533
 40
1.02005045583204
100
AcDbArc
 50
-146.15492102169102
 51
-135.99002064126671
  0
ARC
  5
523
100
AcDbEntity
  8
0
  6
CONTINUOUS
 62
             7
100
AcDbCircle
 10
-213.9702825214053
 20
-20.97069779928614
 40
1.13083807011519
100
AcDbArc
 50
-136.06707020917952
 51
-126.5554418869901
  0
ARC
  5
522
100
AcDbEntity
  8
0
  6
CONTINUOUS
 62
             7
100
AcDbCircle
 10
-213.8874719199701
 20
-20.86076781840693
 40
1.26846517972578
100
AcDbArc
 50
-126.60268180788644
 51
-115.60327941901103
  0
ARC
  5
521
100
AcDbEntity
  8
0
  6
CONTINUOUS
 62
             7
100
AcDbCircle
 10
-213.82614778883871
 20
-20.73821156328418
 40
1.40548976460636
100
AcDbArc
 50
-115.69872999957168
 51
-105.42604030833664
  0
ARC
  5
520
100
AcDbEntity
  8
0
  6
CONTINUOUS
 62
             7
100
AcDbCircle
 10
-212.28239141463609
 20
-20.71544801583229
 40
1.42970628239716
100
AcDbArc
 50
-74.48673186052037
 51
-64.38849783157434
  0
ARC
  5
51F
100
AcDbEntity
  8
0
  6
CONTINUOUS
 62
             7
100
AcDbCircle
 10
-212.2236627029983
 20
-20.84231191379677
 40
1.2899221991736
100
AcDbArc
 50
-64.30496164548423
 51
-53.48907712762982
  0
ARC
  5
51E
100
AcDbEntity
  8
0
  6
CONTINUOUS
 62
             7
100
AcDbCircle
 10
-212.1448380349959
 20
-20.95349324890584
 40
1.15366552868913
100
AcDbArc
 50
-53.35024502065615
 51
-44.02724288317741
  0
ARC
  5
51D
100
AcDbEntity
  8
0
  6
CONTINUOUS
 62
             7
100
AcDbCircle
 10
-212.0620861601943
 20
-21.03599194302368
 40
1.03683110256755
100
AcDbArc
 50
-43.92751099758635
 51
-33.9275473394651
  0
ARC
  5
51C
100
AcDbEntity
  8
0
  6
CONTINUOUS
 62
             7
100
AcDbCircle
 10
-211.98290279959139
 20
-21.09132382098974
 40
0.9402475853001
100
AcDbArc
 50
-33.82300579683412
 51
-23.11477376957962
  0
ARC
  5
51B
100
AcDbEntity
  8
0
  6
CONTINUOUS
 62
             7
100
AcDbCircle
 10
-211.91921119724631
 20
-21.12032209270588
 40
0.870286745688
100
AcDbArc
 50
-23.00505128714989
 51
-11.75630864058181
  0
ARC
  5
51A
100
AcDbEntity
  8
0
  6
CONTINUOUS
 62
             7
100
AcDbCircle
 10
-211.88091497298481
 20
-21.12954749914389
 40
0.83091509619691
100
AcDbArc
 50
-11.67155962632129
 51
-0.03120221389949
  0
ARC
  5
519
100
AcDbEntity
  8
0
  6
CONTINUOUS
 62
             7
100
AcDbCircle
 10
-211.88006329233849
 20
-21.13036521858165
 40
0.83006337268484
100
AcDbArc
 50
0.0252095016971
 51
11.67755233852219
  0
ARC
  5
518
100
AcDbEntity
  8
0
  6
CONTINUOUS
 62
             7
100
AcDbCircle
 10
-211.91023037868871
 20
-21.13686681472617
 40
0.86092205253296
100
AcDbArc
 50
11.69492893298702
 51
23.06643099474655
  0
ARC
  5
517
100
AcDbEntity
  8
0
  6
CONTINUOUS
 62
             7
100
AcDbCircle
 10
-211.9707610804889
 20
-21.16209229708537
 40
0.92649683342368
100
AcDbArc
 50
23.03507246124671
 51
33.90270710516065
  0
ARC
  5
516
100
AcDbEntity
  8
0
  6
CONTINUOUS
 62
             7
100
AcDbCircle
 10
-212.0489811111149
 20
-21.21342321509453
 40
1.02005045583162
100
AcDbArc
 50
33.84507897831346
 51
44.00997935874194
  0
ARC
  5
515
100
AcDbEntity
  8
0
  6
CONTINUOUS
 62
             7
100
AcDbCircle
 10
-212.12971747859379
 20
-21.28930220071359
 40
1.13083807011476
100
AcDbArc
 50
43.93292979082047
 51
53.44455811301352
  0
ARC
  5
514
100
AcDbEntity
  8
0
  6
CONTINUOUS
 62
             7
100
AcDbCircle
 10
-212.21252808002919
 20
-21.39923218159314
 40
1.26846517972574
100
AcDbArc
 50
53.39731819211875
 51
64.39672058099554
  0
ARC
  5
513
100
AcDbEntity
  8
0
  6
CONTINUOUS
 62
             7
100
AcDbCircle
 10
-212.2738522111606
 20
-21.52178843671576
 40
1.40548976460623
100
AcDbArc
 50
64.30127000043093
 51
74.57395969166566
  0
ARC
  5
512
100
AcDbEntity
  8
0
  6
CONTINUOUS
 62
             7
100
AcDbCircle
 10
-213.8176085853631
 20
-21.54455198416815
 40
1.4297062823976
100
AcDbArc
 50
105.51326813948297
 51
115.61150216842675
  0
ARC
  5
511
100
AcDbEntity
  8
0
  6
CONTINUOUS
 62
             7
100
AcDbCircle
 10
-213.87633729700079
 20
-21.41768808620365
 40
1.2899221991741
100
AcDbArc
 50
115.6950383545219
 51
126.51092287237101
  0
ARC
  5
510
100
AcDbEntity
  8
0
  6
CONTINUOUS
 62
             7
100
AcDbCircle
 10
-213.95516196500321
 20
-21.30650675109452
 40
1.15366552868957
100
AcDbArc
 50
126.64975497934539
 51
135.97275711682022
  0
ARC
  5
50F
100
AcDbEntity
  8
0
  6
CONTINUOUS
 62
             7
100
AcDbCircle
 10
-214.0379138398047
 20
-21.22400805697649
 40
1.03683110256794
100
AcDbArc
 50
136.07248900242283
 51
146.07245266054068
  0
ARC
  5
50E
100
AcDbEntity
  8
0
  6
CONTINUOUS
 62
             7
100
AcDbCircle
 10
-214.11709720040821
 20
-21.16867617901016
 40
0.94024758529986
100
AcDbArc
 50
146.1769942031658
 51
156.88522623042036
  0
ARC
  5
50D
100
AcDbEntity
  8
0
  6
CONTINUOUS
 62
             7
100
AcDbCircle
 10
-214.18078880275371
 20
-21.13967790729388
 40
0.87028674568725
100
AcDbArc
 50
156.99494871284756
 51
168.24369135942561
  0
ARC
  5
50C
100
AcDbEntity
  8
0
  6
CONTINUOUS
 62
             7
100
AcDbCircle
 10
-214.2190850270145
 20
-21.13045250085613
 40
0.83091509619691
100
AcDbArc
 50
168.32844037367894
 51
179.96879778610273
  0
ARC
  5
50B
100
AcDbEntity
  8
0
  6
CONTINUOUS
 62
             7
100
AcDbCircle
 10
-212.28239141463601
 20
-25.79544801583241
 40
1.42970628239701
100
AcDbArc
 50
-74.48673186052228
 51
-64.38849783157532
  0
ARC
  5
50A
100
AcDbEntity
  8
0
  6
CONTINUOUS
 62
             7
100
AcDbCircle
 10
-212.2236627029983
 20
-25.9223119137968
 40
1.28992219917357
100
AcDbArc
 50
-64.30496164548362
 51
-53.48907712762907
  0
ARC
  5
509
100
AcDbEntity
  8
0
  6
CONTINUOUS
 62
             7
100
AcDbCircle
 10
-212.14483803499601
 20
-26.03349324890569
 40
1.15366552868932
100
AcDbArc
 50
-53.35024502065615
 51
-44.0272428831792
  0
ARC
  5
508
100
AcDbEntity
  8
0
  6
CONTINUOUS
 62
             7
100
AcDbCircle
 10
-212.06208616019441
 20
-26.11599194302361
 40
1.03683110256769
100
AcDbArc
 50
-43.92751099758524
 51
-33.92754733946485
  0
ARC
  5
507
100
AcDbEntity
  8
0
  6
CONTINUOUS
 62
             7
100
AcDbCircle
 10
-211.98290279959139
 20
-26.17132382098978
 40
0.94024758530008
100
AcDbArc
 50
-33.82300579683196
 51
-23.11477376957723
  0
ARC
  5
506
100
AcDbEntity
  8
0
  6
CONTINUOUS
 62
             7
100
AcDbCircle
 10
-211.91921119724631
 20
-26.20032209270588
 40
0.870286745688
100
AcDbArc
 50
-23.00505128714989
 51
-11.75630864058181
  0
ARC
  5
505
100
AcDbEntity
  8
0
  6
CONTINUOUS
 62
             7
100
AcDbCircle
 10
-211.88091497298481
 20
-26.2095474991439
 40
0.83091509619691
100
AcDbArc
 50
-11.67155962632057
 51
-0.03120221389876
  0
ARC
  5
504
100
AcDbEntity
  8
0
  6
CONTINUOUS
 62
             7
100
AcDbCircle
 10
-211.88006329233849
 20
-26.21036521858165
 40
0.83006337268484
100
AcDbArc
 50
0.0252095016971
 51
11.67755233852219
  0
ARC
  5
503
100
AcDbEntity
  8
0
  6
CONTINUOUS
 62
             7
100
AcDbCircle
 10
-211.91023037868871
 20
-26.21686681472615
 40
0.86092205253295
100
AcDbArc
 50
11.69492893298586
 51
23.0664309947459
  0
ARC
  5
502
100
AcDbEntity
  8
0
  6
CONTINUOUS
 62
             7
100
AcDbCircle
 10
-211.9707610804889
 20
-26.24209229708537
 40
0.92649683342369
100
AcDbArc
 50
23.03507246124731
 51
33.90270710516065
  0
ARC
  5
501
100
AcDbEntity
  8
0
  6
CONTINUOUS
 62
             7
100
AcDbCircle
 10
-212.0489811111149
 20
-26.29342321509453
 40
1.02005045583162
100
AcDbArc
 50
33.84507897831346
 51
44.00997935874194
  0
ARC
  5
500
100
AcDbEntity
  8
0
  6
CONTINUOUS
 62
             7
100
AcDbCircle
 10
-212.1297174785937
 20
-26.36930220071353
 40
1.13083807011465
100
AcDbArc
 50
43.93292979082126
 51
53.44455811301528
  0
ARC
  5
4FF
100
AcDbEntity
  8
0
  6
CONTINUOUS
 62
             7
100
AcDbCircle
 10
-212.2125280800291
 20
-26.47923218159297
 40
1.26846517972556
100
AcDbArc
 50
53.39731819211734
 51
64.39672058099569
  0
ARC
  5
4FE
100
AcDbEntity
  8
0
  6
CONTINUOUS
 62
             7
100
AcDbCircle
 10
-212.2738522111606
 20
-26.60178843671564
 40
1.40548976460612
100
AcDbArc
 50
64.3012700004288
 51
74.57395969166436
  0
ARC
  5
4FD
100
AcDbEntity
  8
0
  6
CONTINUOUS
 62
             7
100
AcDbCircle
 10
-214.21993670765951
 20
-26.20963478141828
 40
0.83006337268623
100
AcDbArc
 50
-179.97479049829488
 51
-168.32244766149009
  0
ARC
  5
4FC
100
AcDbEntity
  8
0
  6
CONTINUOUS
 62
             7
100
AcDbCircle
 10
-214.18976962131021
 20
-26.20313318527374
 40
0.86092205253337
100
AcDbArc
 50
-168.30507106701094
 51
-156.93356900525708
  0
ARC
  5
4FB
100
AcDbEntity
  8
0
  6
CONTINUOUS
 62
             7
100
AcDbCircle
 10
-214.1292389195111
 20
-26.177907702915
 40
0.92649683342292
100
AcDbArc
 50
-156.9649275387568
 51
-146.09729289483627
  0
ARC
  5
4FA
100
AcDbEntity
  8
0
  6
CONTINUOUS
 62
             7
100
AcDbCircle
 10
-214.05101888888399
 20
-26.12657678490519
 40
1.02005045583221
100
AcDbArc
 50
-146.15492102168812
 51
-135.99002064126555
  0
ARC
  5
4F9
100
AcDbEntity
  8
0
  6
CONTINUOUS
 62
             7
100
AcDbCircle
 10
-213.9702825214053
 20
-26.05069779928609
 40
1.13083807011522
100
AcDbArc
 50
-136.06707020917784
 51
-126.55544188698859
  0
ARC
  5
4F8
100
AcDbEntity
  8
0
  6
CONTINUOUS
 62
             7
100
AcDbCircle
 10
-213.8874719199701
 20
-25.94076781840686
 40
1.26846517972583
100
AcDbArc
 50
-126.60268180788454
 51
-115.60327941900971
  0
ARC
  5
4F7
100
AcDbEntity
  8
0
  6
CONTINUOUS
 62
             7
100
AcDbCircle
 10
-213.8261477888386
 20
-25.81821156328396
 40
1.40548976460661
100
AcDbArc
 50
-115.69872999957197
 51
-105.42604030833881
  0
ARC
  5
4F6
100
AcDbEntity
  8
0
  6
CONTINUOUS
 62
             7
100
AcDbCircle
 10
-213.81760858536319
 20
-26.62455198416806
 40
1.42970628239749
100
AcDbArc
 50
105.51326813948067
 51
115.61150216842528
  0
ARC
  5
4F5
100
AcDbEntity
  8
0
  6
CONTINUOUS
 62
             7
100
AcDbCircle
 10
-213.87633729700079
 20
-26.49768808620356
 40
1.28992219917402
100
AcDbArc
 50
115.69503835452369
 51
126.51092287237337
  0
ARC
  5
4F4
100
AcDbEntity
  8
0
  6
CONTINUOUS
 62
             7
100
AcDbCircle
 10
-213.9551619650031
 20
-26.38650675109465
 40
1.15366552868974
100
AcDbArc
 50
126.64975497934601
 51
135.97275711681959
  0
ARC
  5
4F3
100
AcDbEntity
  8
0
  6
CONTINUOUS
 62
             7
100
AcDbCircle
 10
-214.03791383980479
 20
-26.30400805697646
 40
1.03683110256786
100
AcDbArc
 50
136.07248900242084
 51
146.07245266053951
  0
ARC
  5
4F2
100
AcDbEntity
  8
0
  6
CONTINUOUS
 62
             7
100
AcDbCircle
 10
-214.1170972004081
 20
-26.2486761790102
 40
0.94024758529998
100
AcDbArc
 50
146.17699420316765
 51
156.88522623042027
  0
ARC
  5
4F1
100
AcDbEntity
  8
0
  6
CONTINUOUS
 62
             7
100
AcDbCircle
 10
-214.18078880275371
 20
-26.21967790729388
 40
0.87028674568725
100
AcDbArc
 50
156.99494871284691
 51
168.24369135942538
  0
ARC
  5
4F0
100
AcDbEntity
  8
0
  6
CONTINUOUS
 62
             7
100
AcDbCircle
 10
-214.2190850270145
 20
-26.21045250085614
 40
0.83091509619691
100
AcDbArc
 50
168.32844037367823
 51
179.96879778610199
  0
LINE
  5
4EF
100
AcDbEntity
  8
1
  6
CONTINUOUS
 62
             7
100
AcDbLine
 10
-134.24999999999969
 20
-28.50000000000001
 11
-132.74999999999969
 21
-30.00000000000001
  0
LINE
  5
4EE
100
AcDbEntity
  8
1
  6
CONTINUOUS
 62
             7
100
AcDbLine
 10
-134.24999999999969
 20
30.0
 11
-134.24999999999969
 21
-28.50000000000001
  0
LINE
  5
4ED
100
AcDbEntity
  8
1
  6
CONTINUOUS
 62
             7
100
AcDbLine
 10
-94.24999999999969
 20
30.0
 11
-134.24999999999969
 21
30.0
  0
LINE
  5
4EC
100
AcDbEntity
  8
1
  6
CONTINUOUS
 62
             7
100
AcDbLine
 10
-94.24999999999969
 20
-30.00000000000001
 11
-94.24999999999969
 21
30.0
  0
LINE
  5
4EB
100
AcDbEntity
  8
1
  6
CONTINUOUS
 62
             7
100
AcDbLine
 10
-132.74999999999969
 20
-30.00000000000001
 11
-94.24999999999969
 21
-30.00000000000001
  0
LINE
  5
4EA
100
AcDbEntity
  8
1
  6
CONTINUOUS
 62
             7
100
AcDbLine
 10
-61.24999999999967
 20
37.5
 11
-66.5
 21
37.5
  0
LINE
  5
4E9
100
AcDbEntity
  8
1
  6
CONTINUOUS
 62
             7
100
AcDbLine
 10
-57.24999999999968
 20
25.0
 11
-61.24999999999967
 21
37.5
  0
LINE
  5
4E8
100
AcDbEntity
  8
1
  6
CONTINUOUS
 62
             7
100
AcDbLine
 10
-202.09999999999971
 20
-30.0
 11
-202.09999999999971
 21
-28.95
  0
LINE
  5
4E7
100
AcDbEntity
  8
0
  6
CONTINUOUS
 62
             7
100
AcDbLine
 10
-209.999744058153
 20
-30.0
 11
-210.19999999999979
 21
-30.0
  0
LINE
  5
4E6
100
AcDbEntity
  8
0
  6
CONTINUOUS
 62
             7
100
AcDbLine
 10
-209.74105006723889
 20
-30.0
 11
-209.8912420236239
 21
-30.0
  0
LINE
  5
4E5
100
AcDbEntity
  8
0
  6
CONTINUOUS
 62
             7
100
AcDbLine
 10
-209.08786381552559
 20
-30.0
 11
-209.31581522776921
 21
-30.0
  0
LINE
  5
4E4
100
AcDbEntity
  8
0
  6
CONTINUOUS
 62
             7
100
AcDbLine
 10
-209.31581522776921
 20
-30.0
 11
-209.46600718415431
 21
-30.0
  0
LINE
  5
4E3
100
AcDbEntity
  8
0
  6
CONTINUOUS
 62
             7
100
AcDbLine
 10
-208.77932708726149
 20
-30.0
 11
-208.95274021588611
 21
-30.0
  0
LINE
  5
4E2
100
AcDbEntity
  8
0
  6
CONTINUOUS
 62
             7
100
AcDbLine
 10
-208.95274021588611
 20
-30.0
 11
-209.08786381552559
 21
-30.0
  0
LINE
  5
4E1
100
AcDbEntity
  8
0
  6
CONTINUOUS
 62
             7
100
AcDbLine
 10
-209.46600718415431
 20
-30.0
 11
-209.74105006723889
 21
-30.0
  0
LINE
  5
4E0
100
AcDbEntity
  8
0
  6
CONTINUOUS
 62
             7
100
AcDbLine
 10
-207.5502570818459
 20
-30.0
 11
-207.65875911636749
 21
-30.0
  0
LINE
  5
4DF
100
AcDbEntity
  8
0
  6
CONTINUOUS
 62
             7
100
AcDbLine
 10
-207.65875911636749
 20
-30.0
 11
-207.80895107275271
 21
-30.0
  0
LINE
  5
4DE
100
AcDbEntity
  8
0
  6
CONTINUOUS
 62
             7
100
AcDbLine
 10
-207.80895107275271
 20
-30.0
 11
-208.03690248499629
 21
-30.0
  0
LINE
  5
4DD
100
AcDbEntity
  8
0
  6
CONTINUOUS
 62
             7
100
AcDbLine
 10
-208.03690248499629
 20
-30.0
 11
-208.17202608463569
 21
-30.0
  0
LINE
  5
4DC
100
AcDbEntity
  8
0
  6
CONTINUOUS
 62
             7
100
AcDbLine
 10
-208.17202608463569
 20
-30.0
 11
-208.34543921326039
 21
-30.0
  0
LINE
  5
4DB
100
AcDbEntity
  8
0
  6
CONTINUOUS
 62
             7
100
AcDbLine
 10
-208.34543921326039
 20
-30.0
 11
-208.56238315026101
 21
-30.0
  0
LINE
  5
4DA
100
AcDbEntity
  8
0
  6
CONTINUOUS
 62
             7
100
AcDbLine
 10
-208.56238315026101
 20
-30.0
 11
-208.77932708726149
 21
-30.0
  0
LINE
  5
4D9
100
AcDbEntity
  8
0
  6
CONTINUOUS
 62
             7
100
AcDbLine
 10
-209.8912420236239
 20
-30.0
 11
-209.999744058153
 21
-30.0
  0
LINE
  5
4D8
100
AcDbEntity
  8
0
  6
CONTINUOUS
 62
             7
100
AcDbLine
 10
-203.02999999999969
 20
-30.0
 11
-207.35000113999919
 21
-30.0
  0
LINE
  5
4D7
100
AcDbEntity
  8
0
  6
CONTINUOUS
 62
             7
100
AcDbLine
 10
-207.35000113999919
 20
-30.0
 11
-207.5502570818459
 21
-30.0
  0
LINE
  5
4D6
100
AcDbEntity
  8
0
  6
CONTINUOUS
 62
             7
100
AcDbLine
 10
-203.02999999999969
 20
-30.0
 11
-202.09999999999971
 21
-30.0
  0
LINE
  5
4D5
100
AcDbEntity
  8
0
  6
CONTINUOUS
 62
             7
100
AcDbLine
 10
-210.19999999999979
 20
-30.0
 11
-210.6999999999997
 21
-30.0
  0
LINE
  5
4D4
100
AcDbEntity
  8
1
  6
CONTINUOUS
 62
             7
100
AcDbLine
 10
-210.6999999999997
 20
-30.0
 11
-210.6999999999997
 21
-28.95
  0
LINE
  5
4D3
100
AcDbEntity
  8
1
  6
CONTINUOUS
 62
             7
100
AcDbLine
 10
-202.09999999999991
 20
7.55999999999999
 11
-202.09999999999971
 21
6.61
  0
LINE
  5
4D2
100
AcDbEntity
  8
0
  6
CONTINUOUS
 62
             7
100
AcDbLine
 10
-206.8299999999997
 20
7.55999999999999
 11
-207.03096189432301
 21
7.55999999999995
  0
LINE
  5
4D1
100
AcDbEntity
  8
0
  6
CONTINUOUS
 62
             7
100
AcDbLine
 10
-206.62903810567639
 20
7.56
 11
-206.8299999999997
 21
7.55999999999999
  0
LINE
  5
4D0
100
AcDbEntity
  8
0
  6
CONTINUOUS
 62
             7
100
AcDbLine
 10
-203.02999999999969
 20
7.55999999999995
 11
-206.62903810567639
 21
7.56
  0
LINE
  5
4CF
100
AcDbEntity
  8
0
  6
CONTINUOUS
 62
             7
100
AcDbLine
 10
-203.02999999999969
 20
7.55999999999995
 11
-202.09999999999991
 21
7.55999999999999
  0
LINE
  5
4CE
100
AcDbEntity
  8
0
  6
CONTINUOUS
 62
             7
100
AcDbLine
 10
-207.03096189432301
 20
7.55999999999995
 11
-210.69999999999979
 21
7.55999999999999
  0
LINE
  5
4CD
100
AcDbEntity
  8
1
  6
CONTINUOUS
 62
             7
100
AcDbLine
 10
-210.69999999999979
 20
7.55999999999999
 11
-210.6999999999997
 21
6.61
  0
LINE
  5
4CC
100
AcDbEntity
  8
1
  6
CONTINUOUS
 62
             7
100
AcDbLine
 10
-211.4999999999998
 20
8.00000000000001
 11
-199.99999999999969
 21
8.0
  0
LINE
  5
4CB
100
AcDbEntity
  8
1
  6
CONTINUOUS
 62
             7
100
AcDbLine
 10
-211.4999999999998
 20
8.00000000000001
 11
-211.49999999999969
 21
6.61
  0
LINE
  5
4CA
100
AcDbEntity
  8
1
  6
CONTINUOUS
 62
             7
100
AcDbLine
 10
-214.49999999999969
 20
-31.99999999999999
 11
-199.99999999999969
 21
-32.0
  0
LINE
  5
4C9
100
AcDbEntity
  8
1
  6
CONTINUOUS
 62
             7
100
AcDbLine
 10
-200.24999999999969
 20
-40.5
 11
-201.24999999999969
 21
-41.5
  0
LINE
  5
4C8
100
AcDbEntity
  8
1
  6
CONTINUOUS
 62
             7
100
AcDbLine
 10
-213.24999999999969
 20
-41.5
 11
-214.24999999999969
 21
-40.5
  0
LINE
  5
4C7
100
AcDbEntity
  8
1
  6
CONTINUOUS
 62
             7
100
AcDbLine
 10
-203.24999999999969
 20
-39.5
 11
-203.24999999999969
 21
-37.5
  0
LINE
  5
4C6
100
AcDbEntity
  8
1
  6
CONTINUOUS
 62
             7
100
AcDbLine
 10
-211.24999999999969
 20
-39.5
 11
-203.24999999999969
 21
-39.5
  0
LINE
  5
4C5
100
AcDbEntity
  8
1
  6
CONTINUOUS
 62
             7
100
AcDbLine
 10
-211.24999999999969
 20
-37.5
 11
-211.24999999999969
 21
-39.5
  0
LINE
  5
4C4
100
AcDbEntity
  8
1
  6
CONTINUOUS
 62
             7
100
AcDbLine
 10
-200.24999999999969
 20
-40.5
 11
-200.24999999999969
 21
-37.5
  0
LINE
  5
4C3
100
AcDbEntity
  8
1
  6
CONTINUOUS
 62
             7
100
AcDbLine
 10
-213.24999999999969
 20
-41.5
 11
-201.24999999999969
 21
-41.5
  0
LINE
  5
4C2
100
AcDbEntity
  8
1
  6
CONTINUOUS
 62
             7
100
AcDbLine
 10
-214.24999999999969
 20
-37.5
 11
-214.24999999999969
 21
-40.5
  0
LINE
  5
4C1
100
AcDbEntity
  8
1
  6
CONTINUOUS
 62
             7
100
AcDbLine
 10
-143.24999999999969
 20
-30.0
 11
-142.24999999999969
 21
-30.0
  0
LINE
  5
4C0
100
AcDbEntity
  8
1
  6
CONTINUOUS
 62
             7
100
AcDbLine
 10
-143.24999999999969
 20
7.55999999999998
 11
-143.24999999999969
 21
-30.0
  0
LINE
  5
4BF
100
AcDbEntity
  8
1
  6
CONTINUOUS
 62
             7
100
AcDbLine
 10
-142.24999999999969
 20
7.55999999999998
 11
-143.24999999999969
 21
7.55999999999998
  0
LINE
  5
4BE
100
AcDbEntity
  8
1
  6
CONTINUOUS
 62
             7
100
AcDbLine
 10
-61.24999999999968
 20
-41.5
 11
-61.24999999999968
 21
-18.00000000000031
  0
LINE
  5
4BD
100
AcDbEntity
  8
1
  6
CONTINUOUS
 62
             7
100
AcDbLine
 10
-59.14999999999968
 20
-33.5
 11
-59.14999999999968
 21
-34.0
  0
LINE
  5
4BC
100
AcDbEntity
  8
1
  6
CONTINUOUS
 62
             7
100
AcDbLine
 10
-59.24999999999968
 20
-15.5
 11
-57.74999999999968
 21
-15.5
  0
LINE
  5
4BB
100
AcDbEntity
  8
1
  6
CONTINUOUS
 62
             7
100
AcDbLine
 10
-59.74999999999968
 20
-16.0
 11
-59.74999999999968
 21
-17.50000000000031
  0
LINE
  5
4BA
100
AcDbEntity
  8
1
  6
CONTINUOUS
 62
             7
100
AcDbLine
 10
-59.74999999999968
 20
-17.50000000000031
 11
-60.74999999999968
 21
-17.5000000000002
  0
LINE
  5
4B9
100
AcDbEntity
  8
1
  6
CONTINUOUS
 62
             7
100
AcDbLine
 10
-57.24999999999968
 20
-16.0
 11
-57.24999999999968
 21
-41.5
  0
LINE
  5
4B8
100
AcDbEntity
  8
1
  6
CONTINUOUS
 62
             7
100
AcDbLine
 10
-57.24999999999968
 20
-41.5
 11
-61.24999999999968
 21
-41.5
  0
LINE
  5
4B7
100
AcDbEntity
  8
1
  6
CONTINUOUS
 62
             7
100
AcDbLine
 10
-57.24999999999968
 20
-16.0
 11
-57.74999999999968
 21
-15.5
  0
LINE
  5
4B6
100
AcDbEntity
  8
1
  6
CONTINUOUS
 62
             7
100
AcDbLine
 10
-59.74999999999968
 20
-16.0
 11
-59.24999999999968
 21
-15.5
  0
LINE
  5
4B5
100
AcDbEntity
  8
1
  6
CONTINUOUS
 62
             7
100
AcDbLine
 10
-57.24999999999968
 20
-34.0
 11
-59.14999999999968
 21
-34.0
  0
LINE
  5
4B4
100
AcDbEntity
  8
1
  6
CONTINUOUS
 62
             7
100
AcDbLine
 10
-57.24999999999968
 20
-26.0
 11
-61.24999999999968
 21
-25.99999999999999
  0
LINE
  5
4B3
100
AcDbEntity
  8
1
  6
CONTINUOUS
 62
             7
100
AcDbLine
 10
-61.24999999999968
 20
-18.00000000000031
 11
-60.74999999999968
 21
-17.5000000000002
  0
LINE
  5
4B2
100
AcDbEntity
  8
1
  6
CONTINUOUS
 62
             7
100
AcDbLine
 10
-61.24999999999968
 20
-40.5
 11
-57.24999999999968
 21
-40.5
  0
LINE
  5
4B1
100
AcDbEntity
  8
0
  6
CONTINUOUS
 62
             7
100
AcDbLine
 10
-58.66635177005573
 20
-8.5000294870276
 11
-58.6999990000035
 21
-8.5113159999957
  0
LINE
  5
4B0
100
AcDbEntity
  8
0
  6
CONTINUOUS
 62
             7
100
AcDbLine
 10
-58.63300483801872
 20
-8.48870046692551
 11
-58.66635177005573
 21
-8.5000294870276
  0
LINE
  5
4AF
100
AcDbEntity
  8
0
  6
CONTINUOUS
 62
             7
100
AcDbLine
 10
-58.59921594506967
 20
-6.7455618968997
 11
-58.56602440378797
 21
-6.75714081757771
  0
LINE
  5
4AE
100
AcDbEntity
  8
0
  6
CONTINUOUS
 62
             7
100
AcDbLine
 10
-58.63300483801872
 20
-6.7339315330731
 11
-58.59921594506967
 21
-6.7455618968997
  0
LINE
  5
4AD
100
AcDbEntity
  8
0
  6
CONTINUOUS
 62
             7
100
AcDbLine
 10
-58.59932731036811
 20
0.87447669240049
 11
-58.56602440378801
 21
0.8628591824222
  0
LINE
  5
4AC
100
AcDbEntity
  8
0
  6
CONTINUOUS
 62
             7
100
AcDbLine
 10
-58.63300483801872
 20
0.8860684669269
 11
-58.59932731036811
 21
0.87447669240049
  0
LINE
  5
4AB
100
AcDbEntity
  8
0
  6
CONTINUOUS
 62
             7
100
AcDbLine
 10
-58.66635286607261
 20
-4.69002985700651
 11
-58.69999900000002
 21
-4.7013159999961
  0
LINE
  5
4AA
100
AcDbEntity
  8
0
  6
CONTINUOUS
 62
             7
100
AcDbLine
 10
-58.63300483478867
 20
-4.67870046582111
 11
-58.66635286607261
 21
-4.69002985700651
  0
LINE
  5
4A9
100
AcDbEntity
  8
0
  6
CONTINUOUS
 62
             7
100
AcDbLine
 10
-58.59921609486312
 20
-2.9355618449934
 11
-58.56602440378801
 21
-2.9471408175778
  0
LINE
  5
4A8
100
AcDbEntity
  8
0
  6
CONTINUOUS
 62
             7
100
AcDbLine
 10
-58.63300483801872
 20
-2.9239315330731
 11
-58.59921609486312
 21
-2.9355618449934
  0
LINE
  5
4A7
100
AcDbEntity
  8
0
  6
CONTINUOUS
 62
             7
100
AcDbLine
 10
-58.66619274356011
 20
6.7400241966287
 11
-58.69999900000002
 21
6.72868400000391
  0
LINE
  5
4A6
100
AcDbEntity
  8
0
  6
CONTINUOUS
 62
             7
100
AcDbLine
 10
-58.63300483478867
 20
6.75129953417888
 11
-58.66619274356011
 21
6.7400241966287
  0
LINE
  5
4A5
100
AcDbEntity
  8
0
  6
CONTINUOUS
 62
             7
100
AcDbLine
 10
-58.59921796354023
 20
8.4944388025379
 11
-58.56602440378795
 21
8.48285918242232
  0
LINE
  5
4A4
100
AcDbEntity
  8
0
  6
CONTINUOUS
 62
             7
100
AcDbLine
 10
-58.63300483478867
 20
8.50606846582249
 11
-58.59921796354023
 21
8.4944388025379
  0
LINE
  5
4A3
100
AcDbEntity
  8
0
  6
CONTINUOUS
 62
             7
100
AcDbLine
 10
-58.66619271611993
 20
2.93002420589221
 11
-58.69999900000002
 21
2.91868400000391
  0
LINE
  5
4A2
100
AcDbEntity
  8
0
  6
CONTINUOUS
 62
             7
100
AcDbLine
 10
-58.63300483478867
 20
2.94129953417888
 11
-58.66619271611993
 21
2.93002420589221
  0
LINE
  5
4A1
100
AcDbEntity
  8
0
  6
CONTINUOUS
 62
             7
100
AcDbLine
 10
-58.59921600571476
 20
4.68443812411499
 11
-58.56602440378798
 21
4.6728591824222
  0
LINE
  5
4A0
100
AcDbEntity
  8
0
  6
CONTINUOUS
 62
             7
100
AcDbLine
 10
-58.63300483801872
 20
4.6960684669269
 11
-58.59921600571476
 21
4.68443812411499
  0
LINE
  5
49F
100
AcDbEntity
  8
0
  6
CONTINUOUS
 62
             7
100
AcDbLine
 10
-58.66619269922785
 20
-0.8799757884053
 11
-58.69999900000002
 21
-0.89131599999611
  0
LINE
  5
49E
100
AcDbEntity
  8
0
  6
CONTINUOUS
 62
             7
100
AcDbLine
 10
-58.63300483478867
 20
-0.86870046582111
 11
-58.66619269922785
 21
-0.8799757884053
  0
LINE
  5
49D
100
AcDbEntity
  8
0
  6
CONTINUOUS
 62
             7
100
AcDbLine
 10
-60.74999999999968
 20
-14.5000000000008
 11
-60.75000000000076
 21
-13.84999999999999
  0
LINE
  5
49C
100
AcDbEntity
  8
0
  6
CONTINUOUS
 62
             7
100
AcDbLine
 10
-60.75000000000076
 20
-13.84999999999999
 11
-60.75000000000076
 21
-11.55000000000001
  0
LINE
  5
49B
100
AcDbEntity
  8
0
  6
CONTINUOUS
 62
             7
100
AcDbLine
 10
-60.74999999999968
 20
-17.5000000000002
 11
-60.74999999999968
 21
-14.5000000000008
  0
LINE
  5
49A
100
AcDbEntity
  8
0
  6
CONTINUOUS
 62
             7
100
AcDbLine
 10
-60.75000000000076
 20
-11.55000000000001
 11
-60.75000000000076
 21
-11.05
  0
LINE
  5
499
100
AcDbEntity
  8
0
  6
CONTINUOUS
 62
             7
100
AcDbLine
 10
-58.56602440378795
 20
8.48285918242232
 11
-58.56602440378795
 21
9.33368400000069
  0
LINE
  5
498
100
AcDbEntity
  8
0
  6
CONTINUOUS
 62
             7
100
AcDbLine
 10
-58.6999990000035
 20
9.33368400000069
 11
-58.56602440378795
 21
9.33368400000069
  0
LINE
  5
497
100
AcDbEntity
  8
0
  6
CONTINUOUS
 62
             7
100
AcDbLine
 10
-54.65000000000058
 20
11.05000000000001
 11
-54.65000000000058
 21
9.0299999999998
  0
LINE
  5
496
100
AcDbEntity
  8
0
  6
CONTINUOUS
 62
             7
100
AcDbLine
 10
-54.65000000000058
 20
-9.0300000000002
 11
-58.0000000000006
 21
-9.0300000000002
  0
LINE
  5
495
100
AcDbEntity
  8
0
  6
CONTINUOUS
 62
             7
100
AcDbLine
 10
-63.66999900000365
 20
8.88368400000081
 11
-64.34999900000349
 21
9.1186840000008
  0
LINE
  5
494
100
AcDbEntity
  8
0
  6
CONTINUOUS
 62
             7
100
AcDbLine
 10
-63.66999900000365
 20
8.2286840000007
 11
-63.66999900000365
 21
8.88368400000081
  0
LINE
  5
493
100
AcDbEntity
  8
0
  6
CONTINUOUS
 62
             7
100
AcDbLine
 10
-64.34999900000349
 20
9.1186840000008
 11
-64.34999900000349
 21
6.13868400000058
  0
LINE
  5
492
100
AcDbEntity
  8
0
  6
CONTINUOUS
 62
             7
100
AcDbLine
 10
-64.34999900000349
 20
6.13868400000058
 11
-63.66999900000364
 21
6.37368400000059
  0
LINE
  5
491
100
AcDbEntity
  8
0
  6
CONTINUOUS
 62
             7
100
AcDbLine
 10
-63.66999900000365
 20
1.26368400000081
 11
-64.34999900000349
 21
1.49868400000079
  0
LINE
  5
490
100
AcDbEntity
  8
0
  6
CONTINUOUS
 62
             7
100
AcDbLine
 10
-63.66999900000365
 20
0.60868400000069
 11
-63.66999900000365
 21
1.26368400000081
  0
LINE
  5
48F
100
AcDbEntity
  8
0
  6
CONTINUOUS
 62
             7
100
AcDbLine
 10
-63.13397359621612
 20
0.40868400000068
 11
-63.46999900000365
 21
0.40868400000068
  0
LINE
  5
48E
100
AcDbEntity
  8
0
  6
CONTINUOUS
 62
             7
100
AcDbLine
 10
-63.13397359621611
 20
1.71368400000068
 11
-63.13397359621612
 21
0.40868400000068
  0
LINE
  5
48D
100
AcDbEntity
  8
0
  6
CONTINUOUS
 62
             7
100
AcDbLine
 10
-64.34999900000349
 20
1.49868400000079
 11
-64.34999900000349
 21
-1.48131599999941
  0
LINE
  5
48C
100
AcDbEntity
  8
0
  6
CONTINUOUS
 62
             7
100
AcDbLine
 10
-58.0000000000006
 20
6.72868400000431
 11
-58.0000000000006
 21
8.5286839999971
  0
LINE
  5
48B
100
AcDbEntity
  8
0
  6
CONTINUOUS
 62
             7
100
AcDbLine
 10
-58.0000000000006
 20
-9.0300000000002
 11
-58.0000000000006
 21
-8.5113159999957
  0
LINE
  5
48A
100
AcDbEntity
  8
0
  6
CONTINUOUS
 62
             7
100
AcDbLine
 10
-58.0000000000006
 20
-8.5113159999957
 11
-58.0000000000006
 21
-6.71131600000291
  0
LINE
  5
489
100
AcDbEntity
  8
0
  6
CONTINUOUS
 62
             7
100
AcDbLine
 10
-58.0000000000006
 20
-6.71131600000291
 11
-58.0000000000006
 21
6.72868400000431
  0
LINE
  5
488
100
AcDbEntity
  8
0
  6
CONTINUOUS
 62
             7
100
AcDbLine
 10
-58.0000000000006
 20
8.5286839999971
 11
-58.0000000000006
 21
9.0299999999998
  0
LINE
  5
487
100
AcDbEntity
  8
0
  6
CONTINUOUS
 62
             7
100
AcDbLine
 10
-58.0000000000006
 20
9.0299999999998
 11
-54.65000000000058
 21
9.0299999999998
  0
LINE
  5
486
100
AcDbEntity
  8
0
  6
CONTINUOUS
 62
             7
100
AcDbLine
 10
-54.65000000000058
 20
-9.0300000000002
 11
-54.65000000000058
 21
-11.05
  0
LINE
  5
485
100
AcDbEntity
  8
0
  6
CONTINUOUS
 62
             7
100
AcDbLine
 10
-54.65000000000058
 20
-11.05
 11
-60.75000000000076
 21
-11.05
  0
LINE
  5
484
100
AcDbEntity
  8
0
  6
CONTINUOUS
 62
             7
100
AcDbLine
 10
-60.75000000000076
 20
-11.05
 11
-62.15000000000076
 21
-11.05
  0
LINE
  5
483
100
AcDbEntity
  8
0
  6
CONTINUOUS
 62
             7
100
AcDbLine
 10
-63.66999900000365
 20
-7.0113159999993
 11
-63.66999900000364
 21
-8.2113159999993
  0
LINE
  5
482
100
AcDbEntity
  8
0
  6
CONTINUOUS
 62
             7
100
AcDbLine
 10
-63.66999900000365
 20
-7.0113159999993
 11
-63.66999900000365
 21
-6.3563159999992
  0
LINE
  5
481
100
AcDbEntity
  8
0
  6
CONTINUOUS
 62
             7
100
AcDbLine
 10
-63.66999900000365
 20
-6.3563159999992
 11
-64.34999900000349
 21
-6.1213159999992
  0
LINE
  5
480
100
AcDbEntity
  8
0
  6
CONTINUOUS
 62
             7
100
AcDbLine
 10
-64.34999900000349
 20
-6.1213159999992
 11
-64.34999900000349
 21
-9.1013159999994
  0
LINE
  5
47F
100
AcDbEntity
  8
0
  6
CONTINUOUS
 62
             7
100
AcDbLine
 10
-63.13397359621612
 20
-7.2113159999993
 11
-63.46999900000365
 21
-7.2113159999993
  0
LINE
  5
47E
100
AcDbEntity
  8
0
  6
CONTINUOUS
 62
             7
100
AcDbLine
 10
-62.99999900000051
 20
-8.0113159999993
 11
-63.13397359621611
 21
-8.0113159999993
  0
LINE
  5
47D
100
AcDbEntity
  8
0
  6
CONTINUOUS
 62
             7
100
AcDbLine
 10
-61.1320498075694
 20
-7.4792651924304
 11
-61.1320498075694
 21
-7.74336680756821
  0
LINE
  5
47C
100
AcDbEntity
  8
0
  6
CONTINUOUS
 62
             7
100
AcDbLine
 10
-61.39999900000052
 20
-8.0113159999993
 11
-61.1320498075694
 21
-7.74336680756821
  0
LINE
  5
47B
100
AcDbEntity
  8
0
  6
CONTINUOUS
 62
             7
100
AcDbLine
 10
-61.39999900000052
 20
-7.2113159999993
 11
-61.39999900000052
 21
-8.0113159999993
  0
LINE
  5
47A
100
AcDbEntity
  8
0
  6
CONTINUOUS
 62
             7
100
AcDbLine
 10
-61.39999900000052
 20
-8.0113159999993
 11
-60.59999900000052
 21
-8.0113159999993
  0
LINE
  5
479
100
AcDbEntity
  8
0
  6
CONTINUOUS
 62
             7
100
AcDbLine
 10
-60.37549920016068
 20
-8.11131599999931
 11
-61.62449879984037
 21
-8.11131599999931
  0
LINE
  5
478
100
AcDbEntity
  8
0
  6
CONTINUOUS
 62
             7
100
AcDbLine
 10
-61.39999900000052
 20
-7.2113159999993
 11
-61.1320498075694
 21
-7.4792651924304
  0
LINE
  5
477
100
AcDbEntity
  8
0
  6
CONTINUOUS
 62
             7
100
AcDbLine
 10
-61.39999900000052
 20
-7.2113159999993
 11
-60.59999900000052
 21
-7.2113159999993
  0
LINE
  5
476
100
AcDbEntity
  8
0
  6
CONTINUOUS
 62
             7
100
AcDbLine
 10
-60.86794819243164
 20
-7.4792651924304
 11
-60.59999900000052
 21
-7.2113159999993
  0
LINE
  5
475
100
AcDbEntity
  8
0
  6
CONTINUOUS
 62
             7
100
AcDbLine
 10
-60.59999900000052
 20
-7.2113159999993
 11
-60.59999900000052
 21
-8.0113159999993
  0
LINE
  5
474
100
AcDbEntity
  8
0
  6
CONTINUOUS
 62
             7
100
AcDbLine
 10
-61.1320498075694
 20
-7.74336680756821
 11
-60.86794819243164
 21
-7.74336680756821
  0
LINE
  5
473
100
AcDbEntity
  8
0
  6
CONTINUOUS
 62
             7
100
AcDbLine
 10
-60.86794819243164
 20
-7.4792651924304
 11
-61.1320498075694
 21
-7.4792651924304
  0
LINE
  5
472
100
AcDbEntity
  8
0
  6
CONTINUOUS
 62
             7
100
AcDbLine
 10
-60.86794819243164
 20
-7.74336680756821
 11
-60.86794819243164
 21
-7.4792651924304
  0
LINE
  5
471
100
AcDbEntity
  8
0
  6
CONTINUOUS
 62
             7
100
AcDbLine
 10
-60.86794819243164
 20
-7.74336680756821
 11
-60.59999900000052
 21
-8.0113159999993
  0
LINE
  5
470
100
AcDbEntity
  8
0
  6
CONTINUOUS
 62
             7
100
AcDbLine
 10
-58.6999990000035
 20
-8.5113159999957
 11
-58.6999990000035
 21
-9.3163159999993
  0
LINE
  5
46F
100
AcDbEntity
  8
0
  6
CONTINUOUS
 62
             7
100
AcDbLine
 10
-58.6999990000035
 20
-5.90631599999931
 11
-58.6999990000035
 21
-6.71131600000291
  0
LINE
  5
46E
100
AcDbEntity
  8
0
  6
CONTINUOUS
 62
             7
100
AcDbLine
 10
-58.56602440378797
 20
-6.75714081757771
 11
-58.56602440378795
 21
-5.90631599999931
  0
LINE
  5
46D
100
AcDbEntity
  8
0
  6
CONTINUOUS
 62
             7
100
AcDbLine
 10
-58.56602440378795
 20
-9.3163159999993
 11
-58.56602440378801
 21
-8.46549118242081
  0
LINE
  5
46C
100
AcDbEntity
  8
0
  6
CONTINUOUS
 62
             7
100
AcDbLine
 10
-63.13397359621612
 20
-9.3163159999993
 11
-62.99999900000051
 21
-9.3163159999993
  0
LINE
  5
46B
100
AcDbEntity
  8
0
  6
CONTINUOUS
 62
             7
100
AcDbLine
 10
-62.99999900000051
 20
-9.3163159999993
 11
-58.6999990000035
 21
-9.3163159999993
  0
LINE
  5
46A
100
AcDbEntity
  8
0
  6
CONTINUOUS
 62
             7
100
AcDbLine
 10
-62.99999900000051
 20
-9.3163159999993
 11
-62.99999900000051
 21
-8.0113159999993
  0
LINE
  5
469
100
AcDbEntity
  8
0
  6
CONTINUOUS
 62
             7
100
AcDbLine
 10
-62.99999900000051
 20
-7.2113159999993
 11
-63.13397359621612
 21
-7.2113159999993
  0
LINE
  5
468
100
AcDbEntity
  8
0
  6
CONTINUOUS
 62
             7
100
AcDbLine
 10
-62.99999900000051
 20
-7.2113159999993
 11
-62.99999900000051
 21
-5.90631599999931
  0
LINE
  5
467
100
AcDbEntity
  8
0
  6
CONTINUOUS
 62
             7
100
AcDbLine
 10
-63.13397359621611
 20
-8.0113159999993
 11
-63.13397359621612
 21
-9.3163159999993
  0
LINE
  5
466
100
AcDbEntity
  8
0
  6
CONTINUOUS
 62
             7
100
AcDbLine
 10
-63.13397359621612
 20
-5.90631599999931
 11
-63.13397359621612
 21
-7.2113159999993
  0
LINE
  5
465
100
AcDbEntity
  8
0
  6
CONTINUOUS
 62
             7
100
AcDbLine
 10
-58.6999990000035
 20
-9.3163159999993
 11
-58.56602440378795
 21
-9.3163159999993
  0
LINE
  5
464
100
AcDbEntity
  8
0
  6
CONTINUOUS
 62
             7
100
AcDbLine
 10
-63.13397359621612
 20
-5.90631599999931
 11
-62.99999900000051
 21
-5.90631599999931
  0
LINE
  5
463
100
AcDbEntity
  8
0
  6
CONTINUOUS
 62
             7
100
AcDbLine
 10
-62.99999900000051
 20
-5.90631599999931
 11
-58.6999990000035
 21
-5.90631599999931
  0
LINE
  5
462
100
AcDbEntity
  8
0
  6
CONTINUOUS
 62
             7
100
AcDbLine
 10
-58.6999990000035
 20
-5.90631599999931
 11
-58.56602440378795
 21
-5.90631599999931
  0
LINE
  5
461
100
AcDbEntity
  8
0
  6
CONTINUOUS
 62
             7
100
AcDbLine
 10
-63.46999900000364
 20
-8.0113159999993
 11
-63.13397359621611
 21
-8.0113159999993
  0
LINE
  5
460
100
AcDbEntity
  8
0
  6
CONTINUOUS
 62
             7
100
AcDbLine
 10
-63.66999900000364
 20
-8.8663159999994
 11
-63.66999900000364
 21
-8.2113159999993
  0
LINE
  5
45F
100
AcDbEntity
  8
0
  6
CONTINUOUS
 62
             7
100
AcDbLine
 10
-64.34999900000349
 20
-9.1013159999994
 11
-63.66999900000364
 21
-8.8663159999994
  0
LINE
  5
45E
100
AcDbEntity
  8
0
  6
CONTINUOUS
 62
             7
100
AcDbLine
 10
-63.13397359621611
 20
1.71368400000068
 11
-62.99999900000051
 21
1.71368400000068
  0
LINE
  5
45D
100
AcDbEntity
  8
0
  6
CONTINUOUS
 62
             7
100
AcDbLine
 10
-58.56602440378795
 20
1.71368400000068
 11
-58.6999990000035
 21
1.71368400000068
  0
LINE
  5
45C
100
AcDbEntity
  8
0
  6
CONTINUOUS
 62
             7
100
AcDbLine
 10
-58.6999990000035
 20
1.71368400000068
 11
-58.69999900000308
 21
0.90868399999852
  0
LINE
  5
45B
100
AcDbEntity
  8
0
  6
CONTINUOUS
 62
             7
100
AcDbLine
 10
-58.56602440378801
 20
0.8628591824222
 11
-58.56602440378795
 21
1.71368400000068
  0
LINE
  5
45A
100
AcDbEntity
  8
0
  6
CONTINUOUS
 62
             7
100
AcDbLine
 10
-62.99999900000051
 20
1.71368400000068
 11
-58.6999990000035
 21
1.71368400000068
  0
LINE
  5
459
100
AcDbEntity
  8
0
  6
CONTINUOUS
 62
             7
100
AcDbLine
 10
-62.99999900000051
 20
0.40868400000068
 11
-62.99999900000051
 21
1.71368400000068
  0
LINE
  5
458
100
AcDbEntity
  8
0
  6
CONTINUOUS
 62
             7
100
AcDbLine
 10
-63.66999900000364
 20
-4.4013159999993
 11
-63.66999900000365
 21
-3.20131599999931
  0
LINE
  5
457
100
AcDbEntity
  8
0
  6
CONTINUOUS
 62
             7
100
AcDbLine
 10
-63.66999900000365
 20
-3.20131599999931
 11
-63.66999900000365
 21
-2.54631599999921
  0
LINE
  5
456
100
AcDbEntity
  8
0
  6
CONTINUOUS
 62
             7
100
AcDbLine
 10
-64.34999900000349
 20
-2.31131599999921
 11
-64.34999900000349
 21
-5.2913159999994
  0
LINE
  5
455
100
AcDbEntity
  8
0
  6
CONTINUOUS
 62
             7
100
AcDbLine
 10
-63.13397359621612
 20
-3.4013159999993
 11
-63.46999900000365
 21
-3.4013159999993
  0
LINE
  5
454
100
AcDbEntity
  8
0
  6
CONTINUOUS
 62
             7
100
AcDbLine
 10
-62.99999900000051
 20
-4.20131599999931
 11
-63.13397359621612
 21
-4.20131599999931
  0
LINE
  5
453
100
AcDbEntity
  8
0
  6
CONTINUOUS
 62
             7
100
AcDbLine
 10
-63.13397359621612
 20
-3.4013159999993
 11
-62.99999900000051
 21
-3.4013159999993
  0
LINE
  5
452
100
AcDbEntity
  8
0
  6
CONTINUOUS
 62
             7
100
AcDbLine
 10
-62.99999900000051
 20
-5.5063159999993
 11
-62.99999900000051
 21
-4.20131599999931
  0
LINE
  5
451
100
AcDbEntity
  8
0
  6
CONTINUOUS
 62
             7
100
AcDbLine
 10
-58.69999900000002
 20
-4.7013159999961
 11
-58.6999990000035
 21
-5.5063159999993
  0
LINE
  5
450
100
AcDbEntity
  8
0
  6
CONTINUOUS
 62
             7
100
AcDbLine
 10
-63.13397359621612
 20
-4.20131599999931
 11
-63.13397359621612
 21
-5.5063159999993
  0
LINE
  5
44F
100
AcDbEntity
  8
0
  6
CONTINUOUS
 62
             7
100
AcDbLine
 10
-63.13397359621612
 20
-5.5063159999993
 11
-62.99999900000051
 21
-5.5063159999993
  0
LINE
  5
44E
100
AcDbEntity
  8
0
  6
CONTINUOUS
 62
             7
100
AcDbLine
 10
-62.99999900000051
 20
-5.5063159999993
 11
-58.6999990000035
 21
-5.5063159999993
  0
LINE
  5
44D
100
AcDbEntity
  8
0
  6
CONTINUOUS
 62
             7
100
AcDbLine
 10
-58.6999990000035
 20
-5.5063159999993
 11
-58.56602440378795
 21
-5.5063159999993
  0
LINE
  5
44C
100
AcDbEntity
  8
0
  6
CONTINUOUS
 62
             7
100
AcDbLine
 10
-61.1320498075694
 20
-3.93336680756821
 11
-60.86794819243164
 21
-3.93336680756821
  0
LINE
  5
44B
100
AcDbEntity
  8
0
  6
CONTINUOUS
 62
             7
100
AcDbLine
 10
-60.86794819243164
 20
-3.93336680756821
 11
-60.86794819243164
 21
-3.6692651924304
  0
LINE
  5
44A
100
AcDbEntity
  8
0
  6
CONTINUOUS
 62
             7
100
AcDbLine
 10
-61.39999900000052
 20
-3.4013159999993
 11
-60.59999900000052
 21
-3.4013159999993
  0
LINE
  5
449
100
AcDbEntity
  8
0
  6
CONTINUOUS
 62
             7
100
AcDbLine
 10
-60.86794819243164
 20
-3.6692651924304
 11
-60.59999900000052
 21
-3.4013159999993
  0
LINE
  5
448
100
AcDbEntity
  8
0
  6
CONTINUOUS
 62
             7
100
AcDbLine
 10
-60.86794819243164
 20
-3.6692651924304
 11
-61.1320498075694
 21
-3.6692651924304
  0
LINE
  5
447
100
AcDbEntity
  8
0
  6
CONTINUOUS
 62
             7
100
AcDbLine
 10
-60.59999900000052
 20
-3.4013159999993
 11
-60.59999900000052
 21
-4.20131599999931
  0
LINE
  5
446
100
AcDbEntity
  8
0
  6
CONTINUOUS
 62
             7
100
AcDbLine
 10
-60.86794819243164
 20
-3.93336680756821
 11
-60.59999900000052
 21
-4.20131599999931
  0
LINE
  5
445
100
AcDbEntity
  8
0
  6
CONTINUOUS
 62
             7
100
AcDbLine
 10
-61.39999900000052
 20
-4.20131599999931
 11
-60.59999900000052
 21
-4.20131599999931
  0
LINE
  5
444
100
AcDbEntity
  8
0
  6
CONTINUOUS
 62
             7
100
AcDbLine
 10
-61.39999900000052
 20
-3.4013159999993
 11
-61.1320498075694
 21
-3.6692651924304
  0
LINE
  5
443
100
AcDbEntity
  8
0
  6
CONTINUOUS
 62
             7
100
AcDbLine
 10
-61.1320498075694
 20
-3.6692651924304
 11
-61.1320498075694
 21
-3.93336680756821
  0
LINE
  5
442
100
AcDbEntity
  8
0
  6
CONTINUOUS
 62
             7
100
AcDbLine
 10
-61.39999900000052
 20
-4.20131599999931
 11
-61.39999900000052
 21
-3.4013159999993
  0
LINE
  5
441
100
AcDbEntity
  8
0
  6
CONTINUOUS
 62
             7
100
AcDbLine
 10
-61.39999900000052
 20
-4.20131599999931
 11
-61.1320498075694
 21
-3.93336680756821
  0
LINE
  5
440
100
AcDbEntity
  8
0
  6
CONTINUOUS
 62
             7
100
AcDbLine
 10
-62.99999900000051
 20
-3.4013159999993
 11
-62.99999900000051
 21
-2.0963159999993
  0
LINE
  5
43F
100
AcDbEntity
  8
0
  6
CONTINUOUS
 62
             7
100
AcDbLine
 10
-63.13397359621612
 20
-2.0963159999993
 11
-62.99999900000051
 21
-2.0963159999993
  0
LINE
  5
43E
100
AcDbEntity
  8
0
  6
CONTINUOUS
 62
             7
100
AcDbLine
 10
-62.99999900000051
 20
-2.0963159999993
 11
-58.6999990000035
 21
-2.0963159999993
  0
LINE
  5
43D
100
AcDbEntity
  8
0
  6
CONTINUOUS
 62
             7
100
AcDbLine
 10
-58.56602440378801
 20
-2.9471408175778
 11
-58.56602440378795
 21
-2.0963159999993
  0
LINE
  5
43C
100
AcDbEntity
  8
0
  6
CONTINUOUS
 62
             7
100
AcDbLine
 10
-63.13397359621612
 20
-2.0963159999993
 11
-63.13397359621612
 21
-3.4013159999993
  0
LINE
  5
43B
100
AcDbEntity
  8
0
  6
CONTINUOUS
 62
             7
100
AcDbLine
 10
-58.6999990000035
 20
-2.0963159999993
 11
-58.56602440378795
 21
-2.0963159999993
  0
LINE
  5
43A
100
AcDbEntity
  8
0
  6
CONTINUOUS
 62
             7
100
AcDbLine
 10
-58.56602440378795
 20
-5.5063159999993
 11
-58.56602440378821
 21
-4.6554911824209
  0
LINE
  5
439
100
AcDbEntity
  8
0
  6
CONTINUOUS
 62
             7
100
AcDbLine
 10
-63.46999900000364
 20
-4.20131599999931
 11
-63.13397359621612
 21
-4.20131599999931
  0
LINE
  5
438
100
AcDbEntity
  8
0
  6
CONTINUOUS
 62
             7
100
AcDbLine
 10
-63.66999900000364
 20
-5.0563159999994
 11
-63.66999900000364
 21
-4.4013159999993
  0
LINE
  5
437
100
AcDbEntity
  8
0
  6
CONTINUOUS
 62
             7
100
AcDbLine
 10
-64.34999900000349
 20
-5.2913159999994
 11
-63.66999900000364
 21
-5.0563159999994
  0
LINE
  5
436
100
AcDbEntity
  8
0
  6
CONTINUOUS
 62
             7
100
AcDbLine
 10
-63.66999900000365
 20
-2.54631599999921
 11
-64.34999900000349
 21
-2.31131599999921
  0
LINE
  5
435
100
AcDbEntity
  8
0
  6
CONTINUOUS
 62
             7
100
AcDbLine
 10
-58.6999990000035
 20
-2.0963159999993
 11
-58.6999990000035
 21
-2.90131600000291
  0
LINE
  5
434
100
AcDbEntity
  8
0
  6
CONTINUOUS
 62
             7
100
AcDbLine
 10
-58.56602440378795
 20
5.92368400000069
 11
-58.56602440378795
 21
6.7745088175792
  0
LINE
  5
433
100
AcDbEntity
  8
0
  6
CONTINUOUS
 62
             7
100
AcDbLine
 10
-58.56602440378795
 20
5.92368400000069
 11
-58.6999990000035
 21
5.92368400000069
  0
LINE
  5
432
100
AcDbEntity
  8
0
  6
CONTINUOUS
 62
             7
100
AcDbLine
 10
-63.66999900000365
 20
0.60868400000069
 11
-63.66999900000364
 21
-0.59131599999932
  0
LINE
  5
431
100
AcDbEntity
  8
0
  6
CONTINUOUS
 62
             7
100
AcDbLine
 10
-63.66999900000364
 20
-1.24631599999941
 11
-63.66999900000364
 21
-0.59131599999932
  0
LINE
  5
430
100
AcDbEntity
  8
0
  6
CONTINUOUS
 62
             7
100
AcDbLine
 10
-62.99999900000051
 20
-0.39131599999931
 11
-63.13397359621611
 21
-0.39131599999931
  0
LINE
  5
42F
100
AcDbEntity
  8
0
  6
CONTINUOUS
 62
             7
100
AcDbLine
 10
-61.39999900000052
 20
-0.39131599999931
 11
-61.39999900000052
 21
0.40868400000068
  0
LINE
  5
42E
100
AcDbEntity
  8
0
  6
CONTINUOUS
 62
             7
100
AcDbLine
 10
-61.39999900000052
 20
0.40868400000068
 11
-61.1320498075694
 21
0.1407348075696
  0
LINE
  5
42D
100
AcDbEntity
  8
0
  6
CONTINUOUS
 62
             7
100
AcDbLine
 10
-61.39999900000052
 20
0.40868400000068
 11
-60.59999900000052
 21
0.40868400000068
  0
LINE
  5
42C
100
AcDbEntity
  8
0
  6
CONTINUOUS
 62
             7
100
AcDbLine
 10
-60.86794819243164
 20
0.1407348075696
 11
-60.59999900000052
 21
0.40868400000068
  0
LINE
  5
42B
100
AcDbEntity
  8
0
  6
CONTINUOUS
 62
             7
100
AcDbLine
 10
-60.86794819243164
 20
0.1407348075696
 11
-61.1320498075694
 21
0.1407348075696
  0
LINE
  5
42A
100
AcDbEntity
  8
0
  6
CONTINUOUS
 62
             7
100
AcDbLine
 10
-60.86794819243164
 20
-0.1233668075682
 11
-60.86794819243164
 21
0.1407348075696
  0
LINE
  5
429
100
AcDbEntity
  8
0
  6
CONTINUOUS
 62
             7
100
AcDbLine
 10
-60.86794819243164
 20
-0.1233668075682
 11
-60.59999900000052
 21
-0.39131599999931
  0
LINE
  5
428
100
AcDbEntity
  8
0
  6
CONTINUOUS
 62
             7
100
AcDbLine
 10
-61.1320498075694
 20
-0.1233668075682
 11
-60.86794819243164
 21
-0.1233668075682
  0
LINE
  5
427
100
AcDbEntity
  8
0
  6
CONTINUOUS
 62
             7
100
AcDbLine
 10
-61.39999900000052
 20
-0.39131599999931
 11
-61.1320498075694
 21
-0.1233668075682
  0
LINE
  5
426
100
AcDbEntity
  8
0
  6
CONTINUOUS
 62
             7
100
AcDbLine
 10
-60.59999900000052
 20
-0.39131599999931
 11
-61.39999900000052
 21
-0.39131599999931
  0
LINE
  5
425
100
AcDbEntity
  8
0
  6
CONTINUOUS
 62
             7
100
AcDbLine
 10
-61.1320498075694
 20
0.1407348075696
 11
-61.1320498075694
 21
-0.1233668075682
  0
LINE
  5
424
100
AcDbEntity
  8
0
  6
CONTINUOUS
 62
             7
100
AcDbLine
 10
-60.59999900000052
 20
0.40868400000068
 11
-60.59999900000052
 21
-0.39131599999931
  0
LINE
  5
423
100
AcDbEntity
  8
0
  6
CONTINUOUS
 62
             7
100
AcDbLine
 10
-63.13397359621612
 20
-1.6963159999993
 11
-62.99999900000051
 21
-1.6963159999993
  0
LINE
  5
422
100
AcDbEntity
  8
0
  6
CONTINUOUS
 62
             7
100
AcDbLine
 10
-62.99999900000051
 20
-1.6963159999993
 11
-58.6999990000035
 21
-1.6963159999993
  0
LINE
  5
421
100
AcDbEntity
  8
0
  6
CONTINUOUS
 62
             7
100
AcDbLine
 10
-62.99999900000051
 20
-1.6963159999993
 11
-62.99999900000051
 21
-0.39131599999931
  0
LINE
  5
420
100
AcDbEntity
  8
0
  6
CONTINUOUS
 62
             7
100
AcDbLine
 10
-62.99999900000051
 20
0.40868400000068
 11
-63.13397359621612
 21
0.40868400000068
  0
LINE
  5
41F
100
AcDbEntity
  8
0
  6
CONTINUOUS
 62
             7
100
AcDbLine
 10
-58.69999900000002
 20
-0.89131599999611
 11
-58.6999990000035
 21
-1.6963159999993
  0
LINE
  5
41E
100
AcDbEntity
  8
0
  6
CONTINUOUS
 62
             7
100
AcDbLine
 10
-58.56602440378795
 20
-1.6963159999993
 11
-58.56602440378821
 21
-0.8454911824209
  0
LINE
  5
41D
100
AcDbEntity
  8
0
  6
CONTINUOUS
 62
             7
100
AcDbLine
 10
-63.13397359621611
 20
-0.39131599999931
 11
-63.13397359621612
 21
-1.6963159999993
  0
LINE
  5
41C
100
AcDbEntity
  8
0
  6
CONTINUOUS
 62
             7
100
AcDbLine
 10
-58.6999990000035
 20
-1.6963159999993
 11
-58.56602440378795
 21
-1.6963159999993
  0
LINE
  5
41B
100
AcDbEntity
  8
0
  6
CONTINUOUS
 62
             7
100
AcDbLine
 10
-63.46999900000364
 20
-0.39131599999931
 11
-63.13397359621611
 21
-0.39131599999931
  0
LINE
  5
41A
100
AcDbEntity
  8
0
  6
CONTINUOUS
 62
             7
100
AcDbLine
 10
-64.34999900000349
 20
-1.48131599999941
 11
-63.66999900000364
 21
-1.24631599999941
  0
LINE
  5
419
100
AcDbEntity
  8
0
  6
CONTINUOUS
 62
             7
100
AcDbLine
 10
-62.99999900000051
 20
4.21868400000068
 11
-62.99999900000051
 21
5.52368400000069
  0
LINE
  5
418
100
AcDbEntity
  8
0
  6
CONTINUOUS
 62
             7
100
AcDbLine
 10
-63.13397359621611
 20
5.52368400000069
 11
-62.99999900000051
 21
5.52368400000069
  0
LINE
  5
417
100
AcDbEntity
  8
0
  6
CONTINUOUS
 62
             7
100
AcDbLine
 10
-62.99999900000051
 20
5.52368400000069
 11
-58.6999990000035
 21
5.52368400000069
  0
LINE
  5
416
100
AcDbEntity
  8
0
  6
CONTINUOUS
 62
             7
100
AcDbLine
 10
-58.6999990000035
 20
5.52368400000069
 11
-58.56602440378795
 21
5.52368400000069
  0
LINE
  5
415
100
AcDbEntity
  8
0
  6
CONTINUOUS
 62
             7
100
AcDbLine
 10
-63.66999900000365
 20
4.4186840000007
 11
-63.66999900000365
 21
5.07368400000081
  0
LINE
  5
414
100
AcDbEntity
  8
0
  6
CONTINUOUS
 62
             7
100
AcDbLine
 10
-63.66999900000365
 20
4.4186840000007
 11
-63.66999900000364
 21
3.21868400000068
  0
LINE
  5
413
100
AcDbEntity
  8
0
  6
CONTINUOUS
 62
             7
100
AcDbLine
 10
-63.13397359621612
 20
4.21868400000068
 11
-63.46999900000365
 21
4.21868400000068
  0
LINE
  5
412
100
AcDbEntity
  8
0
  6
CONTINUOUS
 62
             7
100
AcDbLine
 10
-63.13397359621612
 20
4.21868400000068
 11
-62.99999900000051
 21
4.21868400000068
  0
LINE
  5
411
100
AcDbEntity
  8
0
  6
CONTINUOUS
 62
             7
100
AcDbLine
 10
-62.99999900000051
 20
3.41868400000069
 11
-63.13397359621611
 21
3.41868400000069
  0
LINE
  5
410
100
AcDbEntity
  8
0
  6
CONTINUOUS
 62
             7
100
AcDbLine
 10
-60.86794819243164
 20
3.6866331924318
 11
-60.86794819243164
 21
3.9507348075696
  0
LINE
  5
40F
100
AcDbEntity
  8
0
  6
CONTINUOUS
 62
             7
100
AcDbLine
 10
-61.1320498075694
 20
3.9507348075696
 11
-61.1320498075694
 21
3.6866331924318
  0
LINE
  5
40E
100
AcDbEntity
  8
0
  6
CONTINUOUS
 62
             7
100
AcDbLine
 10
-60.86794819243164
 20
3.6866331924318
 11
-60.59999900000052
 21
3.41868400000069
  0
LINE
  5
40D
100
AcDbEntity
  8
0
  6
CONTINUOUS
 62
             7
100
AcDbLine
 10
-61.1320498075694
 20
3.6866331924318
 11
-60.86794819243164
 21
3.6866331924318
  0
LINE
  5
40C
100
AcDbEntity
  8
0
  6
CONTINUOUS
 62
             7
100
AcDbLine
 10
-61.39999900000052
 20
3.41868400000069
 11
-61.1320498075694
 21
3.6866331924318
  0
LINE
  5
40B
100
AcDbEntity
  8
0
  6
CONTINUOUS
 62
             7
100
AcDbLine
 10
-61.39999900000052
 20
3.41868400000069
 11
-60.59999900000052
 21
3.41868400000069
  0
LINE
  5
40A
100
AcDbEntity
  8
0
  6
CONTINUOUS
 62
             7
100
AcDbLine
 10
-60.59999900000052
 20
3.41868400000069
 11
-60.59999900000052
 21
4.21868400000068
  0
LINE
  5
409
100
AcDbEntity
  8
0
  6
CONTINUOUS
 62
             7
100
AcDbLine
 10
-61.39999900000052
 20
4.21868400000068
 11
-61.39999900000052
 21
3.41868400000069
  0
LINE
  5
408
100
AcDbEntity
  8
0
  6
CONTINUOUS
 62
             7
100
AcDbLine
 10
-60.86794819243164
 20
3.9507348075696
 11
-61.1320498075694
 21
3.9507348075696
  0
LINE
  5
407
100
AcDbEntity
  8
0
  6
CONTINUOUS
 62
             7
100
AcDbLine
 10
-60.86794819243164
 20
3.9507348075696
 11
-60.59999900000052
 21
4.21868400000068
  0
LINE
  5
406
100
AcDbEntity
  8
0
  6
CONTINUOUS
 62
             7
100
AcDbLine
 10
-61.39999900000052
 20
4.21868400000068
 11
-60.59999900000052
 21
4.21868400000068
  0
LINE
  5
405
100
AcDbEntity
  8
0
  6
CONTINUOUS
 62
             7
100
AcDbLine
 10
-61.39999900000052
 20
4.21868400000068
 11
-61.1320498075694
 21
3.9507348075696
  0
LINE
  5
404
100
AcDbEntity
  8
0
  6
CONTINUOUS
 62
             7
100
AcDbLine
 10
-62.99999900000051
 20
2.11368400000072
 11
-62.99999900000051
 21
3.41868400000069
  0
LINE
  5
403
100
AcDbEntity
  8
0
  6
CONTINUOUS
 62
             7
100
AcDbLine
 10
-63.13397359621612
 20
2.11368400000072
 11
-62.99999900000051
 21
2.11368400000072
  0
LINE
  5
402
100
AcDbEntity
  8
0
  6
CONTINUOUS
 62
             7
100
AcDbLine
 10
-62.99999900000051
 20
2.11368400000072
 11
-58.6999990000035
 21
2.11368400000072
  0
LINE
  5
401
100
AcDbEntity
  8
0
  6
CONTINUOUS
 62
             7
100
AcDbLine
 10
-63.13397359621611
 20
3.41868400000069
 11
-63.13397359621612
 21
2.11368400000072
  0
LINE
  5
400
100
AcDbEntity
  8
0
  6
CONTINUOUS
 62
             7
100
AcDbLine
 10
-58.69999900000002
 20
2.91868400000391
 11
-58.6999990000035
 21
2.11368400000072
  0
LINE
  5
3FF
100
AcDbEntity
  8
0
  6
CONTINUOUS
 62
             7
100
AcDbLine
 10
-58.56602440378795
 20
2.11368400000072
 11
-58.56602440378821
 21
2.96450881757909
  0
LINE
  5
3FE
100
AcDbEntity
  8
0
  6
CONTINUOUS
 62
             7
100
AcDbLine
 10
-58.6999990000035
 20
2.11368400000072
 11
-58.56602440378795
 21
2.11368400000072
  0
LINE
  5
3FD
100
AcDbEntity
  8
0
  6
CONTINUOUS
 62
             7
100
AcDbLine
 10
-63.46999900000364
 20
3.41868400000069
 11
-63.13397359621611
 21
3.41868400000069
  0
LINE
  5
3FC
100
AcDbEntity
  8
0
  6
CONTINUOUS
 62
             7
100
AcDbLine
 10
-63.66999900000364
 20
2.56368400000059
 11
-63.66999900000364
 21
3.21868400000068
  0
LINE
  5
3FB
100
AcDbEntity
  8
0
  6
CONTINUOUS
 62
             7
100
AcDbLine
 10
-64.34999900000349
 20
2.32868400000058
 11
-63.66999900000364
 21
2.56368400000059
  0
LINE
  5
3FA
100
AcDbEntity
  8
0
  6
CONTINUOUS
 62
             7
100
AcDbLine
 10
-64.34999900000349
 20
5.3086840000008
 11
-64.34999900000349
 21
2.32868400000058
  0
LINE
  5
3F9
100
AcDbEntity
  8
0
  6
CONTINUOUS
 62
             7
100
AcDbLine
 10
-63.66999900000365
 20
5.07368400000081
 11
-64.34999900000349
 21
5.3086840000008
  0
LINE
  5
3F8
100
AcDbEntity
  8
0
  6
CONTINUOUS
 62
             7
100
AcDbLine
 10
-58.56602440378798
 20
4.6728591824222
 11
-58.56602440378795
 21
5.52368400000069
  0
LINE
  5
3F7
100
AcDbEntity
  8
0
  6
CONTINUOUS
 62
             7
100
AcDbLine
 10
-63.13397359621611
 20
5.52368400000069
 11
-63.13397359621612
 21
4.21868400000068
  0
LINE
  5
3F6
100
AcDbEntity
  8
0
  6
CONTINUOUS
 62
             7
100
AcDbLine
 10
-58.6999990000035
 20
5.52368400000069
 11
-58.69999900000307
 21
4.71868399999849
  0
LINE
  5
3F5
100
AcDbEntity
  8
0
  6
CONTINUOUS
 62
             7
100
AcDbLine
 10
-62.15000000000076
 20
-11.05
 11
-65.0000000000006
 21
-11.05
  0
LINE
  5
3F4
100
AcDbEntity
  8
0
  6
CONTINUOUS
 62
             7
100
AcDbLine
 10
-58.6999990000035
 20
9.33368400000069
 11
-58.69999900000002
 21
8.52868399999761
  0
LINE
  5
3F3
100
AcDbEntity
  8
0
  6
CONTINUOUS
 62
             7
100
AcDbLine
 10
-63.66999900000364
 20
6.37368400000059
 11
-63.66999900000364
 21
7.02868400000068
  0
LINE
  5
3F2
100
AcDbEntity
  8
0
  6
CONTINUOUS
 62
             7
100
AcDbLine
 10
-61.39999900000052
 20
8.02868400000068
 11
-61.1320498075694
 21
7.76073480756958
  0
LINE
  5
3F1
100
AcDbEntity
  8
0
  6
CONTINUOUS
 62
             7
100
AcDbLine
 10
-60.86794819243164
 20
7.76073480756958
 11
-60.59999900000052
 21
8.02868400000068
  0
LINE
  5
3F0
100
AcDbEntity
  8
0
  6
CONTINUOUS
 62
             7
100
AcDbLine
 10
-61.1320498075694
 20
7.76073480756958
 11
-61.1320498075694
 21
7.4966331924318
  0
LINE
  5
3EF
100
AcDbEntity
  8
0
  6
CONTINUOUS
 62
             7
100
AcDbLine
 10
-61.1320498075694
 20
7.4966331924318
 11
-60.86794819243164
 21
7.4966331924318
  0
LINE
  5
3EE
100
AcDbEntity
  8
0
  6
CONTINUOUS
 62
             7
100
AcDbLine
 10
-60.86794819243164
 20
7.4966331924318
 11
-60.86794819243164
 21
7.76073480756958
  0
LINE
  5
3ED
100
AcDbEntity
  8
0
  6
CONTINUOUS
 62
             7
100
AcDbLine
 10
-60.86794819243164
 20
7.76073480756958
 11
-61.1320498075694
 21
7.76073480756958
  0
LINE
  5
3EC
100
AcDbEntity
  8
0
  6
CONTINUOUS
 62
             7
100
AcDbLine
 10
-61.39999900000052
 20
7.2286840000007
 11
-61.39999900000052
 21
8.02868400000068
  0
LINE
  5
3EB
100
AcDbEntity
  8
0
  6
CONTINUOUS
 62
             7
100
AcDbLine
 10
-60.59999900000052
 20
8.02868400000068
 11
-60.59999900000052
 21
7.2286840000007
  0
LINE
  5
3EA
100
AcDbEntity
  8
0
  6
CONTINUOUS
 62
             7
100
AcDbLine
 10
-62.99999900000051
 20
7.2286840000007
 11
-63.13397359621612
 21
7.2286840000007
  0
LINE
  5
3E9
100
AcDbEntity
  8
0
  6
CONTINUOUS
 62
             7
100
AcDbLine
 10
-63.13397359621612
 20
7.2286840000007
 11
-63.46999900000364
 21
7.2286840000007
  0
LINE
  5
3E8
100
AcDbEntity
  8
0
  6
CONTINUOUS
 62
             7
100
AcDbLine
 10
-61.39999900000052
 20
7.2286840000007
 11
-61.1320498075694
 21
7.4966331924318
  0
LINE
  5
3E7
100
AcDbEntity
  8
0
  6
CONTINUOUS
 62
             7
100
AcDbLine
 10
-60.59999900000052
 20
8.02868400000068
 11
-61.39999900000052
 21
8.02868400000068
  0
LINE
  5
3E6
100
AcDbEntity
  8
0
  6
CONTINUOUS
 62
             7
100
AcDbLine
 10
-63.13397359621612
 20
9.33368400000069
 11
-63.13397359621612
 21
8.02868400000068
  0
LINE
  5
3E5
100
AcDbEntity
  8
0
  6
CONTINUOUS
 62
             7
100
AcDbLine
 10
-63.13397359621612
 20
8.02868400000068
 11
-62.99999900000051
 21
8.02868400000068
  0
LINE
  5
3E4
100
AcDbEntity
  8
0
  6
CONTINUOUS
 62
             7
100
AcDbLine
 10
-62.99999900000051
 20
8.02868400000068
 11
-62.99999900000051
 21
9.33368400000069
  0
LINE
  5
3E3
100
AcDbEntity
  8
0
  6
CONTINUOUS
 62
             7
100
AcDbLine
 10
-63.13397359621612
 20
9.33368400000069
 11
-62.99999900000051
 21
9.33368400000069
  0
LINE
  5
3E2
100
AcDbEntity
  8
0
  6
CONTINUOUS
 62
             7
100
AcDbLine
 10
-62.99999900000051
 20
9.33368400000069
 11
-58.6999990000035
 21
9.33368400000069
  0
LINE
  5
3E1
100
AcDbEntity
  8
0
  6
CONTINUOUS
 62
             7
100
AcDbLine
 10
-63.13397359621612
 20
8.02868400000068
 11
-63.46999900000365
 21
8.02868400000068
  0
LINE
  5
3E0
100
AcDbEntity
  8
0
  6
CONTINUOUS
 62
             7
100
AcDbLine
 10
-60.86794819243164
 20
7.4966331924318
 11
-60.59999900000052
 21
7.2286840000007
  0
LINE
  5
3DF
100
AcDbEntity
  8
0
  6
CONTINUOUS
 62
             7
100
AcDbLine
 10
-60.59999900000052
 20
7.2286840000007
 11
-61.39999900000052
 21
7.2286840000007
  0
LINE
  5
3DE
100
AcDbEntity
  8
0
  6
CONTINUOUS
 62
             7
100
AcDbLine
 10
-63.66999900000365
 20
8.2286840000007
 11
-63.66999900000364
 21
7.02868400000068
  0
LINE
  5
3DD
100
AcDbEntity
  8
0
  6
CONTINUOUS
 62
             7
100
AcDbLine
 10
-63.13397359621612
 20
7.2286840000007
 11
-63.13397359621612
 21
5.92368400000069
  0
LINE
  5
3DC
100
AcDbEntity
  8
0
  6
CONTINUOUS
 62
             7
100
AcDbLine
 10
-63.13397359621612
 20
5.92368400000069
 11
-62.99999900000051
 21
5.92368400000069
  0
LINE
  5
3DB
100
AcDbEntity
  8
0
  6
CONTINUOUS
 62
             7
100
AcDbLine
 10
-58.69999900000002
 20
6.72868400000391
 11
-58.6999990000035
 21
5.92368400000069
  0
LINE
  5
3DA
100
AcDbEntity
  8
0
  6
CONTINUOUS
 62
             7
100
AcDbLine
 10
-62.99999900000051
 20
5.92368400000069
 11
-58.6999990000035
 21
5.92368400000069
  0
LINE
  5
3D9
100
AcDbEntity
  8
0
  6
CONTINUOUS
 62
             7
100
AcDbLine
 10
-62.99999900000051
 20
5.92368400000069
 11
-62.99999900000051
 21
7.2286840000007
  0
LINE
  5
3D8
100
AcDbEntity
  8
0
  6
CONTINUOUS
 62
             7
100
AcDbLine
 10
-65.0000000000006
 20
11.05000000000001
 11
-62.15000000000076
 21
11.05000000000001
  0
LINE
  5
3D7
100
AcDbEntity
  8
0
  6
CONTINUOUS
 62
             7
100
AcDbLine
 10
-62.15000000000076
 20
11.05000000000001
 11
-60.74999999999968
 21
11.05000000000001
  0
LINE
  5
3D6
100
AcDbEntity
  8
0
  6
CONTINUOUS
 62
             7
100
AcDbLine
 10
-60.74999999999968
 20
11.05000000000001
 11
-54.65000000000058
 21
11.05000000000001
  0
LINE
  5
3D5
100
AcDbEntity
  8
0
  6
CONTINUOUS
 62
             7
100
AcDbLine
 10
-60.74999999999968
 20
11.05000000000001
 11
-60.74999999999968
 21
17.4999999999998
  0
LINE
  5
3D4
100
AcDbEntity
  8
0
  6
CONTINUOUS
 62
             7
100
AcDbLine
 10
-216.0
 20
9.095
 11
-222.59999999999999
 21
9.02000000000001
  0
LINE
  5
3D3
100
AcDbEntity
  8
0
  6
CONTINUOUS
 62
             7
100
AcDbLine
 10
-222.59999999999999
 20
-9.02000000000001
 11
-216.0
 21
-9.095
  0
LINE
  5
3D2
100
AcDbEntity
  8
0
  6
CONTINUOUS
 62
             7
100
AcDbLine
 10
-222.59999999999999
 20
-6.67131670194951
 11
-222.59999999999999
 21
-6.22
  0
LINE
  5
3D1
100
AcDbEntity
  8
0
  6
CONTINUOUS
 62
             7
100
AcDbLine
 10
-222.59999999999999
 20
-8.12
 11
-222.59999999999999
 21
-6.81999999999999
  0
LINE
  5
3D0
100
AcDbEntity
  8
0
  6
CONTINUOUS
 62
             7
100
AcDbLine
 10
-222.59999999999999
 20
-8.5686832980505
 11
-222.59999999999999
 21
-8.12
  0
LINE
  5
3CF
100
AcDbEntity
  8
0
  6
CONTINUOUS
 62
             7
100
AcDbLine
 10
-222.59999999999999
 20
-9.02000000000001
 11
-222.59999999999999
 21
-8.5686832980505
  0
LINE
  5
3CE
100
AcDbEntity
  8
0
  6
CONTINUOUS
 62
             7
100
AcDbLine
 10
-222.59999999999999
 20
-6.81999999999999
 11
-222.59999999999999
 21
-6.67131670194951
  0
LINE
  5
3CD
100
AcDbEntity
  8
0
  6
CONTINUOUS
 62
             7
100
AcDbLine
 10
-216.0
 20
-6.14500000000001
 11
-222.59999999999999
 21
-6.22
  0
LINE
  5
3CC
100
AcDbEntity
  8
0
  6
CONTINUOUS
 62
             7
100
AcDbLine
 10
-216.00000000000011
 20
-5.285
 11
-222.59999999999999
 21
-5.21000000000001
  0
LINE
  5
3CB
100
AcDbEntity
  8
0
  6
CONTINUOUS
 62
             7
100
AcDbLine
 10
-222.59999999999999
 20
-2.86131670194951
 11
-222.59999999999999
 21
-2.41
  0
LINE
  5
3CA
100
AcDbEntity
  8
0
  6
CONTINUOUS
 62
             7
100
AcDbLine
 10
-222.59999999999999
 20
-3.00999999999999
 11
-222.59999999999999
 21
-2.86131670194951
  0
LINE
  5
3C9
100
AcDbEntity
  8
0
  6
CONTINUOUS
 62
             7
100
AcDbLine
 10
-222.59999999999999
 20
-4.60999999999999
 11
-222.59999999999999
 21
-3.00999999999999
  0
LINE
  5
3C8
100
AcDbEntity
  8
0
  6
CONTINUOUS
 62
             7
100
AcDbLine
 10
-222.59999999999999
 20
-4.7586832980505
 11
-222.59999999999999
 21
-4.60999999999999
  0
LINE
  5
3C7
100
AcDbEntity
  8
0
  6
CONTINUOUS
 62
             7
100
AcDbLine
 10
-222.59999999999999
 20
-5.21000000000001
 11
-222.59999999999999
 21
-4.7586832980505
  0
LINE
  5
3C6
100
AcDbEntity
  8
0
  6
CONTINUOUS
 62
             7
100
AcDbLine
 10
-216.0
 20
-2.33500000000001
 11
-222.59999999999999
 21
-2.41
  0
LINE
  5
3C5
100
AcDbEntity
  8
0
  6
CONTINUOUS
 62
             7
100
AcDbLine
 10
-216.0
 20
-1.47499999999998
 11
-222.59999999999999
 21
-1.40000000000001
  0
LINE
  5
3C4
100
AcDbEntity
  8
0
  6
CONTINUOUS
 62
             7
100
AcDbLine
 10
-222.59999999999999
 20
-0.9486832980505
 11
-222.59999999999999
 21
-1.40000000000001
  0
LINE
  5
3C3
100
AcDbEntity
  8
0
  6
CONTINUOUS
 62
             7
100
AcDbLine
 10
-216.0
 20
1.47499999999999
 11
-222.59999999999999
 21
1.40000000000002
  0
LINE
  5
3C2
100
AcDbEntity
  8
0
  6
CONTINUOUS
 62
             7
100
AcDbLine
 10
-220.0
 20
0.30000000000001
 11
-220.0
 21
0.40000000000001
  0
LINE
  5
3C1
100
AcDbEntity
  8
0
  6
CONTINUOUS
 62
             7
100
AcDbLine
 10
-220.0
 20
-0.30000000000001
 11
-220.0
 21
0.30000000000001
  0
LINE
  5
3C0
100
AcDbEntity
  8
0
  6
CONTINUOUS
 62
             7
100
AcDbLine
 10
-220.0
 20
-0.40000000000001
 11
-220.0
 21
-0.30000000000001
  0
LINE
  5
3BF
100
AcDbEntity
  8
0
  6
CONTINUOUS
 62
             7
100
AcDbLine
 10
-220.0
 20
-0.40000000000001
 11
-222.34999999999999
 21
-0.40000000000001
  0
LINE
  5
3BE
100
AcDbEntity
  8
0
  6
CONTINUOUS
 62
             7
100
AcDbLine
 10
-222.59999999999999
 20
0.80000000000001
 11
-222.59999999999999
 21
-0.80000000000001
  0
LINE
  5
3BD
100
AcDbEntity
  8
0
  6
CONTINUOUS
 62
             7
100
AcDbLine
 10
-222.59999999999999
 20
0.9486832980505
 11
-222.59999999999999
 21
0.80000000000001
  0
LINE
  5
3BC
100
AcDbEntity
  8
0
  6
CONTINUOUS
 62
             7
100
AcDbLine
 10
-222.59999999999999
 20
1.40000000000002
 11
-222.59999999999999
 21
0.9486832980505
  0
LINE
  5
3BB
100
AcDbEntity
  8
0
  6
CONTINUOUS
 62
             7
100
AcDbLine
 10
-222.34999999999999
 20
0.40000000000001
 11
-220.0
 21
0.40000000000001
  0
LINE
  5
3BA
100
AcDbEntity
  8
0
  6
CONTINUOUS
 62
             7
100
AcDbLine
 10
-222.34999999999999
 20
-0.30000000000001
 11
-222.34999999999999
 21
-0.40000000000001
  0
LINE
  5
3B9
100
AcDbEntity
  8
0
  6
CONTINUOUS
 62
             7
100
AcDbLine
 10
-222.34999999999999
 20
0.30000000000001
 11
-222.34999999999999
 21
-0.30000000000001
  0
LINE
  5
3B8
100
AcDbEntity
  8
0
  6
CONTINUOUS
 62
             7
100
AcDbLine
 10
-222.34999999999999
 20
0.40000000000001
 11
-222.34999999999999
 21
0.30000000000001
  0
LINE
  5
3B7
100
AcDbEntity
  8
0
  6
CONTINUOUS
 62
             7
100
AcDbLine
 10
-222.59999999999999
 20
-0.80000000000001
 11
-222.59999999999999
 21
-0.9486832980505
  0
LINE
  5
3B6
100
AcDbEntity
  8
0
  6
CONTINUOUS
 62
             7
100
AcDbLine
 10
-222.34999999999999
 20
-4.10999999999999
 11
-222.34999999999999
 21
-4.21000000000001
  0
LINE
  5
3B5
100
AcDbEntity
  8
0
  6
CONTINUOUS
 62
             7
100
AcDbLine
 10
-222.34999999999999
 20
-3.50999999999999
 11
-222.34999999999999
 21
-4.10999999999999
  0
LINE
  5
3B4
100
AcDbEntity
  8
0
  6
CONTINUOUS
 62
             7
100
AcDbLine
 10
-222.34999999999999
 20
-3.41
 11
-222.34999999999999
 21
-3.50999999999999
  0
LINE
  5
3B3
100
AcDbEntity
  8
0
  6
CONTINUOUS
 62
             7
100
AcDbLine
 10
-220.0
 20
-4.21000000000001
 11
-222.34999999999999
 21
-4.21000000000001
  0
LINE
  5
3B2
100
AcDbEntity
  8
0
  6
CONTINUOUS
 62
             7
100
AcDbLine
 10
-220.0
 20
-3.50999999999999
 11
-220.0
 21
-3.41
  0
LINE
  5
3B1
100
AcDbEntity
  8
0
  6
CONTINUOUS
 62
             7
100
AcDbLine
 10
-220.0
 20
-4.10999999999999
 11
-220.0
 21
-3.50999999999999
  0
LINE
  5
3B0
100
AcDbEntity
  8
0
  6
CONTINUOUS
 62
             7
100
AcDbLine
 10
-220.0
 20
-4.21000000000001
 11
-220.0
 21
-4.10999999999999
  0
LINE
  5
3AF
100
AcDbEntity
  8
0
  6
CONTINUOUS
 62
             7
100
AcDbLine
 10
-222.34999999999999
 20
-3.41
 11
-220.0
 21
-3.41
  0
LINE
  5
3AE
100
AcDbEntity
  8
0
  6
CONTINUOUS
 62
             7
100
AcDbLine
 10
-222.34999999999999
 20
-7.31999999999999
 11
-222.34999999999999
 21
-7.22
  0
LINE
  5
3AD
100
AcDbEntity
  8
0
  6
CONTINUOUS
 62
             7
100
AcDbLine
 10
-220.0
 20
-7.31999999999999
 11
-220.0
 21
-7.22
  0
LINE
  5
3AC
100
AcDbEntity
  8
0
  6
CONTINUOUS
 62
             7
100
AcDbLine
 10
-220.0
 20
-7.22
 11
-222.34999999999999
 21
-7.22
  0
LINE
  5
3AB
100
AcDbEntity
  8
0
  6
CONTINUOUS
 62
             7
100
AcDbLine
 10
-220.0
 20
-7.91999999999999
 11
-220.0
 21
-7.31999999999999
  0
LINE
  5
3AA
100
AcDbEntity
  8
0
  6
CONTINUOUS
 62
             7
100
AcDbLine
 10
-220.0
 20
-8.02000000000001
 11
-220.0
 21
-7.91999999999999
  0
LINE
  5
3A9
100
AcDbEntity
  8
0
  6
CONTINUOUS
 62
             7
100
AcDbLine
 10
-220.0
 20
-8.02000000000001
 11
-222.34999999999999
 21
-8.02000000000001
  0
LINE
  5
3A8
100
AcDbEntity
  8
0
  6
CONTINUOUS
 62
             7
100
AcDbLine
 10
-222.34999999999999
 20
-7.91999999999999
 11
-222.34999999999999
 21
-8.02000000000001
  0
LINE
  5
3A7
100
AcDbEntity
  8
0
  6
CONTINUOUS
 62
             7
100
AcDbLine
 10
-222.34999999999999
 20
-7.31999999999999
 11
-222.34999999999999
 21
-7.91999999999999
  0
LINE
  5
3A6
100
AcDbEntity
  8
0
  6
CONTINUOUS
 62
             7
100
AcDbLine
 10
-216.0
 20
6.14500000000001
 11
-222.59999999999999
 21
6.22
  0
LINE
  5
3A5
100
AcDbEntity
  8
0
  6
CONTINUOUS
 62
             7
100
AcDbLine
 10
-216.0
 20
5.285
 11
-222.59999999999999
 21
5.21000000000001
  0
LINE
  5
3A4
100
AcDbEntity
  8
0
  6
CONTINUOUS
 62
             7
100
AcDbLine
 10
-216.0
 20
2.33500000000001
 11
-222.59999999999999
 21
2.41000000000001
  0
LINE
  5
3A3
100
AcDbEntity
  8
0
  6
CONTINUOUS
 62
             7
100
AcDbLine
 10
-220.0
 20
4.11000000000001
 11
-220.0
 21
4.21000000000001
  0
LINE
  5
3A2
100
AcDbEntity
  8
0
  6
CONTINUOUS
 62
             7
100
AcDbLine
 10
-222.34999999999999
 20
4.21000000000001
 11
-220.0
 21
4.21000000000001
  0
LINE
  5
3A1
100
AcDbEntity
  8
0
  6
CONTINUOUS
 62
             7
100
AcDbLine
 10
-220.0
 20
3.50999999999999
 11
-220.0
 21
4.11000000000001
  0
LINE
  5
3A0
100
AcDbEntity
  8
0
  6
CONTINUOUS
 62
             7
100
AcDbLine
 10
-220.0
 20
3.41000000000001
 11
-220.0
 21
3.50999999999999
  0
LINE
  5
39F
100
AcDbEntity
  8
0
  6
CONTINUOUS
 62
             7
100
AcDbLine
 10
-220.0
 20
3.41000000000001
 11
-222.34999999999999
 21
3.41000000000001
  0
LINE
  5
39E
100
AcDbEntity
  8
0
  6
CONTINUOUS
 62
             7
100
AcDbLine
 10
-222.34999999999999
 20
3.50999999999999
 11
-222.34999999999999
 21
3.41000000000001
  0
LINE
  5
39D
100
AcDbEntity
  8
0
  6
CONTINUOUS
 62
             7
100
AcDbLine
 10
-222.34999999999999
 20
4.11000000000001
 11
-222.34999999999999
 21
3.50999999999999
  0
LINE
  5
39C
100
AcDbEntity
  8
0
  6
CONTINUOUS
 62
             7
100
AcDbLine
 10
-222.34999999999999
 20
4.21000000000001
 11
-222.34999999999999
 21
4.11000000000001
  0
LINE
  5
39B
100
AcDbEntity
  8
0
  6
CONTINUOUS
 62
             7
100
AcDbLine
 10
-222.59999999999999
 20
2.86131670194951
 11
-222.59999999999999
 21
2.41000000000001
  0
LINE
  5
39A
100
AcDbEntity
  8
0
  6
CONTINUOUS
 62
             7
100
AcDbLine
 10
-222.59999999999999
 20
4.61000000000001
 11
-222.59999999999999
 21
3.00999999999999
  0
LINE
  5
399
100
AcDbEntity
  8
0
  6
CONTINUOUS
 62
             7
100
AcDbLine
 10
-222.59999999999999
 20
4.75868329805051
 11
-222.59999999999999
 21
4.61000000000001
  0
LINE
  5
398
100
AcDbEntity
  8
0
  6
CONTINUOUS
 62
             7
100
AcDbLine
 10
-222.59999999999999
 20
5.21000000000001
 11
-222.59999999999999
 21
4.75868329805051
  0
LINE
  5
397
100
AcDbEntity
  8
0
  6
CONTINUOUS
 62
             7
100
AcDbLine
 10
-222.59999999999999
 20
3.00999999999999
 11
-222.59999999999999
 21
2.86131670194951
  0
LINE
  5
396
100
AcDbEntity
  8
0
  6
CONTINUOUS
 62
             7
100
AcDbLine
 10
-222.34999999999999
 20
8.02000000000001
 11
-220.0
 21
8.02000000000001
  0
LINE
  5
395
100
AcDbEntity
  8
0
  6
CONTINUOUS
 62
             7
100
AcDbLine
 10
-222.34999999999999
 20
7.31999999999999
 11
-222.34999999999999
 21
7.22
  0
LINE
  5
394
100
AcDbEntity
  8
0
  6
CONTINUOUS
 62
             7
100
AcDbLine
 10
-220.0
 20
7.22
 11
-222.34999999999999
 21
7.22
  0
LINE
  5
393
100
AcDbEntity
  8
0
  6
CONTINUOUS
 62
             7
100
AcDbLine
 10
-220.0
 20
7.91999999999999
 11
-220.0
 21
8.02000000000001
  0
LINE
  5
392
100
AcDbEntity
  8
0
  6
CONTINUOUS
 62
             7
100
AcDbLine
 10
-220.0
 20
7.31999999999999
 11
-220.0
 21
7.91999999999999
  0
LINE
  5
391
100
AcDbEntity
  8
0
  6
CONTINUOUS
 62
             7
100
AcDbLine
 10
-220.0
 20
7.22
 11
-220.0
 21
7.31999999999999
  0
LINE
  5
390
100
AcDbEntity
  8
0
  6
CONTINUOUS
 62
             7
100
AcDbLine
 10
-222.34999999999999
 20
7.91999999999999
 11
-222.34999999999999
 21
7.31999999999999
  0
LINE
  5
38F
100
AcDbEntity
  8
0
  6
CONTINUOUS
 62
             7
100
AcDbLine
 10
-222.34999999999999
 20
8.02000000000001
 11
-222.34999999999999
 21
7.91999999999999
  0
LINE
  5
38E
100
AcDbEntity
  8
0
  6
CONTINUOUS
 62
             7
100
AcDbLine
 10
-222.59999999999999
 20
6.81999999999999
 11
-222.59999999999999
 21
6.67131670194951
  0
LINE
  5
38D
100
AcDbEntity
  8
0
  6
CONTINUOUS
 62
             7
100
AcDbLine
 10
-222.59999999999999
 20
6.67131670194951
 11
-222.59999999999999
 21
6.22
  0
LINE
  5
38C
100
AcDbEntity
  8
0
  6
CONTINUOUS
 62
             7
100
AcDbLine
 10
-222.59999999999999
 20
8.41999999999999
 11
-222.59999999999999
 21
6.81999999999999
  0
LINE
  5
38B
100
AcDbEntity
  8
0
  6
CONTINUOUS
 62
             7
100
AcDbLine
 10
-222.59999999999999
 20
8.5686832980505
 11
-222.59999999999999
 21
8.41999999999999
  0
LINE
  5
38A
100
AcDbEntity
  8
0
  6
CONTINUOUS
 62
             7
100
AcDbLine
 10
-222.59999999999999
 20
9.02000000000001
 11
-222.59999999999999
 21
8.5686832980505
  0
LINE
  5
389
100
AcDbEntity
  8
1
  6
CONTINUOUS
 62
             7
100
AcDbLine
 10
-205.9499999999997
 20
21.2
 11
-207.74999999999969
 21
21.2
  0
LINE
  5
388
100
AcDbEntity
  8
1
  6
CONTINUOUS
 62
             7
100
AcDbLine
 10
-205.9499999999997
 20
20.90000000000001
 11
-205.9499999999997
 21
21.2
  0
LINE
  5
387
100
AcDbEntity
  8
1
  6
CONTINUOUS
 62
             7
100
AcDbLine
 10
-205.34999999999971
 20
21.5
 11
-205.9499999999997
 21
20.90000000000001
  0
LINE
  5
386
100
AcDbEntity
  8
1
  6
CONTINUOUS
 62
             7
100
AcDbLine
 10
-205.9499999999997
 20
22.09999999999999
 11
-205.34999999999971
 21
21.5
  0
LINE
  5
385
100
AcDbEntity
  8
1
  6
CONTINUOUS
 62
             7
100
AcDbLine
 10
-205.9499999999997
 20
21.8
 11
-205.9499999999997
 21
22.09999999999999
  0
LINE
  5
384
100
AcDbEntity
  8
1
  6
CONTINUOUS
 62
             7
100
AcDbLine
 10
-207.74999999999969
 20
21.8
 11
-205.9499999999997
 21
21.8
  0
LINE
  5
383
100
AcDbEntity
  8
1
  6
CONTINUOUS
 62
             7
100
AcDbLine
 10
-207.74999999999969
 20
21.2
 11
-207.74999999999969
 21
21.8
  0
LINE
  5
382
100
AcDbEntity
  8
1
  6
CONTINUOUS
 62
             7
100
AcDbLine
 10
-214.49999999999969
 20
-30.49999999999999
 11
-199.99999999999969
 21
-30.5
  0
LINE
  5
381
100
AcDbEntity
  8
1
  6
CONTINUOUS
 62
             7
100
AcDbLine
 10
-199.99999999999969
 20
36.0
 11
-214.49999999999969
 21
36.0
  0
LINE
  5
380
100
AcDbEntity
  8
1
  6
CONTINUOUS
 62
             7
100
AcDbLine
 10
-199.99999999999969
 20
36.0
 11
-199.99999999999969
 21
-1.5
  0
LINE
  5
37F
100
AcDbEntity
  8
1
  6
CONTINUOUS
 62
             7
100
AcDbLine
 10
-211.49999999999969
 20
-30.5
 11
-211.49999999999969
 21
-28.95
  0
LINE
  5
37E
100
AcDbEntity
  8
1
  6
CONTINUOUS
 62
             7
100
AcDbLine
 10
-66.5
 20
20.0
 11
-66.5
 21
37.5
  0
LINE
  5
37D
100
AcDbEntity
  8
1
  6
CONTINUOUS
 62
             7
100
AcDbLine
 10
-69.5
 20
20.0
 11
-66.5
 21
20.0
  0
LINE
  5
37C
100
AcDbEntity
  8
1
  6
CONTINUOUS
 62
             7
100
AcDbLine
 10
-69.5
 20
-20.0
 11
-69.5
 21
20.0
  0
LINE
  5
37B
100
AcDbEntity
  8
1
  6
CONTINUOUS
 62
             7
100
AcDbLine
 10
-66.5
 20
-20.0
 11
-69.5
 21
-20.0
  0
LINE
  5
37A
100
AcDbEntity
  8
1
  6
CONTINUOUS
 62
             7
100
AcDbLine
 10
-66.5
 20
-37.5
 11
-66.5
 21
-20.0
  0
LINE
  5
379
100
AcDbEntity
  8
1
  6
CONTINUOUS
 62
             7
100
AcDbLine
 10
-199.99999999999969
 20
-30.5
 11
-199.99999999999969
 21
36.0
  0
LINE
  5
378
100
AcDbEntity
  8
1
  6
CONTINUOUS
 62
             7
100
AcDbLine
 10
-213.99999999999969
 20
-36.0
 11
-200.49999999999969
 21
-36.0
  0
LINE
  5
377
100
AcDbEntity
  8
1
  6
CONTINUOUS
 62
             7
100
AcDbLine
 10
-214.49999999999969
 20
-31.99999999999999
 11
-214.49999999999969
 21
-35.5
  0
LINE
  5
376
100
AcDbEntity
  8
1
  6
CONTINUOUS
 62
             7
100
AcDbLine
 10
-199.99999999999969
 20
-35.5
 11
-199.99999999999969
 21
-32.0
  0
LINE
  5
375
100
AcDbEntity
  8
1
  6
CONTINUOUS
 62
             7
100
AcDbLine
 10
-214.99999999999969
 20
-37.5
 11
-199.49999999999969
 21
-37.5
  0
LINE
  5
374
100
AcDbEntity
  8
1
  6
CONTINUOUS
 62
             7
100
AcDbLine
 10
-142.24999999999969
 20
36.5
 11
-142.24999999999969
 21
-36.49999999999999
  0
LINE
  5
373
100
AcDbEntity
  8
1
  6
CONTINUOUS
 62
             7
100
AcDbLine
 10
-198.49999999999969
 20
36.5
 11
-198.49999999999969
 21
-36.5
  0
LINE
  5
372
100
AcDbEntity
  8
1
  6
CONTINUOUS
 62
             7
100
AcDbLine
 10
-214.99999999999969
 20
37.5
 11
-199.49999999999969
 21
37.5
  0
LINE
  5
371
100
AcDbEntity
  8
1
  6
CONTINUOUS
 62
             7
100
AcDbLine
 10
-215.99999999999969
 20
-36.5
 11
-215.99999999999969
 21
36.5
  0
LINE
  5
370
100
AcDbEntity
  8
1
  6
CONTINUOUS
 62
             7
100
AcDbLine
 10
-141.24999999999969
 20
37.5
 11
-66.5
 21
37.5
  0
LINE
  5
36F
100
AcDbEntity
  8
1
  6
CONTINUOUS
 62
             7
100
AcDbLine
 10
-66.5
 20
-37.5
 11
-141.24999999999969
 21
-37.49999999999999
  0
LINE
  5
36E
100
AcDbEntity
  8
1
  6
CONTINUOUS
 62
             7
100
AcDbLine
 10
-199.99999999999969
 20
36.0
 11
-214.49999999999969
 21
36.0
  0
LINE
  5
36D
100
AcDbEntity
  8
1
  6
CONTINUOUS
 62
             7
100
AcDbLine
 10
-214.49999999999969
 20
-30.49999999999999
 11
-199.99999999999969
 21
-30.5
  0
LINE
  5
36C
100
AcDbEntity
  8
1
  6
CONTINUOUS
 62
             7
100
AcDbLine
 10
-214.49999999999969
 20
-30.49999999999999
 11
-214.49999999999969
 21
-28.95
  0
LINE
  5
36B
100
AcDbEntity
  8
1
  6
CONTINUOUS
 62
             7
100
AcDbLine
 10
-214.49999999999969
 20
36.0
 11
-214.49999999999969
 21
6.61
  0
LINE
  5
36A
100
AcDbEntity
  8
1
  6
CONTINUOUS
 62
             7
100
AcDbLine
 10
-58.94999999999968
 20
-33.5
 11
-58.94999999999968
 21
-30.0
  0
LINE
  5
369
100
AcDbEntity
  8
1
  6
CONTINUOUS
 62
             7
100
AcDbLine
 10
-57.24999999999968
 20
-33.5
 11
-61.24999999999968
 21
-33.5
  0
LINE
  5
368
100
AcDbEntity
  8
1
  6
CONTINUOUS
 62
             7
100
AcDbLine
 10
-57.24999999999968
 20
-30.0
 11
-61.24999999999968
 21
-30.0
  0
LINE
  5
367
100
AcDbEntity
  8
1
  6
CONTINUOUS
 62
             7
100
AcDbLine
 10
-57.24999999999968
 20
-30.0
 11
-57.24999999999968
 21
-33.5
  0
LINE
  5
366
100
AcDbEntity
  8
1
  6
CONTINUOUS
 62
             7
100
AcDbLine
 10
-61.24999999999968
 20
-37.5
 11
-66.5
 21
-37.5
  0
LINE
  5
365
100
AcDbEntity
  8
1
  6
CONTINUOUS
 62
             7
100
AcDbLine
 10
-57.24999999999968
 20
17.69999999999972
 11
-57.24999999999968
 21
25.0
  0
LINE
  5
364
100
AcDbEntity
  8
1
  6
CONTINUOUS
 62
             7
100
AcDbLine
 10
-57.24999999999967
 20
15.6999999999998
 11
-57.24999999999968
 21
17.69999999999972
  0
LINE
  5
363
100
AcDbEntity
  8
1
  6
CONTINUOUS
 62
             7
100
AcDbLine
 10
-58.56922359359568
 20
15.6999999999998
 11
-57.24999999999967
 21
15.6999999999998
  0
LINE
  5
362
100
AcDbEntity
  8
1
  6
CONTINUOUS
 62
             7
100
AcDbLine
 10
-61.24999999999968
 20
13.23114224595505
 11
-61.24999999999968
 21
12.2
  0
LINE
  5
361
100
AcDbEntity
  8
1
  6
CONTINUOUS
 62
             7
100
AcDbLine
 10
-61.24999999999967
 20
17.19999999999977
 11
-61.24999999999967
 21
15.76885775404495
  0
LINE
  5
360
100
AcDbEntity
  8
1
  6
CONTINUOUS
 62
             7
100
AcDbLine
 10
-65.0
 20
-11.2
 11
-65.0
 21
11.2
  0
LINE
  5
35F
100
AcDbEntity
  8
1
  6
CONTINUOUS
 62
             7
100
AcDbLine
 10
-65.0
 20
11.2
 11
-61.24999999999968
 21
12.2
  0
LINE
  5
35E
100
AcDbEntity
  8
1
  6
CONTINUOUS
 62
             7
100
AcDbLine
 10
-65.0
 20
-11.2
 11
-61.24999999999968
 21
-12.2
  0
LINE
  5
35D
100
AcDbEntity
  8
1
  6
CONTINUOUS
 62
             7
100
AcDbLine
 10
-60.74999999999965
 20
17.69999999999977
 11
-60.00615528128155
 21
17.69999999999973
  0
LINE
  5
35C
100
AcDbEntity
  8
1
  6
CONTINUOUS
 62
             7
100
AcDbLine
 10
-59.81212678125252
 20
17.5485071250071
 11
-59.53936609374089
 21
16.45746437496296
  0
LINE
  5
35B
100
AcDbEntity
  8
1
  6
CONTINUOUS
 62
             7
100
AcDbLine
 10
-61.24999999999968
 20
-13.5
 11
-60.74999999999968
 21
-13.5
  0
LINE
  5
35A
100
AcDbEntity
  8
1
  6
CONTINUOUS
 62
             7
100
AcDbLine
 10
-60.74999999999968
 20
-13.5
 11
-60.74999999999968
 21
-15.5
  0
LINE
  5
359
100
AcDbEntity
  8
1
  6
CONTINUOUS
 62
             7
100
AcDbLine
 10
-60.74999999999968
 20
-15.5
 11
-61.24999999999968
 21
-15.5
  0
LINE
  5
358
100
AcDbEntity
  8
1
  6
CONTINUOUS
 62
             7
100
AcDbLine
 10
-61.24999999999968
 20
-12.2
 11
-61.24999999999968
 21
-13.5
  0
LINE
  5
357
100
AcDbEntity
  8
1
  6
CONTINUOUS
 62
             7
100
AcDbLine
 10
-61.24999999999968
 20
-37.5
 11
-61.24999999999968
 21
-15.5
  0
LINE
  5
356
100
AcDbEntity
  8
1
  6
CONTINUOUS
 62
             7
100
AcDbLine
 10
-207.74999999999969
 20
12.7
 11
-207.74999999999969
 21
13.3
  0
LINE
  5
355
100
AcDbEntity
  8
1
  6
CONTINUOUS
 62
             7
100
AcDbLine
 10
-207.74999999999969
 20
13.3
 11
-205.9499999999997
 21
13.3
  0
LINE
  5
354
100
AcDbEntity
  8
1
  6
CONTINUOUS
 62
             7
100
AcDbLine
 10
-205.9499999999997
 20
13.3
 11
-205.9499999999997
 21
13.59999999999999
  0
LINE
  5
353
100
AcDbEntity
  8
1
  6
CONTINUOUS
 62
             7
100
AcDbLine
 10
-205.9499999999997
 20
13.59999999999999
 11
-205.34999999999971
 21
13.0
  0
LINE
  5
352
100
AcDbEntity
  8
1
  6
CONTINUOUS
 62
             7
100
AcDbLine
 10
-205.34999999999971
 20
13.0
 11
-205.9499999999997
 21
12.40000000000001
  0
LINE
  5
351
100
AcDbEntity
  8
1
  6
CONTINUOUS
 62
             7
100
AcDbLine
 10
-205.9499999999997
 20
12.40000000000001
 11
-205.9499999999997
 21
12.7
  0
LINE
  5
350
100
AcDbEntity
  8
1
  6
CONTINUOUS
 62
             7
100
AcDbLine
 10
-205.9499999999997
 20
12.7
 11
-207.74999999999969
 21
12.7
  0
LINE
  5
34F
100
AcDbEntity
  8
1
  6
CONTINUOUS
 62
             7
100
AcDbLine
 10
-211.5499999999997
 20
13.0
 11
-210.05001128207149
 21
13.0
  0
LINE
  5
34E
100
AcDbEntity
  8
1
  6
CONTINUOUS
 62
             7
100
AcDbLine
 10
-211.5499999999997
 20
16.0
 11
-211.5499999999997
 21
13.0
  0
LINE
  5
34D
100
AcDbEntity
  8
1
  6
CONTINUOUS
 62
             7
100
AcDbLine
 10
-211.5499999999997
 20
21.5
 11
-210.06755771500059
 21
21.5
  0
LINE
  5
34C
100
AcDbEntity
  8
1
  6
CONTINUOUS
 62
             7
100
AcDbLine
 10
-211.5499999999997
 20
18.5
 11
-211.5499999999997
 21
21.5
  0
LINE
  5
34B
100
AcDbEntity
  8
1
  6
CONTINUOUS
 62
             7
100
AcDbLine
 10
-211.39999999999969
 20
29.75
 11
-211.39999999999969
 21
29.242
  0
LINE
  5
34A
100
AcDbEntity
  8
1
  6
CONTINUOUS
 62
             7
100
AcDbLine
 10
-209.89999999999969
 20
30.25
 11
-210.89999999999969
 21
30.25
  0
LINE
  5
349
100
AcDbEntity
  8
1
  6
CONTINUOUS
 62
             7
100
AcDbLine
 10
-209.39999999999969
 20
29.242
 11
-209.39999999999969
 21
29.75
  0
LINE
  5
348
100
AcDbEntity
  8
1
  6
CONTINUOUS
 62
             7
100
AcDbLine
 10
-210.89999999999969
 20
28.742
 11
-209.89999999999969
 21
28.742
  0
LINE
  5
347
100
AcDbEntity
  8
1
  6
CONTINUOUS
 62
             7
100
AcDbLine
 10
-210.89999999999969
 20
31.246
 11
-209.89999999999969
 21
31.246
  0
LINE
  5
346
100
AcDbEntity
  8
1
  6
CONTINUOUS
 62
             7
100
AcDbLine
 10
-209.39999999999969
 20
31.74599999999999
 11
-209.39999999999969
 21
32.246
  0
LINE
  5
345
100
AcDbEntity
  8
1
  6
CONTINUOUS
 62
             7
100
AcDbLine
 10
-209.89999999999969
 20
32.746
 11
-210.89999999999969
 21
32.746
  0
LINE
  5
344
100
AcDbEntity
  8
1
  6
CONTINUOUS
 62
             7
100
AcDbLine
 10
-211.39999999999969
 20
32.246
 11
-211.39999999999969
 21
31.74599999999999
  0
LINE
  5
343
100
AcDbEntity
  8
1
  6
CONTINUOUS
 62
             7
100
AcDbLine
 10
-210.89999999999969
 20
26.242
 11
-209.89999999999969
 21
26.242
  0
LINE
  5
342
100
AcDbEntity
  8
1
  6
CONTINUOUS
 62
             7
100
AcDbLine
 10
-209.39999999999969
 20
26.742
 11
-209.39999999999969
 21
27.25
  0
LINE
  5
341
100
AcDbEntity
  8
1
  6
CONTINUOUS
 62
             7
100
AcDbLine
 10
-209.89999999999969
 20
27.75
 11
-210.89999999999969
 21
27.75
  0
LINE
  5
340
100
AcDbEntity
  8
1
  6
CONTINUOUS
 62
             7
100
AcDbLine
 10
-211.39999999999969
 20
27.25
 11
-211.39999999999969
 21
26.742
  0
LINE
  5
33F
100
AcDbEntity
  8
1
  6
DOTTED
 62
             7
100
AcDbLine
 10
-58.7500000000008
 20
14.0
 11
-59.7500000000008
 21
15.5
  0
LINE
  5
33E
100
AcDbEntity
  8
1
  6
DOTTED
 62
             7
100
AcDbLine
 10
-54.2500000000008
 20
14.0
 11
-58.7500000000008
 21
14.0
  0
LINE
  5
33D
100
AcDbEntity
  8
1
  6
DOTTED
 62
             7
100
AcDbLine
 10
-53.2500000000008
 20
-13.00000000000001
 11
-53.2500000000008
 21
13.0
  0
LINE
  5
33C
100
AcDbEntity
  8
1
  6
DOTTED
 62
             7
100
AcDbLine
 10
-58.7500000000008
 20
-14.00000000000001
 11
-54.2500000000008
 21
-14.00000000000001
  0
LINE
  5
33B
100
AcDbEntity
  8
1
  6
DOTTED
 62
             7
100
AcDbLine
 10
-59.7500000000008
 20
-15.50000000000001
 11
-58.7500000000008
 21
-14.00000000000001
  0
LINE
  5
33A
100
AcDbEntity
  8
1
  6
DOTTED
 62
             7
100
AcDbLine
 10
-60.7500000000008
 20
-17.40000000000011
 11
-59.7500000000008
 21
-17.40000000000011
  0
LINE
  5
339
100
AcDbEntity
  8
1
  6
DOTTED
 62
             7
100
AcDbLine
 10
-60.7500000000008
 20
-14.50000000000001
 11
-60.7500000000008
 21
-17.40000000000011
  0
LINE
  5
338
100
AcDbEntity
  8
1
  6
DOTTED
 62
             7
100
AcDbLine
 10
-54.6500000000006
 20
-12.50000000000001
 11
-58.7500000000008
 21
-12.50000000000001
  0
LINE
  5
337
100
AcDbEntity
  8
1
  6
DOTTED
 62
             7
100
AcDbLine
 10
-54.6500000000006
 20
12.5
 11
-54.6500000000006
 21
-12.50000000000001
  0
LINE
  5
336
100
AcDbEntity
  8
1
  6
DOTTED
 62
             7
100
AcDbLine
 10
-58.7500000000008
 20
12.5
 11
-54.6500000000006
 21
12.5
  0
LINE
  5
335
100
AcDbEntity
  8
1
  6
DOTTED
 62
             7
100
AcDbLine
 10
-60.7500000000008
 20
17.39999999999964
 11
-60.7500000000008
 21
14.5
  0
LINE
  5
334
100
AcDbEntity
  8
1
  6
DOTTED
 62
             7
100
AcDbLine
 10
-59.7500000000008
 20
17.39999999999964
 11
-60.7500000000008
 21
17.39999999999964
  0
LINE
  5
333
100
AcDbEntity
  8
1
  6
DOTTED
 62
             7
100
AcDbLine
 10
-59.7500000000008
 20
-17.40000000000011
 11
-59.7500000000008
 21
-15.50000000000001
  0
LINE
  5
332
100
AcDbEntity
  8
1
  6
DOTTED
 62
             7
100
AcDbLine
 10
-59.7500000000008
 20
15.5
 11
-59.7500000000008
 21
17.39999999999964
  0
LINE
  5
331
100
AcDbEntity
  8
0
  6
CONTINUOUS
 62
             7
100
AcDbLine
 10
-158.70999999999989
 20
1.97000000000004
 11
-158.70999999999989
 21
6.07000000000005
  0
LINE
  5
330
100
AcDbEntity
  8
0
  6
CONTINUOUS
 62
             7
100
AcDbLine
 10
-158.70999999999989
 20
-9.17000000000002
 11
-158.70999999999989
 21
-8.19000000000001
  0
LINE
  5
32F
100
AcDbEntity
  8
0
  6
CONTINUOUS
 62
             7
100
AcDbLine
 10
-158.70999999999989
 20
-13.27000000000001
 11
-158.70999999999989
 21
-9.17000000000002
  0
LINE
  5
32E
100
AcDbEntity
  8
0
  6
CONTINUOUS
 62
             7
100
AcDbLine
 10
-158.70999999999989
 20
-14.25000000000001
 11
-158.70999999999989
 21
-13.27000000000001
  0
LINE
  5
32D
100
AcDbEntity
  8
0
  6
CONTINUOUS
 62
             7
100
AcDbLine
 10
-158.70999999999989
 20
-18.35000000000001
 11
-158.70999999999989
 21
-14.25000000000001
  0
LINE
  5
32C
100
AcDbEntity
  8
0
  6
CONTINUOUS
 62
             7
100
AcDbLine
 10
-158.70999999999989
 20
-29.0
 11
-158.70999999999989
 21
-28.51000000000001
  0
LINE
  5
32B
100
AcDbEntity
  8
0
  6
CONTINUOUS
 62
             7
100
AcDbLine
 10
-158.70999999999989
 20
-19.33000000000001
 11
-158.70999999999989
 21
-18.35000000000001
  0
LINE
  5
32A
100
AcDbEntity
  8
0
  6
CONTINUOUS
 62
             7
100
AcDbLine
 10
-158.70999999999989
 20
-23.43000000000001
 11
-158.70999999999989
 21
-19.33000000000001
  0
LINE
  5
329
100
AcDbEntity
  8
0
  6
CONTINUOUS
 62
             7
100
AcDbLine
 10
-158.70999999999989
 20
-24.41000000000001
 11
-158.70999999999989
 21
-23.43000000000001
  0
LINE
  5
328
100
AcDbEntity
  8
0
  6
CONTINUOUS
 62
             7
100
AcDbLine
 10
-158.70999999999989
 20
-28.51000000000001
 11
-158.70999999999989
 21
-24.41000000000001
  0
LINE
  5
327
100
AcDbEntity
  8
0
  6
CONTINUOUS
 62
             7
100
AcDbLine
 10
-160.5799999999999
 20
-13.17000000000002
 11
-160.5799999999999
 21
-9.27000000000001
  0
LINE
  5
326
100
AcDbEntity
  8
0
  6
CONTINUOUS
 62
             7
100
AcDbLine
 10
-160.38410990348439
 20
-9.27000000000001
 11
-160.5799999999999
 21
-9.27000000000001
  0
LINE
  5
325
100
AcDbEntity
  8
0
  6
CONTINUOUS
 62
             7
100
AcDbLine
 10
-160.38410990348439
 20
-13.17000000000002
 11
-160.5799999999999
 21
-13.17000000000002
  0
LINE
  5
324
100
AcDbEntity
  8
0
  6
CONTINUOUS
 62
             7
100
AcDbLine
 10
-157.70999999999989
 20
-29.0
 11
-158.20999999999989
 21
-29.0
  0
LINE
  5
323
100
AcDbEntity
  8
0
  6
CONTINUOUS
 62
             7
100
AcDbLine
 10
-157.70999999999961
 20
-27.8724515496597
 11
-157.70999999999989
 21
-26.46000000000001
  0
LINE
  5
322
100
AcDbEntity
  8
0
  6
CONTINUOUS
 62
             7
100
AcDbLine
 10
-157.71000000000001
 20
-26.26000000000001
 11
-157.70999999999989
 21
-26.46000000000001
  0
LINE
  5
321
100
AcDbEntity
  8
0
  6
CONTINUOUS
 62
             7
100
AcDbLine
 10
-157.70999999999989
 20
-29.0
 11
-157.70999999999989
 21
-28.75128784747851
  0
LINE
  5
320
100
AcDbEntity
  8
0
  6
CONTINUOUS
 62
             7
100
AcDbLine
 10
-157.71000000000001
 20
-24.64754845034031
 11
-157.71000000000001
 21
-26.26000000000001
  0
LINE
  5
31F
100
AcDbEntity
  8
0
  6
CONTINUOUS
 62
             7
100
AcDbLine
 10
-157.70999999999989
 20
-24.16871215252161
 11
-157.71000000000001
 21
-24.64754845034031
  0
LINE
  5
31E
100
AcDbEntity
  8
0
  6
CONTINUOUS
 62
             7
100
AcDbLine
 10
-157.70999999999989
 20
-28.75128784747851
 11
-157.70999999999961
 21
-27.8724515496597
  0
LINE
  5
31D
100
AcDbEntity
  8
0
  6
CONTINUOUS
 62
             7
100
AcDbLine
 10
-157.71000000000001
 20
-19.5675484503403
 11
-157.71000000000001
 21
-21.18000000000001
  0
LINE
  5
31C
100
AcDbEntity
  8
0
  6
CONTINUOUS
 62
             7
100
AcDbLine
 10
-157.70999999999989
 20
-21.38000000000001
 11
-157.71000000000001
 21
-22.7924515496597
  0
LINE
  5
31B
100
AcDbEntity
  8
0
  6
CONTINUOUS
 62
             7
100
AcDbLine
 10
-157.71000000000001
 20
-21.18000000000001
 11
-157.70999999999989
 21
-21.38000000000001
  0
LINE
  5
31A
100
AcDbEntity
  8
0
  6
CONTINUOUS
 62
             7
100
AcDbLine
 10
-158.68321452147771
 20
-29.0
 11
-158.50999999999991
 21
-29.0
  0
LINE
  5
319
100
AcDbEntity
  8
0
  6
CONTINUOUS
 62
             7
100
AcDbLine
 10
-158.70999999999989
 20
-29.0
 11
-158.68321452147771
 21
-29.0
  0
LINE
  5
318
100
AcDbEntity
  8
0
  6
CONTINUOUS
 62
             7
100
AcDbLine
 10
-158.50999999999991
 20
-29.0
 11
-158.50999999999991
 21
-28.51000000000001
  0
LINE
  5
317
100
AcDbEntity
  8
0
  6
CONTINUOUS
 62
             7
100
AcDbLine
 10
-158.50999999999991
 20
-24.41000000000001
 11
-158.50999999999991
 21
-24.06
  0
LINE
  5
316
100
AcDbEntity
  8
0
  6
CONTINUOUS
 62
             7
100
AcDbLine
 10
-158.50999999999991
 20
-28.51000000000001
 11
-158.50999999999991
 21
-28.46000000000001
  0
LINE
  5
315
100
AcDbEntity
  8
0
  6
CONTINUOUS
 62
             7
100
AcDbLine
 10
-158.50999999999991
 20
-27.83500000000001
 11
-158.50999999999991
 21
-25.08500000000001
  0
LINE
  5
314
100
AcDbEntity
  8
0
  6
CONTINUOUS
 62
             7
100
AcDbLine
 10
-158.50999999999991
 20
-28.46000000000001
 11
-158.50999999999991
 21
-27.83500000000001
  0
LINE
  5
313
100
AcDbEntity
  8
0
  6
CONTINUOUS
 62
             7
100
AcDbLine
 10
-158.50999999999991
 20
-24.06
 11
-158.50999999999991
 21
-23.43000000000001
  0
LINE
  5
312
100
AcDbEntity
  8
0
  6
CONTINUOUS
 62
             7
100
AcDbLine
 10
-158.50999999999991
 20
-23.38000000000001
 11
-158.50999999999991
 21
-23.33
  0
LINE
  5
311
100
AcDbEntity
  8
0
  6
CONTINUOUS
 62
             7
100
AcDbLine
 10
-158.50999999999991
 20
-29.0
 11
-158.20999999999989
 21
-29.0
  0
LINE
  5
310
100
AcDbEntity
  8
0
  6
CONTINUOUS
 62
             7
100
AcDbLine
 10
-158.50999999999991
 20
-23.33
 11
-158.50999999999991
 21
-22.75500000000001
  0
LINE
  5
30F
100
AcDbEntity
  8
0
  6
CONTINUOUS
 62
             7
100
AcDbLine
 10
-158.50999999999991
 20
-22.75500000000001
 11
-158.50999999999991
 21
-20.00500000000001
  0
LINE
  5
30E
100
AcDbEntity
  8
0
  6
CONTINUOUS
 62
             7
100
AcDbLine
 10
-158.50999999999991
 20
2.02000000000004
 11
-158.50999999999991
 21
2.64500000000004
  0
LINE
  5
30D
100
AcDbEntity
  8
0
  6
CONTINUOUS
 62
             7
100
AcDbLine
 10
-158.50999999999991
 20
-8.82000000000001
 11
-158.50999999999991
 21
-8.19000000000001
  0
LINE
  5
30C
100
AcDbEntity
  8
0
  6
CONTINUOUS
 62
             7
100
AcDbLine
 10
-158.50999999999991
 20
-9.27000000000001
 11
-158.50999999999991
 21
-9.17000000000002
  0
LINE
  5
30B
100
AcDbEntity
  8
0
  6
CONTINUOUS
 62
             7
100
AcDbLine
 10
-158.50999999999991
 20
-13.27000000000001
 11
-158.50999999999991
 21
-13.22
  0
LINE
  5
30A
100
AcDbEntity
  8
0
  6
CONTINUOUS
 62
             7
100
AcDbLine
 10
-158.50999999999991
 20
-13.90000000000001
 11
-158.50999999999991
 21
-13.27000000000001
  0
LINE
  5
309
100
AcDbEntity
  8
0
  6
CONTINUOUS
 62
             7
100
AcDbLine
 10
-158.50999999999991
 20
-17.67500000000003
 11
-158.50999999999991
 21
-14.92500000000001
  0
LINE
  5
308
100
AcDbEntity
  8
0
  6
CONTINUOUS
 62
             7
100
AcDbLine
 10
-158.50999999999991
 20
-18.3
 11
-158.50999999999991
 21
-17.67500000000003
  0
LINE
  5
307
100
AcDbEntity
  8
0
  6
CONTINUOUS
 62
             7
100
AcDbLine
 10
-158.50999999999991
 20
-18.35000000000001
 11
-158.50999999999991
 21
-18.3
  0
LINE
  5
306
100
AcDbEntity
  8
0
  6
CONTINUOUS
 62
             7
100
AcDbLine
 10
-158.50999999999991
 20
-18.98000000000002
 11
-158.50999999999991
 21
-18.35000000000001
  0
LINE
  5
305
100
AcDbEntity
  8
0
  6
CONTINUOUS
 62
             7
100
AcDbLine
 10
-158.50999999999991
 20
-20.00500000000001
 11
-158.50999999999991
 21
-19.33000000000001
  0
LINE
  5
304
100
AcDbEntity
  8
0
  6
CONTINUOUS
 62
             7
100
AcDbLine
 10
-158.50999999999991
 20
-23.43000000000001
 11
-158.50999999999991
 21
-23.38000000000001
  0
LINE
  5
303
100
AcDbEntity
  8
0
  6
CONTINUOUS
 62
             7
100
AcDbLine
 10
-158.50999999999991
 20
-25.08500000000001
 11
-158.50999999999991
 21
-24.41000000000001
  0
LINE
  5
302
100
AcDbEntity
  8
0
  6
CONTINUOUS
 62
             7
100
AcDbLine
 10
-158.50999999999991
 20
-19.33000000000001
 11
-158.50999999999991
 21
-18.98000000000002
  0
LINE
  5
301
100
AcDbEntity
  8
0
  6
CONTINUOUS
 62
             7
100
AcDbLine
 10
-158.50999999999991
 20
-14.92500000000001
 11
-158.50999999999991
 21
-14.25000000000001
  0
LINE
  5
300
100
AcDbEntity
  8
0
  6
CONTINUOUS
 62
             7
100
AcDbLine
 10
-158.50999999999991
 20
-14.25000000000001
 11
-158.50999999999991
 21
-13.90000000000001
  0
LINE
  5
2FF
100
AcDbEntity
  8
0
  6
CONTINUOUS
 62
             7
100
AcDbLine
 10
-157.70999999999989
 20
-18.59128784747847
 11
-157.71000000000001
 21
-17.71245154965972
  0
LINE
  5
2FE
100
AcDbEntity
  8
0
  6
CONTINUOUS
 62
             7
100
AcDbLine
 10
-159.70999999999989
 20
-23.43000000000001
 11
-159.8367854785221
 21
-23.43000000000001
  0
LINE
  5
2FD
100
AcDbEntity
  8
0
  6
CONTINUOUS
 62
             7
100
AcDbLine
 10
-159.70999999999989
 20
-24.41000000000001
 11
-158.70999999999989
 21
-24.41000000000001
  0
LINE
  5
2FC
100
AcDbEntity
  8
0
  6
CONTINUOUS
 62
             7
100
AcDbLine
 10
-159.7150681158185
 20
-23.33
 11
-159.4799999999999
 21
-23.33
  0
LINE
  5
2FB
100
AcDbEntity
  8
0
  6
CONTINUOUS
 62
             7
100
AcDbLine
 10
-157.70999999999989
 20
-23.67128784747851
 11
-157.70999999999989
 21
-24.16871215252161
  0
LINE
  5
2FA
100
AcDbEntity
  8
0
  6
CONTINUOUS
 62
             7
100
AcDbLine
 10
-157.71000000000001
 20
-22.7924515496597
 11
-157.70999999999989
 21
-23.67128784747851
  0
LINE
  5
2F9
100
AcDbEntity
  8
0
  6
CONTINUOUS
 62
             7
100
AcDbLine
 10
-158.70999999999989
 20
-23.43000000000001
 11
-159.70999999999989
 21
-23.43000000000001
  0
LINE
  5
2F8
100
AcDbEntity
  8
0
  6
CONTINUOUS
 62
             7
100
AcDbLine
 10
-159.8367854785221
 20
-24.41000000000001
 11
-159.70999999999989
 21
-24.41000000000001
  0
LINE
  5
2F7
100
AcDbEntity
  8
0
  6
CONTINUOUS
 62
             7
100
AcDbLine
 10
-159.4799999999999
 20
-19.43000000000001
 11
-158.70999999999989
 21
-19.43000000000001
  0
LINE
  5
2F6
100
AcDbEntity
  8
0
  6
CONTINUOUS
 62
             7
100
AcDbLine
 10
-160.37999999999991
 20
-19.43000000000001
 11
-159.7150681158185
 21
-19.43000000000001
  0
LINE
  5
2F5
100
AcDbEntity
  8
0
  6
CONTINUOUS
 62
             7
100
AcDbLine
 10
-159.7150681158185
 20
-19.43000000000001
 11
-159.4799999999999
 21
-19.43000000000001
  0
LINE
  5
2F4
100
AcDbEntity
  8
0
  6
CONTINUOUS
 62
             7
100
AcDbLine
 10
-150.3599999999999
 20
-20.205
 11
-149.21666603726189
 21
-20.20500000000001
  0
LINE
  5
2F3
100
AcDbEntity
  8
0
  6
CONTINUOUS
 62
             7
100
AcDbLine
 10
-150.3599999999999
 20
-22.55500000000001
 11
-150.3599999999999
 21
-20.205
  0
LINE
  5
2F2
100
AcDbEntity
  8
0
  6
CONTINUOUS
 62
             7
100
AcDbLine
 10
-149.21666603726189
 20
-20.20500000000001
 11
-149.18499999999989
 21
-20.205
  0
LINE
  5
2F1
100
AcDbEntity
  8
0
  6
CONTINUOUS
 62
             7
100
AcDbLine
 10
-143.46691418379021
 20
-23.92
 11
-143.24999999999969
 21
-23.92
  0
LINE
  5
2F0
100
AcDbEntity
  8
0
  6
CONTINUOUS
 62
             7
100
AcDbLine
 10
-143.7799999999998
 20
-23.92
 11
-144.04410161513761
 21
-23.92
  0
LINE
  5
2EF
100
AcDbEntity
  8
0
  6
CONTINUOUS
 62
             7
100
AcDbLine
 10
-145.04410161513761
 20
-23.92
 11
-144.04410161513761
 21
-23.92
  0
LINE
  5
2EE
100
AcDbEntity
  8
0
  6
CONTINUOUS
 62
             7
100
AcDbLine
 10
-146.71397459621531
 20
-23.92
 11
-147.71397459621511
 21
-23.92
  0
LINE
  5
2ED
100
AcDbEntity
  8
0
  6
CONTINUOUS
 62
             7
100
AcDbLine
 10
-145.04410161513761
 20
-23.92
 11
-146.71397459621531
 21
-23.92
  0
LINE
  5
2EC
100
AcDbEntity
  8
0
  6
CONTINUOUS
 62
             7
100
AcDbLine
 10
-159.70999999999989
 20
-19.33000000000001
 11
-158.70999999999989
 21
-19.33000000000001
  0
LINE
  5
2EB
100
AcDbEntity
  8
0
  6
CONTINUOUS
 62
             7
100
AcDbLine
 10
-159.8367854785221
 20
-19.33000000000001
 11
-159.70999999999989
 21
-19.33000000000001
  0
LINE
  5
2EA
100
AcDbEntity
  8
0
  6
CONTINUOUS
 62
             7
100
AcDbLine
 10
-160.00999999999991
 20
-19.33000000000001
 11
-159.8367854785221
 21
-19.33000000000001
  0
LINE
  5
2E9
100
AcDbEntity
  8
0
  6
CONTINUOUS
 62
             7
100
AcDbLine
 10
-159.4799999999999
 20
-23.33
 11
-158.70999999999989
 21
-23.33
  0
LINE
  5
2E8
100
AcDbEntity
  8
0
  6
CONTINUOUS
 62
             7
100
AcDbLine
 10
-159.8367854785221
 20
-24.41000000000001
 11
-160.00999999999991
 21
-24.41000000000001
  0
LINE
  5
2E7
100
AcDbEntity
  8
0
  6
CONTINUOUS
 62
             7
100
AcDbLine
 10
-160.00999999999991
 20
-24.41000000000001
 11
-160.00999999999991
 21
-23.43000000000001
  0
LINE
  5
2E6
100
AcDbEntity
  8
0
  6
CONTINUOUS
 62
             7
100
AcDbLine
 10
-159.8367854785221
 20
-23.43000000000001
 11
-160.00999999999991
 21
-23.43000000000001
  0
LINE
  5
2E5
100
AcDbEntity
  8
0
  6
CONTINUOUS
 62
             7
100
AcDbLine
 10
-143.7799999999998
 20
-23.92
 11
-143.46691418379021
 21
-23.92
  0
LINE
  5
2E4
100
AcDbEntity
  8
0
  6
CONTINUOUS
 62
             7
100
AcDbLine
 10
-149.21666603726189
 20
-22.55500000000001
 11
-149.18499999999989
 21
-22.55500000000001
  0
LINE
  5
2E3
100
AcDbEntity
  8
0
  6
CONTINUOUS
 62
             7
100
AcDbLine
 10
-150.3599999999999
 20
-22.55500000000001
 11
-149.21666603726189
 21
-22.55500000000001
  0
LINE
  5
2E2
100
AcDbEntity
  8
0
  6
CONTINUOUS
 62
             7
100
AcDbLine
 10
-148.00999999999991
 20
-23.67128784747851
 11
-157.70999999999989
 21
-23.67128784747851
  0
LINE
  5
2E1
100
AcDbEntity
  8
0
  6
CONTINUOUS
 62
             7
100
AcDbLine
 10
-148.00999999999991
 20
-23.67128784747851
 11
-148.00999999999991
 21
-21.38000000000001
  0
LINE
  5
2E0
100
AcDbEntity
  8
0
  6
CONTINUOUS
 62
             7
100
AcDbLine
 10
-148.00999999999991
 20
-24.16871215252161
 11
-157.70999999999989
 21
-24.16871215252161
  0
LINE
  5
2DF
100
AcDbEntity
  8
0
  6
CONTINUOUS
 62
             7
100
AcDbLine
 10
-160.37999999999991
 20
-23.33
 11
-159.7150681158185
 21
-23.33
  0
LINE
  5
2DE
100
AcDbEntity
  8
0
  6
CONTINUOUS
 62
             7
100
AcDbLine
 10
-143.7799999999998
 20
3.08000000000004
 11
-143.77999999999989
 21
6.56000000000004
  0
LINE
  5
2DD
100
AcDbEntity
  8
0
  6
CONTINUOUS
 62
             7
100
AcDbLine
 10
-143.7799999999998
 20
-23.92
 11
-143.7799999999998
 21
1.48000000000004
  0
LINE
  5
2DC
100
AcDbEntity
  8
0
  6
CONTINUOUS
 62
             7
100
AcDbLine
 10
-160.00999999999991
 20
-19.33000000000001
 11
-160.00999999999991
 21
-18.35000000000001
  0
LINE
  5
2DB
100
AcDbEntity
  8
0
  6
CONTINUOUS
 62
             7
100
AcDbLine
 10
-148.00999999999991
 20
-18.59128784747846
 11
-148.00999999999991
 21
-16.3
  0
LINE
  5
2DA
100
AcDbEntity
  8
0
  6
CONTINUOUS
 62
             7
100
AcDbLine
 10
-148.00999999999991
 20
-18.59128784747846
 11
-157.70999999999989
 21
-18.59128784747847
  0
LINE
  5
2D9
100
AcDbEntity
  8
0
  6
CONTINUOUS
 62
             7
100
AcDbLine
 10
-158.00999999999979
 20
6.56000000000004
 11
-158.20999999999989
 21
6.56000000000004
  0
LINE
  5
2D8
100
AcDbEntity
  8
0
  6
CONTINUOUS
 62
             7
100
AcDbLine
 10
-158.68321452147771
 20
6.56000000000004
 11
-158.70999999999989
 21
6.56000000000004
  0
LINE
  5
2D7
100
AcDbEntity
  8
0
  6
CONTINUOUS
 62
             7
100
AcDbLine
 10
-158.50999999999991
 20
6.56000000000004
 11
-158.68321452147771
 21
6.56000000000004
  0
LINE
  5
2D6
100
AcDbEntity
  8
0
  6
CONTINUOUS
 62
             7
100
AcDbLine
 10
-158.50999999999991
 20
6.56000000000004
 11
-158.20999999999989
 21
6.56000000000004
  0
LINE
  5
2D5
100
AcDbEntity
  8
0
  6
CONTINUOUS
 62
             7
100
AcDbLine
 10
-158.70999999999989
 20
6.07000000000005
 11
-158.70999999999989
 21
6.56000000000004
  0
LINE
  5
2D4
100
AcDbEntity
  8
0
  6
CONTINUOUS
 62
             7
100
AcDbLine
 10
-158.50999999999991
 20
6.42000000000004
 11
-158.50999999999991
 21
6.56000000000004
  0
LINE
  5
2D3
100
AcDbEntity
  8
0
  6
CONTINUOUS
 62
             7
100
AcDbLine
 10
-158.50999999999991
 20
6.07000000000005
 11
-158.50999999999991
 21
6.42000000000004
  0
LINE
  5
2D2
100
AcDbEntity
  8
0
  6
CONTINUOUS
 62
             7
100
AcDbLine
 10
-155.35171797100759
 20
6.56000000000004
 11
-155.2207958125779
 21
6.56000000000004
  0
LINE
  5
2D1
100
AcDbEntity
  8
0
  6
CONTINUOUS
 62
             7
100
AcDbLine
 10
-158.50999999999991
 20
5.39500000000004
 11
-158.50999999999991
 21
6.07000000000005
  0
LINE
  5
2D0
100
AcDbEntity
  8
0
  6
CONTINUOUS
 62
             7
100
AcDbLine
 10
-157.70999999999989
 20
6.31128784747854
 11
-157.70999999999989
 21
6.56000000000004
  0
LINE
  5
2CF
100
AcDbEntity
  8
0
  6
CONTINUOUS
 62
             7
100
AcDbLine
 10
-157.70999999999961
 20
5.83245154965973
 11
-157.70999999999989
 21
6.31128784747854
  0
LINE
  5
2CE
100
AcDbEntity
  8
0
  6
CONTINUOUS
 62
             7
100
AcDbLine
 10
-157.6870883703877
 20
6.56000000000004
 11
-157.70999999999989
 21
6.56000000000004
  0
LINE
  5
2CD
100
AcDbEntity
  8
0
  6
CONTINUOUS
 62
             7
100
AcDbLine
 10
-155.50981483044109
 20
6.56000000000004
 11
-155.36000000000001
 21
6.56000000000004
  0
LINE
  5
2CC
100
AcDbEntity
  8
0
  6
CONTINUOUS
 62
             7
100
AcDbLine
 10
-157.79920418742191
 20
6.56000000000004
 11
-158.00999999999979
 21
6.56000000000004
  0
LINE
  5
2CB
100
AcDbEntity
  8
0
  6
CONTINUOUS
 62
             7
100
AcDbLine
 10
-157.70999999999989
 20
6.56000000000004
 11
-157.79920418742191
 21
6.56000000000004
  0
LINE
  5
2CA
100
AcDbEntity
  8
0
  6
CONTINUOUS
 62
             7
100
AcDbLine
 10
-157.70999999999989
 20
4.02000000000004
 11
-157.71000000000001
 21
2.60754845034033
  0
LINE
  5
2C9
100
AcDbEntity
  8
0
  6
CONTINUOUS
 62
             7
100
AcDbLine
 10
-156.6832058431981
 20
6.56000000000004
 11
-156.65423357788251
 21
6.56000000000004
  0
LINE
  5
2C8
100
AcDbEntity
  8
0
  6
CONTINUOUS
 62
             7
100
AcDbLine
 10
-156.65423357788251
 20
6.56000000000004
 11
-156.56515628709511
 21
6.56000000000004
  0
LINE
  5
2C7
100
AcDbEntity
  8
0
  6
CONTINUOUS
 62
             7
100
AcDbLine
 10
-156.73590479634251
 20
6.56000000000004
 11
-156.72325314652849
 21
6.56000000000004
  0
LINE
  5
2C6
100
AcDbEntity
  8
0
  6
CONTINUOUS
 62
             7
100
AcDbLine
 10
-156.9115679734908
 20
6.56000000000004
 11
-156.73590479634251
 21
6.56000000000004
  0
LINE
  5
2C5
100
AcDbEntity
  8
0
  6
CONTINUOUS
 62
             7
100
AcDbLine
 10
-156.9115679734908
 20
6.56000000000004
 11
-157.6870883703877
 21
6.56000000000004
  0
LINE
  5
2C4
100
AcDbEntity
  8
0
  6
CONTINUOUS
 62
             7
100
AcDbLine
 10
-156.2554538479281
 20
6.56000000000004
 11
-156.34453113871561
 21
6.56000000000004
  0
LINE
  5
2C3
100
AcDbEntity
  8
0
  6
CONTINUOUS
 62
             7
100
AcDbLine
 10
-156.22648158261251
 20
6.56000000000004
 11
-156.1864342792822
 21
6.56000000000004
  0
LINE
  5
2C2
100
AcDbEntity
  8
0
  6
CONTINUOUS
 62
             7
100
AcDbLine
 10
-155.9981194523198
 20
6.56000000000004
 11
-155.50981483044109
 21
6.56000000000004
  0
LINE
  5
2C1
100
AcDbEntity
  8
0
  6
CONTINUOUS
 62
             7
100
AcDbLine
 10
-155.36000000000001
 20
6.56000000000004
 11
-155.35171797100759
 21
6.56000000000004
  0
LINE
  5
2C0
100
AcDbEntity
  8
0
  6
CONTINUOUS
 62
             7
100
AcDbLine
 10
-156.1864342792822
 20
6.56000000000004
 11
-155.9981194523198
 21
6.56000000000004
  0
LINE
  5
2BF
100
AcDbEntity
  8
0
  6
CONTINUOUS
 62
             7
100
AcDbLine
 10
-156.34453113871561
 20
6.56000000000004
 11
-156.56515628709511
 21
6.56000000000004
  0
LINE
  5
2BE
100
AcDbEntity
  8
0
  6
CONTINUOUS
 62
             7
100
AcDbLine
 10
-156.2554538479281
 20
6.56000000000004
 11
-156.22648158261251
 21
6.56000000000004
  0
LINE
  5
2BD
100
AcDbEntity
  8
0
  6
CONTINUOUS
 62
             7
100
AcDbLine
 10
-156.72325314652849
 20
6.56000000000004
 11
-156.6832058431981
 21
6.56000000000004
  0
LINE
  5
2BC
100
AcDbEntity
  8
0
  6
CONTINUOUS
 62
             7
100
AcDbLine
 10
-155.2207958125779
 20
6.56000000000004
 11
-155.00999999999991
 21
6.56000000000004
  0
LINE
  5
2BB
100
AcDbEntity
  8
0
  6
CONTINUOUS
 62
             7
100
AcDbLine
 10
-157.71000000000001
 20
4.22000000000004
 11
-157.70999999999989
 21
4.02000000000004
  0
LINE
  5
2BA
100
AcDbEntity
  8
0
  6
CONTINUOUS
 62
             7
100
AcDbLine
 10
-157.70999999999961
 20
5.83245154965973
 11
-157.71000000000001
 21
4.22000000000004
  0
LINE
  5
2B9
100
AcDbEntity
  8
0
  6
CONTINUOUS
 62
             7
100
AcDbLine
 10
-159.70999999999989
 20
6.56000000000004
 11
-158.70999999999989
 21
6.56000000000004
  0
LINE
  5
2B8
100
AcDbEntity
  8
0
  6
CONTINUOUS
 62
             7
100
AcDbLine
 10
-159.70999999999989
 20
6.07000000000005
 11
-158.70999999999989
 21
6.07000000000005
  0
LINE
  5
2B7
100
AcDbEntity
  8
0
  6
CONTINUOUS
 62
             7
100
AcDbLine
 10
-158.50999999999991
 20
2.64500000000004
 11
-158.50999999999991
 21
5.39500000000004
  0
LINE
  5
2B6
100
AcDbEntity
  8
0
  6
CONTINUOUS
 62
             7
100
AcDbLine
 10
-159.7150681158185
 20
5.97000000000004
 11
-159.4799999999999
 21
5.97000000000004
  0
LINE
  5
2B5
100
AcDbEntity
  8
0
  6
CONTINUOUS
 62
             7
100
AcDbLine
 10
-159.8367854785221
 20
6.07000000000005
 11
-159.70999999999989
 21
6.07000000000005
  0
LINE
  5
2B4
100
AcDbEntity
  8
0
  6
CONTINUOUS
 62
             7
100
AcDbLine
 10
-160.00999999999991
 20
6.07000000000005
 11
-159.8367854785221
 21
6.07000000000005
  0
LINE
  5
2B3
100
AcDbEntity
  8
0
  6
CONTINUOUS
 62
             7
100
AcDbLine
 10
-160.00999999999991
 20
6.07000000000005
 11
-160.00999999999991
 21
6.56000000000004
  0
LINE
  5
2B2
100
AcDbEntity
  8
0
  6
CONTINUOUS
 62
             7
100
AcDbLine
 10
-159.8367854785221
 20
6.56000000000004
 11
-159.70999999999989
 21
6.56000000000004
  0
LINE
  5
2B1
100
AcDbEntity
  8
0
  6
CONTINUOUS
 62
             7
100
AcDbLine
 10
-160.00999999999991
 20
6.56000000000004
 11
-159.8367854785221
 21
6.56000000000004
  0
LINE
  5
2B0
100
AcDbEntity
  8
0
  6
CONTINUOUS
 62
             7
100
AcDbLine
 10
-159.7150681158185
 20
2.07000000000005
 11
-159.4799999999999
 21
2.07000000000005
  0
LINE
  5
2AF
100
AcDbEntity
  8
0
  6
CONTINUOUS
 62
             7
100
AcDbLine
 10
-148.00999999999991
 20
4.02000000000004
 11
-148.00999999999991
 21
6.31128784747854
  0
LINE
  5
2AE
100
AcDbEntity
  8
0
  6
CONTINUOUS
 62
             7
100
AcDbLine
 10
-149.21666603726189
 20
5.19500000000005
 11
-149.18499999999989
 21
5.19500000000005
  0
LINE
  5
2AD
100
AcDbEntity
  8
0
  6
CONTINUOUS
 62
             7
100
AcDbLine
 10
-150.3599999999999
 20
2.84500000000004
 11
-149.21666603726189
 21
2.84500000000004
  0
LINE
  5
2AC
100
AcDbEntity
  8
0
  6
CONTINUOUS
 62
             7
100
AcDbLine
 10
-160.38410990348439
 20
5.97000000000004
 11
-160.37999999999991
 21
5.97000000000004
  0
LINE
  5
2AB
100
AcDbEntity
  8
0
  6
CONTINUOUS
 62
             7
100
AcDbLine
 10
-160.5799999999999
 20
5.97000000000004
 11
-160.38410990348439
 21
5.97000000000004
  0
LINE
  5
2AA
100
AcDbEntity
  8
0
  6
CONTINUOUS
 62
             7
100
AcDbLine
 10
-160.38410990348439
 20
2.07000000000005
 11
-160.37999999999991
 21
2.07000000000005
  0
LINE
  5
2A9
100
AcDbEntity
  8
0
  6
CONTINUOUS
 62
             7
100
AcDbLine
 10
-160.5799999999999
 20
2.07000000000005
 11
-160.38410990348439
 21
2.07000000000005
  0
LINE
  5
2A8
100
AcDbEntity
  8
0
  6
CONTINUOUS
 62
             7
100
AcDbLine
 10
-160.5799999999999
 20
2.07000000000005
 11
-160.5799999999999
 21
5.97000000000004
  0
LINE
  5
2A7
100
AcDbEntity
  8
0
  6
CONTINUOUS
 62
             7
100
AcDbLine
 10
-159.4799999999999
 20
2.07000000000005
 11
-158.70999999999989
 21
2.07000000000005
  0
LINE
  5
2A6
100
AcDbEntity
  8
0
  6
CONTINUOUS
 62
             7
100
AcDbLine
 10
-160.37999999999991
 20
2.07000000000005
 11
-159.7150681158185
 21
2.07000000000005
  0
LINE
  5
2A5
100
AcDbEntity
  8
0
  6
CONTINUOUS
 62
             7
100
AcDbLine
 10
-159.4799999999999
 20
5.97000000000004
 11
-158.70999999999989
 21
5.97000000000004
  0
LINE
  5
2A4
100
AcDbEntity
  8
0
  6
CONTINUOUS
 62
             7
100
AcDbLine
 10
-160.37999999999991
 20
5.97000000000004
 11
-159.7150681158185
 21
5.97000000000004
  0
LINE
  5
2A3
100
AcDbEntity
  8
0
  6
CONTINUOUS
 62
             7
100
AcDbLine
 10
-150.3599999999999
 20
5.19500000000005
 11
-150.3599999999999
 21
2.84500000000004
  0
LINE
  5
2A2
100
AcDbEntity
  8
0
  6
CONTINUOUS
 62
             7
100
AcDbLine
 10
-149.21666603726189
 20
5.19500000000005
 11
-150.3599999999999
 21
5.19500000000005
  0
LINE
  5
2A1
100
AcDbEntity
  8
0
  6
CONTINUOUS
 62
             7
100
AcDbLine
 10
-158.50999999999991
 20
1.97000000000004
 11
-158.50999999999991
 21
2.02000000000004
  0
LINE
  5
2A0
100
AcDbEntity
  8
0
  6
CONTINUOUS
 62
             7
100
AcDbLine
 10
-159.70999999999989
 20
-14.25000000000001
 11
-158.70999999999989
 21
-14.25000000000001
  0
LINE
  5
29F
100
AcDbEntity
  8
0
  6
CONTINUOUS
 62
             7
100
AcDbLine
 10
-159.8367854785221
 20
-14.25000000000001
 11
-159.70999999999989
 21
-14.25000000000001
  0
LINE
  5
29E
100
AcDbEntity
  8
0
  6
CONTINUOUS
 62
             7
100
AcDbLine
 10
-159.70999999999989
 20
-13.27000000000001
 11
-159.8367854785221
 21
-13.27000000000001
  0
LINE
  5
29D
100
AcDbEntity
  8
0
  6
CONTINUOUS
 62
             7
100
AcDbLine
 10
-158.70999999999989
 20
-13.27000000000001
 11
-159.70999999999989
 21
-13.27000000000001
  0
LINE
  5
29C
100
AcDbEntity
  8
0
  6
CONTINUOUS
 62
             7
100
AcDbLine
 10
-159.7150681158185
 20
-14.35000000000001
 11
-159.4799999999999
 21
-14.35000000000001
  0
LINE
  5
29B
100
AcDbEntity
  8
0
  6
CONTINUOUS
 62
             7
100
AcDbLine
 10
-157.71000000000001
 20
-14.4875484503403
 11
-157.71000000000001
 21
-16.10000000000001
  0
LINE
  5
29A
100
AcDbEntity
  8
0
  6
CONTINUOUS
 62
             7
100
AcDbLine
 10
-157.70999999999989
 20
-16.30000000000001
 11
-157.71000000000001
 21
-17.71245154965972
  0
LINE
  5
299
100
AcDbEntity
  8
0
  6
CONTINUOUS
 62
             7
100
AcDbLine
 10
-157.71000000000001
 20
-16.10000000000001
 11
-157.70999999999989
 21
-16.30000000000001
  0
LINE
  5
298
100
AcDbEntity
  8
0
  6
CONTINUOUS
 62
             7
100
AcDbLine
 10
-157.71000000000001
 20
-14.4875484503403
 11
-157.70999999999989
 21
-14.00871215252155
  0
LINE
  5
297
100
AcDbEntity
  8
0
  6
CONTINUOUS
 62
             7
100
AcDbLine
 10
-159.4799999999999
 20
-14.35000000000001
 11
-158.70999999999989
 21
-14.35000000000001
  0
LINE
  5
296
100
AcDbEntity
  8
0
  6
CONTINUOUS
 62
             7
100
AcDbLine
 10
-159.8367854785221
 20
-13.27000000000001
 11
-160.00999999999991
 21
-13.27000000000001
  0
LINE
  5
295
100
AcDbEntity
  8
0
  6
CONTINUOUS
 62
             7
100
AcDbLine
 10
-148.00999999999991
 20
-16.3
 11
-148.00999999999991
 21
-14.00871215252155
  0
LINE
  5
294
100
AcDbEntity
  8
0
  6
CONTINUOUS
 62
             7
100
AcDbLine
 10
-160.00999999999991
 20
-14.25000000000001
 11
-160.00999999999991
 21
-13.27000000000001
  0
LINE
  5
293
100
AcDbEntity
  8
0
  6
CONTINUOUS
 62
             7
100
AcDbLine
 10
-159.8367854785221
 20
-14.25000000000001
 11
-160.00999999999991
 21
-14.25000000000001
  0
LINE
  5
292
100
AcDbEntity
  8
0
  6
CONTINUOUS
 62
             7
100
AcDbLine
 10
-160.37999999999991
 20
-14.35000000000001
 11
-159.7150681158185
 21
-14.35000000000001
  0
LINE
  5
291
100
AcDbEntity
  8
0
  6
CONTINUOUS
 62
             7
100
AcDbLine
 10
-148.00999999999991
 20
-13.51128784747846
 11
-157.70999999999989
 21
-13.51128784747846
  0
LINE
  5
290
100
AcDbEntity
  8
0
  6
CONTINUOUS
 62
             7
100
AcDbLine
 10
-148.00999999999991
 20
-14.00871215252155
 11
-157.70999999999989
 21
-14.00871215252155
  0
LINE
  5
28F
100
AcDbEntity
  8
0
  6
CONTINUOUS
 62
             7
100
AcDbLine
 10
-149.21666603726189
 20
-15.125
 11
-149.18499999999989
 21
-15.12500000000001
  0
LINE
  5
28E
100
AcDbEntity
  8
0
  6
CONTINUOUS
 62
             7
100
AcDbLine
 10
-150.3599999999999
 20
-15.12500000000001
 11
-149.21666603726189
 21
-15.125
  0
LINE
  5
28D
100
AcDbEntity
  8
0
  6
CONTINUOUS
 62
             7
100
AcDbLine
 10
-157.70999999999989
 20
-13.51128784747846
 11
-157.71000000000001
 21
-12.63245154965972
  0
LINE
  5
28C
100
AcDbEntity
  8
0
  6
CONTINUOUS
 62
             7
100
AcDbLine
 10
-157.70999999999989
 20
-14.00871215252155
 11
-157.70999999999989
 21
-13.51128784747846
  0
LINE
  5
28B
100
AcDbEntity
  8
0
  6
CONTINUOUS
 62
             7
100
AcDbLine
 10
-150.3599999999999
 20
-17.47499999999999
 11
-150.3599999999999
 21
-15.12500000000001
  0
LINE
  5
28A
100
AcDbEntity
  8
0
  6
CONTINUOUS
 62
             7
100
AcDbLine
 10
-149.21666603726189
 20
-17.47500000000001
 11
-149.18499999999989
 21
-17.47500000000001
  0
LINE
  5
289
100
AcDbEntity
  8
0
  6
CONTINUOUS
 62
             7
100
AcDbLine
 10
-150.3599999999999
 20
-17.47499999999999
 11
-149.21666603726189
 21
-17.47500000000001
  0
LINE
  5
288
100
AcDbEntity
  8
0
  6
CONTINUOUS
 62
             7
100
AcDbLine
 10
-148.00999999999991
 20
-13.51128784747846
 11
-148.00999999999991
 21
-11.22
  0
LINE
  5
287
100
AcDbEntity
  8
0
  6
CONTINUOUS
 62
             7
100
AcDbLine
 10
-158.50999999999991
 20
-12.59500000000001
 11
-158.50999999999991
 21
-9.84500000000001
  0
LINE
  5
286
100
AcDbEntity
  8
0
  6
CONTINUOUS
 62
             7
100
AcDbLine
 10
-158.50999999999991
 20
-13.22
 11
-158.50999999999991
 21
-12.59500000000001
  0
LINE
  5
285
100
AcDbEntity
  8
0
  6
CONTINUOUS
 62
             7
100
AcDbLine
 10
-148.00999999999991
 20
6.31128784747854
 11
-157.70999999999989
 21
6.31128784747854
  0
LINE
  5
284
100
AcDbEntity
  8
0
  6
CONTINUOUS
 62
             7
100
AcDbLine
 10
-143.7799999999998
 20
3.08000000000004
 11
-143.46691418379021
 21
3.08000000000004
  0
LINE
  5
283
100
AcDbEntity
  8
0
  6
CONTINUOUS
 62
             7
100
AcDbLine
 10
-143.7799999999998
 20
1.48000000000004
 11
-143.46691418379021
 21
1.48000000000004
  0
LINE
  5
282
100
AcDbEntity
  8
0
  6
CONTINUOUS
 62
             7
100
AcDbLine
 10
-143.7799999999998
 20
1.48000000000004
 11
-144.04410161513761
 21
1.48000000000004
  0
LINE
  5
281
100
AcDbEntity
  8
0
  6
CONTINUOUS
 62
             7
100
AcDbLine
 10
-143.7799999999998
 20
3.08000000000004
 11
-144.04410161513761
 21
3.08000000000004
  0
LINE
  5
280
100
AcDbEntity
  8
0
  6
CONTINUOUS
 62
             7
100
AcDbLine
 10
-146.71397459621531
 20
3.08000000000004
 11
-147.71397459621511
 21
3.08000000000004
  0
LINE
  5
27F
100
AcDbEntity
  8
0
  6
CONTINUOUS
 62
             7
100
AcDbLine
 10
-146.71397459621531
 20
1.48000000000004
 11
-147.71397459621511
 21
1.48000000000004
  0
LINE
  5
27E
100
AcDbEntity
  8
0
  6
CONTINUOUS
 62
             7
100
AcDbLine
 10
-145.04410161513761
 20
3.08000000000004
 11
-144.04410161513761
 21
3.08000000000004
  0
LINE
  5
27D
100
AcDbEntity
  8
0
  6
CONTINUOUS
 62
             7
100
AcDbLine
 10
-145.04410161513761
 20
1.48000000000004
 11
-144.04410161513761
 21
1.48000000000004
  0
LINE
  5
27C
100
AcDbEntity
  8
0
  6
CONTINUOUS
 62
             7
100
AcDbLine
 10
-145.04410161513761
 20
3.08000000000004
 11
-146.71397459621531
 21
3.08000000000004
  0
LINE
  5
27B
100
AcDbEntity
  8
0
  6
CONTINUOUS
 62
             7
100
AcDbLine
 10
-145.04410161513761
 20
1.48000000000004
 11
-146.71397459621531
 21
1.48000000000004
  0
LINE
  5
27A
100
AcDbEntity
  8
0
  6
CONTINUOUS
 62
             7
100
AcDbLine
 10
-143.77999999999989
 20
6.56000000000004
 11
-143.27999999999989
 21
6.56000000000004
  0
LINE
  5
279
100
AcDbEntity
  8
0
  6
CONTINUOUS
 62
             7
100
AcDbLine
 10
-159.8367854785221
 20
1.97000000000004
 11
-159.70999999999989
 21
1.97000000000004
  0
LINE
  5
278
100
AcDbEntity
  8
0
  6
CONTINUOUS
 62
             7
100
AcDbLine
 10
-160.37999999999991
 20
-9.27000000000001
 11
-160.38410990348439
 21
-9.27000000000001
  0
LINE
  5
277
100
AcDbEntity
  8
0
  6
CONTINUOUS
 62
             7
100
AcDbLine
 10
-159.7150681158185
 20
-9.27000000000001
 11
-160.37999999999991
 21
-9.27000000000001
  0
LINE
  5
276
100
AcDbEntity
  8
0
  6
CONTINUOUS
 62
             7
100
AcDbLine
 10
-159.8367854785221
 20
-9.17000000000002
 11
-159.70999999999989
 21
-9.17000000000002
  0
LINE
  5
275
100
AcDbEntity
  8
0
  6
CONTINUOUS
 62
             7
100
AcDbLine
 10
-160.00999999999991
 20
-9.17000000000002
 11
-159.8367854785221
 21
-9.17000000000002
  0
LINE
  5
274
100
AcDbEntity
  8
0
  6
CONTINUOUS
 62
             7
100
AcDbLine
 10
-160.00999999999991
 20
-9.17000000000002
 11
-160.00999999999991
 21
-8.19000000000002
  0
LINE
  5
273
100
AcDbEntity
  8
0
  6
CONTINUOUS
 62
             7
100
AcDbLine
 10
-160.37999999999991
 20
-13.17000000000002
 11
-160.38410990348439
 21
-13.17000000000002
  0
LINE
  5
272
100
AcDbEntity
  8
0
  6
CONTINUOUS
 62
             7
100
AcDbLine
 10
-159.7150681158185
 20
-13.17000000000002
 11
-160.37999999999991
 21
-13.17000000000002
  0
LINE
  5
271
100
AcDbEntity
  8
0
  6
CONTINUOUS
 62
             7
100
AcDbLine
 10
-160.00999999999991
 20
1.97000000000004
 11
-159.8367854785221
 21
1.97000000000004
  0
LINE
  5
270
100
AcDbEntity
  8
0
  6
CONTINUOUS
 62
             7
100
AcDbLine
 10
-158.50999999999991
 20
-9.17000000000002
 11
-158.50999999999991
 21
-8.82000000000001
  0
LINE
  5
26F
100
AcDbEntity
  8
0
  6
CONTINUOUS
 62
             7
100
AcDbLine
 10
-158.70999999999989
 20
1.97000000000004
 11
-159.70999999999989
 21
1.97000000000004
  0
LINE
  5
26E
100
AcDbEntity
  8
0
  6
CONTINUOUS
 62
             7
100
AcDbLine
 10
-159.70999999999989
 20
-9.17000000000002
 11
-158.70999999999989
 21
-9.17000000000002
  0
LINE
  5
26D
100
AcDbEntity
  8
0
  6
CONTINUOUS
 62
             7
100
AcDbLine
 10
-159.4799999999999
 20
-13.17000000000002
 11
-158.70999999999989
 21
-13.17000000000002
  0
LINE
  5
26C
100
AcDbEntity
  8
0
  6
CONTINUOUS
 62
             7
100
AcDbLine
 10
-159.7150681158185
 20
-13.17000000000002
 11
-159.4799999999999
 21
-13.17000000000002
  0
LINE
  5
26B
100
AcDbEntity
  8
0
  6
CONTINUOUS
 62
             7
100
AcDbLine
 10
-158.50999999999991
 20
-9.84500000000001
 11
-158.50999999999991
 21
-9.27000000000001
  0
LINE
  5
26A
100
AcDbEntity
  8
0
  6
CONTINUOUS
 62
             7
100
AcDbLine
 10
-159.4799999999999
 20
-9.27000000000001
 11
-158.70999999999989
 21
-9.27000000000001
  0
LINE
  5
269
100
AcDbEntity
  8
0
  6
CONTINUOUS
 62
             7
100
AcDbLine
 10
-159.7150681158185
 20
-9.27000000000001
 11
-159.4799999999999
 21
-9.27000000000001
  0
LINE
  5
268
100
AcDbEntity
  8
0
  6
CONTINUOUS
 62
             7
100
AcDbLine
 10
-157.70999999999989
 20
1.72871215252159
 11
-157.71000000000001
 21
2.60754845034033
  0
LINE
  5
267
100
AcDbEntity
  8
0
  6
CONTINUOUS
 62
             7
100
AcDbLine
 10
-157.70999999999989
 20
-8.92871215252156
 11
-157.70999999999989
 21
-8.43128784747847
  0
LINE
  5
266
100
AcDbEntity
  8
0
  6
CONTINUOUS
 62
             7
100
AcDbLine
 10
-157.71000000000001
 20
-9.4075484503403
 11
-157.70999999999989
 21
-8.92871215252156
  0
LINE
  5
265
100
AcDbEntity
  8
0
  6
CONTINUOUS
 62
             7
100
AcDbLine
 10
-157.71000000000001
 20
-9.4075484503403
 11
-157.71000000000001
 21
-11.02000000000001
  0
LINE
  5
264
100
AcDbEntity
  8
0
  6
CONTINUOUS
 62
             7
100
AcDbLine
 10
-157.70999999999989
 20
-11.22000000000001
 11
-157.71000000000001
 21
-12.63245154965972
  0
LINE
  5
263
100
AcDbEntity
  8
0
  6
CONTINUOUS
 62
             7
100
AcDbLine
 10
-157.71000000000001
 20
-11.02000000000001
 11
-157.70999999999989
 21
-11.22000000000001
  0
LINE
  5
262
100
AcDbEntity
  8
0
  6
CONTINUOUS
 62
             7
100
AcDbLine
 10
-148.00999999999991
 20
-11.22
 11
-148.00999999999991
 21
-8.92871215252156
  0
LINE
  5
261
100
AcDbEntity
  8
0
  6
CONTINUOUS
 62
             7
100
AcDbLine
 10
-150.3599999999999
 20
-10.04500000000002
 11
-150.3599999999999
 21
-12.39500000000001
  0
LINE
  5
260
100
AcDbEntity
  8
0
  6
CONTINUOUS
 62
             7
100
AcDbLine
 10
-149.21666603726189
 20
-10.045
 11
-149.18499999999989
 21
-10.045
  0
LINE
  5
25F
100
AcDbEntity
  8
0
  6
CONTINUOUS
 62
             7
100
AcDbLine
 10
-150.3599999999999
 20
-10.04500000000002
 11
-149.21666603726189
 21
-10.045
  0
LINE
  5
25E
100
AcDbEntity
  8
0
  6
CONTINUOUS
 62
             7
100
AcDbLine
 10
-149.21666603726189
 20
-12.39500000000001
 11
-149.18499999999989
 21
-12.395
  0
LINE
  5
25D
100
AcDbEntity
  8
0
  6
CONTINUOUS
 62
             7
100
AcDbLine
 10
-150.3599999999999
 20
-12.39500000000001
 11
-149.21666603726189
 21
-12.39500000000001
  0
LINE
  5
25C
100
AcDbEntity
  8
0
  6
CONTINUOUS
 62
             7
100
AcDbLine
 10
-148.00999999999991
 20
1.72871215252159
 11
-157.70999999999989
 21
1.72871215252159
  0
LINE
  5
25B
100
AcDbEntity
  8
0
  6
CONTINUOUS
 62
             7
100
AcDbLine
 10
-148.00999999999991
 20
-8.92871215252156
 11
-157.70999999999989
 21
-8.92871215252156
  0
LINE
  5
25A
100
AcDbEntity
  8
0
  6
CONTINUOUS
 62
             7
100
AcDbLine
 10
-148.00999999999991
 20
1.72871215252159
 11
-148.00999999999991
 21
4.02000000000004
  0
LINE
  5
259
100
AcDbEntity
  8
0
  6
CONTINUOUS
 62
             7
100
AcDbLine
 10
-149.21666603726189
 20
2.84500000000004
 11
-149.18499999999989
 21
2.84500000000004
  0
LINE
  5
258
100
AcDbEntity
  8
0
  6
CONTINUOUS
 62
             7
100
AcDbLine
 10
-155.00999999999991
 20
6.56000000000004
 11
-143.77999999999989
 21
6.56000000000004
  0
LINE
  5
257
100
AcDbEntity
  8
0
  6
CONTINUOUS
 62
             7
100
AcDbLine
 10
-160.37999999999991
 20
-14.35000000000001
 11
-160.38410990348439
 21
-14.35000000000001
  0
LINE
  5
256
100
AcDbEntity
  8
0
  6
CONTINUOUS
 62
             7
100
AcDbLine
 10
-160.38410990348439
 20
-14.35000000000001
 11
-160.5799999999999
 21
-14.35000000000001
  0
LINE
  5
255
100
AcDbEntity
  8
0
  6
CONTINUOUS
 62
             7
100
AcDbLine
 10
-160.5799999999999
 20
-18.25000000000001
 11
-160.5799999999999
 21
-14.35000000000001
  0
LINE
  5
254
100
AcDbEntity
  8
0
  6
CONTINUOUS
 62
             7
100
AcDbLine
 10
-160.38410990348439
 20
-18.25000000000001
 11
-160.5799999999999
 21
-18.25000000000001
  0
LINE
  5
253
100
AcDbEntity
  8
0
  6
CONTINUOUS
 62
             7
100
AcDbLine
 10
-160.37999999999991
 20
-18.25000000000001
 11
-160.38410990348439
 21
-18.25000000000001
  0
LINE
  5
252
100
AcDbEntity
  8
0
  6
CONTINUOUS
 62
             7
100
AcDbLine
 10
-159.4799999999999
 20
-18.25000000000001
 11
-158.70999999999989
 21
-18.25000000000001
  0
LINE
  5
251
100
AcDbEntity
  8
0
  6
CONTINUOUS
 62
             7
100
AcDbLine
 10
-160.37999999999991
 20
-18.25000000000001
 11
-159.7150681158185
 21
-18.25000000000001
  0
LINE
  5
250
100
AcDbEntity
  8
0
  6
CONTINUOUS
 62
             7
100
AcDbLine
 10
-159.7150681158185
 20
-18.25000000000001
 11
-159.4799999999999
 21
-18.25000000000001
  0
LINE
  5
24F
100
AcDbEntity
  8
0
  6
CONTINUOUS
 62
             7
100
AcDbLine
 10
-158.70999999999989
 20
-18.35000000000001
 11
-159.70999999999989
 21
-18.35000000000001
  0
LINE
  5
24E
100
AcDbEntity
  8
0
  6
CONTINUOUS
 62
             7
100
AcDbLine
 10
-159.8367854785221
 20
-18.35000000000001
 11
-159.70999999999989
 21
-18.35000000000001
  0
LINE
  5
24D
100
AcDbEntity
  8
0
  6
CONTINUOUS
 62
             7
100
AcDbLine
 10
-160.00999999999991
 20
-18.35000000000001
 11
-159.8367854785221
 21
-18.35000000000001
  0
LINE
  5
24C
100
AcDbEntity
  8
0
  6
CONTINUOUS
 62
             7
100
AcDbLine
 10
-148.00999999999991
 20
-19.08871215252155
 11
-157.70999999999989
 21
-19.08871215252155
  0
LINE
  5
24B
100
AcDbEntity
  8
0
  6
CONTINUOUS
 62
             7
100
AcDbLine
 10
-143.46691418379021
 20
3.08000000000004
 11
-143.24999999999969
 21
3.08000000000004
  0
LINE
  5
24A
100
AcDbEntity
  8
0
  6
CONTINUOUS
 62
             7
100
AcDbLine
 10
-143.46691418379021
 20
1.48000000000004
 11
-143.24999999999969
 21
1.48000000000004
  0
LINE
  5
249
100
AcDbEntity
  8
0
  6
CONTINUOUS
 62
             7
100
AcDbLine
 10
-148.00999999999991
 20
-21.38000000000001
 11
-148.00999999999991
 21
-19.08871215252155
  0
LINE
  5
248
100
AcDbEntity
  8
0
  6
CONTINUOUS
 62
             7
100
AcDbLine
 10
-160.5799999999999
 20
-23.33
 11
-160.5799999999999
 21
-19.43000000000001
  0
LINE
  5
247
100
AcDbEntity
  8
0
  6
CONTINUOUS
 62
             7
100
AcDbLine
 10
-160.38410990348439
 20
-23.33
 11
-160.5799999999999
 21
-23.33
  0
LINE
  5
246
100
AcDbEntity
  8
0
  6
CONTINUOUS
 62
             7
100
AcDbLine
 10
-160.37999999999991
 20
-23.33
 11
-160.38410990348439
 21
-23.33
  0
LINE
  5
245
100
AcDbEntity
  8
0
  6
CONTINUOUS
 62
             7
100
AcDbLine
 10
-160.38410990348439
 20
-19.43000000000001
 11
-160.5799999999999
 21
-19.43000000000001
  0
LINE
  5
244
100
AcDbEntity
  8
0
  6
CONTINUOUS
 62
             7
100
AcDbLine
 10
-160.37999999999991
 20
-19.43000000000001
 11
-160.38410990348439
 21
-19.43000000000001
  0
LINE
  5
243
100
AcDbEntity
  8
0
  6
CONTINUOUS
 62
             7
100
AcDbLine
 10
-157.70999999999989
 20
-19.08871215252155
 11
-157.70999999999989
 21
-18.59128784747847
  0
LINE
  5
242
100
AcDbEntity
  8
0
  6
CONTINUOUS
 62
             7
100
AcDbLine
 10
-157.71000000000001
 20
-19.5675484503403
 11
-157.70999999999989
 21
-19.08871215252155
  0
LINE
  5
241
100
AcDbEntity
  8
0
  6
CONTINUOUS
 62
             7
100
AcDbLine
 10
-143.77999999999989
 20
-29.0
 11
-143.7799999999998
 21
-25.52000000000001
  0
LINE
  5
240
100
AcDbEntity
  8
0
  6
CONTINUOUS
 62
             7
100
AcDbLine
 10
-160.5799999999999
 20
-28.41000000000001
 11
-160.5799999999999
 21
-24.51000000000001
  0
LINE
  5
23F
100
AcDbEntity
  8
0
  6
CONTINUOUS
 62
             7
100
AcDbLine
 10
-159.4799999999999
 20
-28.41000000000001
 11
-158.70999999999989
 21
-28.41000000000001
  0
LINE
  5
23E
100
AcDbEntity
  8
0
  6
CONTINUOUS
 62
             7
100
AcDbLine
 10
-160.37999999999991
 20
-28.41000000000001
 11
-159.7150681158185
 21
-28.41000000000001
  0
LINE
  5
23D
100
AcDbEntity
  8
0
  6
CONTINUOUS
 62
             7
100
AcDbLine
 10
-159.7150681158185
 20
-28.41000000000001
 11
-159.4799999999999
 21
-28.41000000000001
  0
LINE
  5
23C
100
AcDbEntity
  8
0
  6
CONTINUOUS
 62
             7
100
AcDbLine
 10
-160.38410990348439
 20
-28.41000000000001
 11
-160.37999999999991
 21
-28.41000000000001
  0
LINE
  5
23B
100
AcDbEntity
  8
0
  6
CONTINUOUS
 62
             7
100
AcDbLine
 10
-160.5799999999999
 20
-28.41000000000001
 11
-160.38410990348439
 21
-28.41000000000001
  0
LINE
  5
23A
100
AcDbEntity
  8
0
  6
CONTINUOUS
 62
             7
100
AcDbLine
 10
-160.38410990348439
 20
-24.51000000000001
 11
-160.37999999999991
 21
-24.51000000000001
  0
LINE
  5
239
100
AcDbEntity
  8
0
  6
CONTINUOUS
 62
             7
100
AcDbLine
 10
-159.4799999999999
 20
-24.51000000000001
 11
-158.70999999999989
 21
-24.51000000000001
  0
LINE
  5
238
100
AcDbEntity
  8
0
  6
CONTINUOUS
 62
             7
100
AcDbLine
 10
-160.37999999999991
 20
-24.51000000000001
 11
-159.7150681158185
 21
-24.51000000000001
  0
LINE
  5
237
100
AcDbEntity
  8
0
  6
CONTINUOUS
 62
             7
100
AcDbLine
 10
-159.7150681158185
 20
-24.51000000000001
 11
-159.4799999999999
 21
-24.51000000000001
  0
LINE
  5
236
100
AcDbEntity
  8
0
  6
CONTINUOUS
 62
             7
100
AcDbLine
 10
-149.21666603726189
 20
-25.28500000000001
 11
-150.3599999999999
 21
-25.28500000000001
  0
LINE
  5
235
100
AcDbEntity
  8
0
  6
CONTINUOUS
 62
             7
100
AcDbLine
 10
-149.21666603726189
 20
-25.28500000000001
 11
-149.18499999999989
 21
-25.28500000000001
  0
LINE
  5
234
100
AcDbEntity
  8
0
  6
CONTINUOUS
 62
             7
100
AcDbLine
 10
-150.3599999999999
 20
-27.63500000000001
 11
-150.3599999999999
 21
-25.28500000000001
  0
LINE
  5
233
100
AcDbEntity
  8
0
  6
CONTINUOUS
 62
             7
100
AcDbLine
 10
-143.7799999999998
 20
-25.52000000000001
 11
-143.46691418379021
 21
-25.52000000000001
  0
LINE
  5
232
100
AcDbEntity
  8
0
  6
CONTINUOUS
 62
             7
100
AcDbLine
 10
-143.46691418379021
 20
-25.52000000000001
 11
-143.24999999999969
 21
-25.52000000000001
  0
LINE
  5
231
100
AcDbEntity
  8
0
  6
CONTINUOUS
 62
             7
100
AcDbLine
 10
-143.7799999999998
 20
-25.52000000000001
 11
-144.04410161513761
 21
-25.52000000000001
  0
LINE
  5
230
100
AcDbEntity
  8
0
  6
CONTINUOUS
 62
             7
100
AcDbLine
 10
-145.04410161513761
 20
-25.52000000000001
 11
-144.04410161513761
 21
-25.52000000000001
  0
LINE
  5
22F
100
AcDbEntity
  8
0
  6
CONTINUOUS
 62
             7
100
AcDbLine
 10
-149.21666603726189
 20
-27.63500000000001
 11
-150.3599999999999
 21
-27.63500000000001
  0
LINE
  5
22E
100
AcDbEntity
  8
0
  6
CONTINUOUS
 62
             7
100
AcDbLine
 10
-149.21666603726189
 20
-27.63500000000001
 11
-149.18499999999989
 21
-27.63500000000001
  0
LINE
  5
22D
100
AcDbEntity
  8
0
  6
CONTINUOUS
 62
             7
100
AcDbLine
 10
-146.71397459621531
 20
-25.52000000000001
 11
-147.71397459621511
 21
-25.52000000000001
  0
LINE
  5
22C
100
AcDbEntity
  8
0
  6
CONTINUOUS
 62
             7
100
AcDbLine
 10
-145.04410161513761
 20
-25.52000000000001
 11
-146.71397459621531
 21
-25.52000000000001
  0
LINE
  5
22B
100
AcDbEntity
  8
0
  6
CONTINUOUS
 62
             7
100
AcDbLine
 10
-160.5799999999999
 20
-24.51000000000001
 11
-160.38410990348439
 21
-24.51000000000001
  0
LINE
  5
22A
100
AcDbEntity
  8
0
  6
CONTINUOUS
 62
             7
100
AcDbLine
 10
-160.00999999999991
 20
-28.51000000000001
 11
-159.8367854785221
 21
-28.51000000000001
  0
LINE
  5
229
100
AcDbEntity
  8
0
  6
CONTINUOUS
 62
             7
100
AcDbLine
 10
-160.00999999999991
 20
-29.0
 11
-159.8367854785221
 21
-29.0
  0
LINE
  5
228
100
AcDbEntity
  8
0
  6
CONTINUOUS
 62
             7
100
AcDbLine
 10
-159.70999999999989
 20
-28.51000000000001
 11
-158.70999999999989
 21
-28.51000000000001
  0
LINE
  5
227
100
AcDbEntity
  8
0
  6
CONTINUOUS
 62
             7
100
AcDbLine
 10
-160.00999999999991
 20
-29.0
 11
-160.00999999999991
 21
-28.51000000000001
  0
LINE
  5
226
100
AcDbEntity
  8
0
  6
CONTINUOUS
 62
             7
100
AcDbLine
 10
-159.70999999999989
 20
-29.0
 11
-158.70999999999989
 21
-29.0
  0
LINE
  5
225
100
AcDbEntity
  8
0
  6
CONTINUOUS
 62
             7
100
AcDbLine
 10
-159.8367854785221
 20
-28.51000000000001
 11
-159.70999999999989
 21
-28.51000000000001
  0
LINE
  5
224
100
AcDbEntity
  8
0
  6
CONTINUOUS
 62
             7
100
AcDbLine
 10
-159.8367854785221
 20
-29.0
 11
-159.70999999999989
 21
-29.0
  0
LINE
  5
223
100
AcDbEntity
  8
0
  6
CONTINUOUS
 62
             7
100
AcDbLine
 10
-155.36000000000001
 20
-29.0
 11
-157.70999999999989
 21
-29.0
  0
LINE
  5
222
100
AcDbEntity
  8
0
  6
CONTINUOUS
 62
             7
100
AcDbLine
 10
-148.00999999999991
 20
-28.75128784747851
 11
-157.70999999999989
 21
-28.75128784747851
  0
LINE
  5
221
100
AcDbEntity
  8
0
  6
CONTINUOUS
 62
             7
100
AcDbLine
 10
-148.00999999999991
 20
-28.75128784747851
 11
-148.00999999999991
 21
-26.46000000000001
  0
LINE
  5
220
100
AcDbEntity
  8
0
  6
CONTINUOUS
 62
             7
100
AcDbLine
 10
-148.00999999999991
 20
-26.46000000000001
 11
-148.00999999999991
 21
-24.16871215252161
  0
LINE
  5
21F
100
AcDbEntity
  8
0
  6
CONTINUOUS
 62
             7
100
AcDbLine
 10
-143.77999999999989
 20
-29.0
 11
-143.27999999999989
 21
-29.0
  0
LINE
  5
21E
100
AcDbEntity
  8
0
  6
CONTINUOUS
 62
             7
100
AcDbLine
 10
-155.36000000000001
 20
-29.0
 11
-143.77999999999989
 21
-29.0
  0
LINE
  5
21D
100
AcDbEntity
  8
0
  6
CONTINUOUS
 62
             7
100
AcDbLine
 10
-148.00999999999991
 20
-3.84871215252156
 11
-157.70999999999989
 21
-3.84871215252156
  0
LINE
  5
21C
100
AcDbEntity
  8
0
  6
CONTINUOUS
 62
             7
100
AcDbLine
 10
-150.3599999999999
 20
-7.31500000000002
 11
-149.21666603726189
 21
-7.31500000000002
  0
LINE
  5
21B
100
AcDbEntity
  8
0
  6
CONTINUOUS
 62
             7
100
AcDbLine
 10
-149.21666603726189
 20
-7.31500000000002
 11
-149.18499999999989
 21
-7.315
  0
LINE
  5
21A
100
AcDbEntity
  8
0
  6
CONTINUOUS
 62
             7
100
AcDbLine
 10
-150.3599999999999
 20
-4.96500000000002
 11
-149.21666603726189
 21
-4.96500000000001
  0
LINE
  5
219
100
AcDbEntity
  8
0
  6
CONTINUOUS
 62
             7
100
AcDbLine
 10
-149.21666603726189
 20
-4.96500000000001
 11
-149.18499999999989
 21
-4.96500000000001
  0
LINE
  5
218
100
AcDbEntity
  8
0
  6
CONTINUOUS
 62
             7
100
AcDbLine
 10
-150.3599999999999
 20
-4.96500000000002
 11
-150.3599999999999
 21
-7.31500000000002
  0
LINE
  5
217
100
AcDbEntity
  8
0
  6
CONTINUOUS
 62
             7
100
AcDbLine
 10
-148.00999999999991
 20
-6.14000000000001
 11
-148.00999999999991
 21
-3.84871215252156
  0
LINE
  5
216
100
AcDbEntity
  8
0
  6
CONTINUOUS
 62
             7
100
AcDbLine
 10
-157.71000000000001
 20
-5.94000000000002
 11
-157.70999999999989
 21
-6.14000000000001
  0
LINE
  5
215
100
AcDbEntity
  8
0
  6
CONTINUOUS
 62
             7
100
AcDbLine
 10
-157.70999999999989
 20
-6.14000000000001
 11
-157.71000000000001
 21
-7.55245154965973
  0
LINE
  5
214
100
AcDbEntity
  8
0
  6
CONTINUOUS
 62
             7
100
AcDbLine
 10
-157.71000000000001
 20
-4.32754845034031
 11
-157.71000000000001
 21
-5.94000000000002
  0
LINE
  5
213
100
AcDbEntity
  8
0
  6
CONTINUOUS
 62
             7
100
AcDbLine
 10
-157.71000000000001
 20
-4.32754845034031
 11
-157.70999999999989
 21
-3.84871215252156
  0
LINE
  5
212
100
AcDbEntity
  8
0
  6
CONTINUOUS
 62
             7
100
AcDbLine
 10
-157.70999999999989
 20
-3.84871215252156
 11
-157.70999999999989
 21
-3.35128784747847
  0
LINE
  5
211
100
AcDbEntity
  8
0
  6
CONTINUOUS
 62
             7
100
AcDbLine
 10
-159.7150681158185
 20
-4.19000000000002
 11
-159.4799999999999
 21
-4.19000000000002
  0
LINE
  5
210
100
AcDbEntity
  8
0
  6
CONTINUOUS
 62
             7
100
AcDbLine
 10
-159.4799999999999
 20
-4.19000000000002
 11
-158.70999999999989
 21
-4.19000000000002
  0
LINE
  5
20F
100
AcDbEntity
  8
0
  6
CONTINUOUS
 62
             7
100
AcDbLine
 10
-158.50999999999991
 20
-4.76500000000002
 11
-158.50999999999991
 21
-4.19000000000002
  0
LINE
  5
20E
100
AcDbEntity
  8
0
  6
CONTINUOUS
 62
             7
100
AcDbLine
 10
-159.7150681158185
 20
-8.09000000000002
 11
-159.4799999999999
 21
-8.09000000000002
  0
LINE
  5
20D
100
AcDbEntity
  8
0
  6
CONTINUOUS
 62
             7
100
AcDbLine
 10
-159.4799999999999
 20
-8.09000000000002
 11
-158.70999999999989
 21
-8.09000000000002
  0
LINE
  5
20C
100
AcDbEntity
  8
0
  6
CONTINUOUS
 62
             7
100
AcDbLine
 10
-159.70999999999989
 20
-4.09000000000002
 11
-158.70999999999989
 21
-4.09000000000002
  0
LINE
  5
20B
100
AcDbEntity
  8
0
  6
CONTINUOUS
 62
             7
100
AcDbLine
 10
-158.50999999999991
 20
-4.09000000000002
 11
-158.50999999999991
 21
-3.74000000000001
  0
LINE
  5
20A
100
AcDbEntity
  8
0
  6
CONTINUOUS
 62
             7
100
AcDbLine
 10
-159.7150681158185
 20
-8.09000000000002
 11
-160.37999999999991
 21
-8.09000000000002
  0
LINE
  5
209
100
AcDbEntity
  8
0
  6
CONTINUOUS
 62
             7
100
AcDbLine
 10
-160.37999999999991
 20
-8.09000000000002
 11
-160.38410990348439
 21
-8.09000000000002
  0
LINE
  5
208
100
AcDbEntity
  8
0
  6
CONTINUOUS
 62
             7
100
AcDbLine
 10
-160.00999999999991
 20
-4.09000000000002
 11
-160.00999999999991
 21
-3.11000000000002
  0
LINE
  5
207
100
AcDbEntity
  8
0
  6
CONTINUOUS
 62
             7
100
AcDbLine
 10
-160.00999999999991
 20
-4.09000000000002
 11
-159.8367854785221
 21
-4.09000000000002
  0
LINE
  5
206
100
AcDbEntity
  8
0
  6
CONTINUOUS
 62
             7
100
AcDbLine
 10
-159.8367854785221
 20
-4.09000000000002
 11
-159.70999999999989
 21
-4.09000000000002
  0
LINE
  5
205
100
AcDbEntity
  8
0
  6
CONTINUOUS
 62
             7
100
AcDbLine
 10
-159.7150681158185
 20
-4.19000000000002
 11
-160.37999999999991
 21
-4.19000000000002
  0
LINE
  5
204
100
AcDbEntity
  8
0
  6
CONTINUOUS
 62
             7
100
AcDbLine
 10
-160.37999999999991
 20
-4.19000000000002
 11
-160.38410990348439
 21
-4.19000000000002
  0
LINE
  5
203
100
AcDbEntity
  8
0
  6
CONTINUOUS
 62
             7
100
AcDbLine
 10
-158.50999999999991
 20
-8.14000000000001
 11
-158.50999999999991
 21
-7.51500000000001
  0
LINE
  5
202
100
AcDbEntity
  8
0
  6
CONTINUOUS
 62
             7
100
AcDbLine
 10
-158.50999999999991
 20
-7.51500000000001
 11
-158.50999999999991
 21
-4.76500000000002
  0
LINE
  5
201
100
AcDbEntity
  8
0
  6
CONTINUOUS
 62
             7
100
AcDbLine
 10
-148.00999999999991
 20
-8.43128784747846
 11
-148.00999999999991
 21
-6.14000000000001
  0
LINE
  5
200
100
AcDbEntity
  8
0
  6
CONTINUOUS
 62
             7
100
AcDbLine
 10
-157.70999999999989
 20
-8.43128784747847
 11
-157.71000000000001
 21
-7.55245154965973
  0
LINE
  5
1FF
100
AcDbEntity
  8
0
  6
CONTINUOUS
 62
             7
100
AcDbLine
 10
-148.00999999999991
 20
-8.43128784747846
 11
-157.70999999999989
 21
-8.43128784747847
  0
LINE
  5
1FE
100
AcDbEntity
  8
0
  6
CONTINUOUS
 62
             7
100
AcDbLine
 10
-159.8367854785221
 20
-8.19000000000002
 11
-160.00999999999991
 21
-8.19000000000002
  0
LINE
  5
1FD
100
AcDbEntity
  8
0
  6
CONTINUOUS
 62
             7
100
AcDbLine
 10
-158.70999999999989
 20
-8.19000000000001
 11
-159.70999999999989
 21
-8.19000000000002
  0
LINE
  5
1FC
100
AcDbEntity
  8
0
  6
CONTINUOUS
 62
             7
100
AcDbLine
 10
-159.70999999999989
 20
-8.19000000000002
 11
-159.8367854785221
 21
-8.19000000000002
  0
LINE
  5
1FB
100
AcDbEntity
  8
0
  6
CONTINUOUS
 62
             7
100
AcDbLine
 10
-158.50999999999991
 20
-8.19000000000001
 11
-158.50999999999991
 21
-8.14000000000001
  0
LINE
  5
1FA
100
AcDbEntity
  8
0
  6
CONTINUOUS
 62
             7
100
AcDbLine
 10
-158.50999999999991
 20
-4.19000000000002
 11
-158.50999999999991
 21
-4.09000000000002
  0
LINE
  5
1F9
100
AcDbEntity
  8
0
  6
CONTINUOUS
 62
             7
100
AcDbLine
 10
-158.50999999999991
 20
-3.74000000000001
 11
-158.50999999999991
 21
-3.11000000000002
  0
LINE
  5
1F8
100
AcDbEntity
  8
0
  6
CONTINUOUS
 62
             7
100
AcDbLine
 10
-160.38410990348439
 20
-8.09000000000002
 11
-160.5799999999999
 21
-8.09000000000002
  0
LINE
  5
1F7
100
AcDbEntity
  8
0
  6
CONTINUOUS
 62
             7
100
AcDbLine
 10
-160.38410990348439
 20
-4.19000000000002
 11
-160.5799999999999
 21
-4.19000000000002
  0
LINE
  5
1F6
100
AcDbEntity
  8
0
  6
CONTINUOUS
 62
             7
100
AcDbLine
 10
-160.5799999999999
 20
-8.09000000000002
 11
-160.5799999999999
 21
-4.19000000000002
  0
LINE
  5
1F5
100
AcDbEntity
  8
0
  6
CONTINUOUS
 62
             7
100
AcDbLine
 10
-158.70999999999989
 20
-8.19000000000001
 11
-158.70999999999989
 21
-4.09000000000002
  0
LINE
  5
1F4
100
AcDbEntity
  8
0
  6
CONTINUOUS
 62
             7
100
AcDbLine
 10
-158.70999999999989
 20
-4.09000000000002
 11
-158.70999999999989
 21
-3.11000000000002
  0
LINE
  5
1F3
100
AcDbEntity
  8
0
  6
CONTINUOUS
 62
             7
100
AcDbLine
 10
-158.70999999999989
 20
0.98999999999997
 11
-158.70999999999989
 21
1.97000000000004
  0
LINE
  5
1F2
100
AcDbEntity
  8
0
  6
CONTINUOUS
 62
             7
100
AcDbLine
 10
-158.70999999999989
 20
-3.11000000000002
 11
-158.70999999999989
 21
0.98999999999997
  0
LINE
  5
1F1
100
AcDbEntity
  8
0
  6
CONTINUOUS
 62
             7
100
AcDbLine
 10
-160.5799999999999
 20
-3.01000000000003
 11
-160.5799999999999
 21
0.88999999999998
  0
LINE
  5
1F0
100
AcDbEntity
  8
0
  6
CONTINUOUS
 62
             7
100
AcDbLine
 10
-160.38410990348439
 20
0.88999999999998
 11
-160.5799999999999
 21
0.88999999999998
  0
LINE
  5
1EF
100
AcDbEntity
  8
0
  6
CONTINUOUS
 62
             7
100
AcDbLine
 10
-160.38410990348439
 20
-3.01000000000003
 11
-160.5799999999999
 21
-3.01000000000003
  0
LINE
  5
1EE
100
AcDbEntity
  8
0
  6
CONTINUOUS
 62
             7
100
AcDbLine
 10
-158.50999999999991
 20
1.33999999999998
 11
-158.50999999999991
 21
1.97000000000004
  0
LINE
  5
1ED
100
AcDbEntity
  8
0
  6
CONTINUOUS
 62
             7
100
AcDbLine
 10
-158.50999999999991
 20
0.88999999999998
 11
-158.50999999999991
 21
0.98999999999997
  0
LINE
  5
1EC
100
AcDbEntity
  8
0
  6
CONTINUOUS
 62
             7
100
AcDbLine
 10
-158.50999999999991
 20
-3.11000000000002
 11
-158.50999999999991
 21
-3.06000000000001
  0
LINE
  5
1EB
100
AcDbEntity
  8
0
  6
CONTINUOUS
 62
             7
100
AcDbLine
 10
-159.70999999999989
 20
-3.11000000000002
 11
-159.8367854785221
 21
-3.11000000000002
  0
LINE
  5
1EA
100
AcDbEntity
  8
0
  6
CONTINUOUS
 62
             7
100
AcDbLine
 10
-158.70999999999989
 20
-3.11000000000002
 11
-159.70999999999989
 21
-3.11000000000002
  0
LINE
  5
1E9
100
AcDbEntity
  8
0
  6
CONTINUOUS
 62
             7
100
AcDbLine
 10
-159.8367854785221
 20
-3.11000000000002
 11
-160.00999999999991
 21
-3.11000000000002
  0
LINE
  5
1E8
100
AcDbEntity
  8
0
  6
CONTINUOUS
 62
             7
100
AcDbLine
 10
-148.00999999999991
 20
-3.35128784747846
 11
-157.70999999999989
 21
-3.35128784747847
  0
LINE
  5
1E7
100
AcDbEntity
  8
0
  6
CONTINUOUS
 62
             7
100
AcDbLine
 10
-157.70999999999989
 20
-3.35128784747847
 11
-157.71000000000001
 21
-2.47245154965973
  0
LINE
  5
1E6
100
AcDbEntity
  8
0
  6
CONTINUOUS
 62
             7
100
AcDbLine
 10
-148.00999999999991
 20
-3.35128784747846
 11
-148.00999999999991
 21
-1.06000000000001
  0
LINE
  5
1E5
100
AcDbEntity
  8
0
  6
CONTINUOUS
 62
             7
100
AcDbLine
 10
-158.50999999999991
 20
-2.43500000000002
 11
-158.50999999999991
 21
0.31499999999998
  0
LINE
  5
1E4
100
AcDbEntity
  8
0
  6
CONTINUOUS
 62
             7
100
AcDbLine
 10
-158.50999999999991
 20
-3.06000000000001
 11
-158.50999999999991
 21
-2.43500000000002
  0
LINE
  5
1E3
100
AcDbEntity
  8
0
  6
CONTINUOUS
 62
             7
100
AcDbLine
 10
-160.37999999999991
 20
0.88999999999998
 11
-160.38410990348439
 21
0.88999999999998
  0
LINE
  5
1E2
100
AcDbEntity
  8
0
  6
CONTINUOUS
 62
             7
100
AcDbLine
 10
-159.7150681158185
 20
0.88999999999998
 11
-160.37999999999991
 21
0.88999999999998
  0
LINE
  5
1E1
100
AcDbEntity
  8
0
  6
CONTINUOUS
 62
             7
100
AcDbLine
 10
-159.8367854785221
 20
0.98999999999997
 11
-159.70999999999989
 21
0.98999999999997
  0
LINE
  5
1E0
100
AcDbEntity
  8
0
  6
CONTINUOUS
 62
             7
100
AcDbLine
 10
-160.00999999999991
 20
0.98999999999997
 11
-159.8367854785221
 21
0.98999999999997
  0
LINE
  5
1DF
100
AcDbEntity
  8
0
  6
CONTINUOUS
 62
             7
100
AcDbLine
 10
-160.00999999999991
 20
0.98999999999997
 11
-160.00999999999991
 21
1.97000000000004
  0
LINE
  5
1DE
100
AcDbEntity
  8
0
  6
CONTINUOUS
 62
             7
100
AcDbLine
 10
-160.37999999999991
 20
-3.01000000000003
 11
-160.38410990348439
 21
-3.01000000000003
  0
LINE
  5
1DD
100
AcDbEntity
  8
0
  6
CONTINUOUS
 62
             7
100
AcDbLine
 10
-159.7150681158185
 20
-3.01000000000003
 11
-160.37999999999991
 21
-3.01000000000003
  0
LINE
  5
1DC
100
AcDbEntity
  8
0
  6
CONTINUOUS
 62
             7
100
AcDbLine
 10
-158.50999999999991
 20
0.98999999999997
 11
-158.50999999999991
 21
1.33999999999998
  0
LINE
  5
1DB
100
AcDbEntity
  8
0
  6
CONTINUOUS
 62
             7
100
AcDbLine
 10
-159.70999999999989
 20
0.98999999999997
 11
-158.70999999999989
 21
0.98999999999997
  0
LINE
  5
1DA
100
AcDbEntity
  8
0
  6
CONTINUOUS
 62
             7
100
AcDbLine
 10
-159.4799999999999
 20
-3.01000000000003
 11
-158.70999999999989
 21
-3.01000000000003
  0
LINE
  5
1D9
100
AcDbEntity
  8
0
  6
CONTINUOUS
 62
             7
100
AcDbLine
 10
-159.7150681158185
 20
-3.01000000000003
 11
-159.4799999999999
 21
-3.01000000000003
  0
LINE
  5
1D8
100
AcDbEntity
  8
0
  6
CONTINUOUS
 62
             7
100
AcDbLine
 10
-158.50999999999991
 20
0.31499999999998
 11
-158.50999999999991
 21
0.88999999999998
  0
LINE
  5
1D7
100
AcDbEntity
  8
0
  6
CONTINUOUS
 62
             7
100
AcDbLine
 10
-159.4799999999999
 20
0.88999999999998
 11
-158.70999999999989
 21
0.88999999999998
  0
LINE
  5
1D6
100
AcDbEntity
  8
0
  6
CONTINUOUS
 62
             7
100
AcDbLine
 10
-159.7150681158185
 20
0.88999999999998
 11
-159.4799999999999
 21
0.88999999999998
  0
LINE
  5
1D5
100
AcDbEntity
  8
0
  6
CONTINUOUS
 62
             7
100
AcDbLine
 10
-157.70999999999989
 20
1.23128784747843
 11
-157.70999999999989
 21
1.72871215252159
  0
LINE
  5
1D4
100
AcDbEntity
  8
0
  6
CONTINUOUS
 62
             7
100
AcDbLine
 10
-157.71000000000001
 20
0.75245154965969
 11
-157.70999999999989
 21
1.23128784747843
  0
LINE
  5
1D3
100
AcDbEntity
  8
0
  6
CONTINUOUS
 62
             7
100
AcDbLine
 10
-157.71000000000001
 20
0.75245154965969
 11
-157.71000000000001
 21
-0.86000000000002
  0
LINE
  5
1D2
100
AcDbEntity
  8
0
  6
CONTINUOUS
 62
             7
100
AcDbLine
 10
-157.70999999999989
 20
-1.06000000000002
 11
-157.71000000000001
 21
-2.47245154965973
  0
LINE
  5
1D1
100
AcDbEntity
  8
0
  6
CONTINUOUS
 62
             7
100
AcDbLine
 10
-157.71000000000001
 20
-0.86000000000002
 11
-157.70999999999989
 21
-1.06000000000002
  0
LINE
  5
1D0
100
AcDbEntity
  8
0
  6
CONTINUOUS
 62
             7
100
AcDbLine
 10
-148.00999999999991
 20
-1.06000000000001
 11
-148.00999999999991
 21
1.23128784747843
  0
LINE
  5
1CF
100
AcDbEntity
  8
0
  6
CONTINUOUS
 62
             7
100
AcDbLine
 10
-150.3599999999999
 20
0.11499999999997
 11
-150.3599999999999
 21
-2.23500000000002
  0
LINE
  5
1CE
100
AcDbEntity
  8
0
  6
CONTINUOUS
 62
             7
100
AcDbLine
 10
-149.21666603726189
 20
0.11499999999999
 11
-149.18499999999989
 21
0.11499999999999
  0
LINE
  5
1CD
100
AcDbEntity
  8
0
  6
CONTINUOUS
 62
             7
100
AcDbLine
 10
-150.3599999999999
 20
0.11499999999997
 11
-149.21666603726189
 21
0.11499999999999
  0
LINE
  5
1CC
100
AcDbEntity
  8
0
  6
CONTINUOUS
 62
             7
100
AcDbLine
 10
-149.21666603726189
 20
-2.23500000000002
 11
-149.18499999999989
 21
-2.23500000000001
  0
LINE
  5
1CB
100
AcDbEntity
  8
0
  6
CONTINUOUS
 62
             7
100
AcDbLine
 10
-150.3599999999999
 20
-2.23500000000002
 11
-149.21666603726189
 21
-2.23500000000002
  0
LINE
  5
1CA
100
AcDbEntity
  8
0
  6
CONTINUOUS
 62
             7
100
AcDbLine
 10
-148.00999999999991
 20
1.23128784747843
 11
-157.70999999999989
 21
1.23128784747843
  0
LINE
  5
1C9
100
AcDbEntity
  8
0
  6
CONTINUOUS
 62
             7
100
AcDbLine
 10
-202.6249999999996
 20
0.16500000000001
 11
-203.79999999999961
 21
0.16500000000001
  0
LINE
  5
1C8
100
AcDbEntity
  8
0
  6
CONTINUOUS
 62
             7
100
AcDbLine
 10
-201.19999999999959
 20
6.61
 11
-202.40000000000089
 21
6.61
  0
LINE
  5
1C7
100
AcDbEntity
  8
0
  6
CONTINUOUS
 62
             7
100
AcDbLine
 10
-200.89999999999961
 20
4.06999999999999
 11
-200.89999999999961
 21
6.61
  0
LINE
  5
1C6
100
AcDbEntity
  8
0
  6
CONTINUOUS
 62
             7
100
AcDbLine
 10
-204.29999999999961
 20
-28.95
 11
-204.29999999999961
 21
6.61
  0
LINE
  5
1C5
100
AcDbEntity
  8
0
  6
CONTINUOUS
 62
             7
100
AcDbLine
 10
-204.29999999999961
 20
6.61
 11
-204.28499999999971
 21
6.61
  0
LINE
  5
1C4
100
AcDbEntity
  8
0
  6
CONTINUOUS
 62
             7
100
AcDbLine
 10
-202.90000000000089
 20
6.61
 11
-203.1107958125788
 21
6.61
  0
LINE
  5
1C3
100
AcDbEntity
  8
0
  6
CONTINUOUS
 62
             7
100
AcDbLine
 10
-202.40000000000089
 20
6.61
 11
-202.90000000000089
 21
6.61
  0
LINE
  5
1C2
100
AcDbEntity
  8
0
  6
CONTINUOUS
 62
             7
100
AcDbLine
 10
-203.1107958125788
 20
6.61
 11
-203.22500852618151
 21
6.61
  0
LINE
  5
1C1
100
AcDbEntity
  8
0
  6
CONTINUOUS
 62
             7
100
AcDbLine
 10
-204.28499999999971
 20
-28.95
 11
-203.89999999999961
 21
-28.95
  0
LINE
  5
1C0
100
AcDbEntity
  8
0
  6
CONTINUOUS
 62
             7
100
AcDbLine
 10
-204.29999999999961
 20
-28.95
 11
-204.28499999999971
 21
-28.95
  0
LINE
  5
1BF
100
AcDbEntity
  8
0
  6
CONTINUOUS
 62
             7
100
AcDbLine
 10
-200.9000000000012
 20
3.13
 11
-200.89999999999961
 21
4.06999999999999
  0
LINE
  5
1BE
100
AcDbEntity
  8
0
  6
CONTINUOUS
 62
             7
100
AcDbLine
 10
-200.89999999999961
 20
-6.09000000000001
 11
-200.89999999999961
 21
-1.01
  0
LINE
  5
1BD
100
AcDbEntity
  8
0
  6
CONTINUOUS
 62
             7
100
AcDbLine
 10
-203.79999999999961
 20
-2.18500000000002
 11
-203.79999999999961
 21
-2.38500000000001
  0
LINE
  5
1BC
100
AcDbEntity
  8
0
  6
CONTINUOUS
 62
             7
100
AcDbLine
 10
-202.6249999999996
 20
-2.38500000000001
 11
-203.79999999999961
 21
-2.38500000000001
  0
LINE
  5
1BB
100
AcDbEntity
  8
0
  6
CONTINUOUS
 62
             7
100
AcDbLine
 10
-203.79999999999961
 20
-2.18500000000002
 11
-203.79999999999961
 21
0.16500000000001
  0
LINE
  5
1BA
100
AcDbEntity
  8
0
  6
CONTINUOUS
 62
             7
100
AcDbLine
 10
-203.79999999999961
 20
-2.18500000000002
 11
-202.6249999999996
 21
-2.18500000000002
  0
LINE
  5
1B9
100
AcDbEntity
  8
0
  6
CONTINUOUS
 62
             7
100
AcDbLine
 10
-202.6249999999996
 20
-4.71500000000002
 11
-203.79999999999961
 21
-4.71500000000002
  0
LINE
  5
1B8
100
AcDbEntity
  8
0
  6
CONTINUOUS
 62
             7
100
AcDbLine
 10
-203.79999999999961
 20
-4.71500000000002
 11
-203.79999999999961
 21
-4.91500000000001
  0
LINE
  5
1B7
100
AcDbEntity
  8
0
  6
CONTINUOUS
 62
             7
100
AcDbLine
 10
-201.19999999999959
 20
-28.95
 11
-200.89999999999961
 21
-28.95
  0
LINE
  5
1B6
100
AcDbEntity
  8
0
  6
CONTINUOUS
 62
             7
100
AcDbLine
 10
-200.89999999999961
 20
-11.17000000000001
 11
-200.89999999999961
 21
-6.09000000000001
  0
LINE
  5
1B5
100
AcDbEntity
  8
0
  6
CONTINUOUS
 62
             7
100
AcDbLine
 10
-200.89999999999961
 20
-16.25
 11
-200.89999999999961
 21
-11.17000000000001
  0
LINE
  5
1B4
100
AcDbEntity
  8
0
  6
CONTINUOUS
 62
             7
100
AcDbLine
 10
-200.89999999999961
 20
-21.33000000000001
 11
-200.89999999999961
 21
-16.25
  0
LINE
  5
1B3
100
AcDbEntity
  8
0
  6
CONTINUOUS
 62
             7
100
AcDbLine
 10
-200.9000000000012
 20
-23.87000000000001
 11
-200.89999999999961
 21
-21.33000000000001
  0
LINE
  5
1B2
100
AcDbEntity
  8
0
  6
CONTINUOUS
 62
             7
100
AcDbLine
 10
-200.89999999999961
 20
-28.95
 11
-200.89999999999961
 21
-26.41
  0
LINE
  5
1B1
100
AcDbEntity
  8
0
  6
CONTINUOUS
 62
             7
100
AcDbLine
 10
-200.9000000000012
 20
-25.47
 11
-200.9000000000012
 21
-23.87000000000001
  0
LINE
  5
1B0
100
AcDbEntity
  8
0
  6
CONTINUOUS
 62
             7
100
AcDbLine
 10
-200.89999999999961
 20
-26.41
 11
-200.9000000000012
 21
-25.47
  0
LINE
  5
1AF
100
AcDbEntity
  8
0
  6
CONTINUOUS
 62
             7
100
AcDbLine
 10
-203.79999999999961
 20
-7.26500000000001
 11
-203.79999999999961
 21
-7.46500000000002
  0
LINE
  5
1AE
100
AcDbEntity
  8
0
  6
CONTINUOUS
 62
             7
100
AcDbLine
 10
-202.6249999999996
 20
-7.46500000000002
 11
-203.79999999999961
 21
-7.46500000000002
  0
LINE
  5
1AD
100
AcDbEntity
  8
0
  6
CONTINUOUS
 62
             7
100
AcDbLine
 10
-202.6249999999996
 20
-4.91500000000001
 11
-203.79999999999961
 21
-4.91500000000001
  0
LINE
  5
1AC
100
AcDbEntity
  8
0
  6
CONTINUOUS
 62
             7
100
AcDbLine
 10
-202.6249999999996
 20
-7.26500000000001
 11
-203.79999999999961
 21
-7.26500000000001
  0
LINE
  5
1AB
100
AcDbEntity
  8
0
  6
CONTINUOUS
 62
             7
100
AcDbLine
 10
-203.79999999999961
 20
-7.26500000000001
 11
-203.79999999999961
 21
-4.91500000000001
  0
LINE
  5
1AA
100
AcDbEntity
  8
0
  6
CONTINUOUS
 62
             7
100
AcDbLine
 10
-203.79999999999961
 20
-12.345
 11
-202.6249999999996
 21
-12.34500000000001
  0
LINE
  5
1A9
100
AcDbEntity
  8
0
  6
CONTINUOUS
 62
             7
100
AcDbLine
 10
-203.79999999999961
 20
-12.345
 11
-203.79999999999961
 21
-9.995
  0
LINE
  5
1A8
100
AcDbEntity
  8
0
  6
CONTINUOUS
 62
             7
100
AcDbLine
 10
-203.79999999999961
 20
-9.79500000000002
 11
-203.79999999999961
 21
-9.995
  0
LINE
  5
1A7
100
AcDbEntity
  8
0
  6
CONTINUOUS
 62
             7
100
AcDbLine
 10
-202.6249999999996
 20
-9.79500000000002
 11
-203.79999999999961
 21
-9.79500000000002
  0
LINE
  5
1A6
100
AcDbEntity
  8
0
  6
CONTINUOUS
 62
             7
100
AcDbLine
 10
-202.6249999999996
 20
-9.99500000000002
 11
-203.79999999999961
 21
-9.995
  0
LINE
  5
1A5
100
AcDbEntity
  8
0
  6
CONTINUOUS
 62
             7
100
AcDbLine
 10
-202.6249999999996
 20
-12.54500000000002
 11
-203.79999999999961
 21
-12.54500000000001
  0
LINE
  5
1A4
100
AcDbEntity
  8
0
  6
CONTINUOUS
 62
             7
100
AcDbLine
 10
-203.79999999999961
 20
-12.345
 11
-203.79999999999961
 21
-12.54500000000001
  0
LINE
  5
1A3
100
AcDbEntity
  8
0
  6
CONTINUOUS
 62
             7
100
AcDbLine
 10
-202.6249999999996
 20
-27.78500000000002
 11
-203.79999999999961
 21
-27.785
  0
LINE
  5
1A2
100
AcDbEntity
  8
0
  6
CONTINUOUS
 62
             7
100
AcDbLine
 10
-203.79999999999961
 20
-27.58499999999999
 11
-203.79999999999961
 21
-27.785
  0
LINE
  5
1A1
100
AcDbEntity
  8
0
  6
CONTINUOUS
 62
             7
100
AcDbLine
 10
-201.91999999999959
 20
-25.47
 11
-201.93000000000089
 21
-25.47
  0
LINE
  5
1A0
100
AcDbEntity
  8
0
  6
CONTINUOUS
 62
             7
100
AcDbLine
 10
-203.79999999999961
 20
-25.235
 11
-203.79999999999961
 21
-27.58499999999999
  0
LINE
  5
19F
100
AcDbEntity
  8
0
  6
CONTINUOUS
 62
             7
100
AcDbLine
 10
-202.6249999999996
 20
-27.58500000000002
 11
-203.79999999999961
 21
-27.58499999999999
  0
LINE
  5
19E
100
AcDbEntity
  8
0
  6
CONTINUOUS
 62
             7
100
AcDbLine
 10
-202.6249999999996
 20
-25.23500000000002
 11
-203.79999999999961
 21
-25.235
  0
LINE
  5
19D
100
AcDbEntity
  8
0
  6
CONTINUOUS
 62
             7
100
AcDbLine
 10
-203.79999999999961
 20
-25.035
 11
-203.79999999999961
 21
-25.235
  0
LINE
  5
19C
100
AcDbEntity
  8
0
  6
CONTINUOUS
 62
             7
100
AcDbLine
 10
-202.6249999999996
 20
-25.03500000000002
 11
-203.79999999999961
 21
-25.035
  0
LINE
  5
19B
100
AcDbEntity
  8
0
  6
CONTINUOUS
 62
             7
100
AcDbLine
 10
-203.79999999999961
 20
-22.505
 11
-203.79999999999961
 21
-22.70500000000002
  0
LINE
  5
19A
100
AcDbEntity
  8
0
  6
CONTINUOUS
 62
             7
100
AcDbLine
 10
-203.79999999999961
 20
-22.505
 11
-202.6249999999996
 21
-22.50500000000002
  0
LINE
  5
199
100
AcDbEntity
  8
0
  6
CONTINUOUS
 62
             7
100
AcDbLine
 10
-203.79999999999961
 20
-20.15500000000002
 11
-203.79999999999961
 21
-22.505
  0
LINE
  5
198
100
AcDbEntity
  8
0
  6
CONTINUOUS
 62
             7
100
AcDbLine
 10
-202.6249999999996
 20
-20.15500000000002
 11
-203.79999999999961
 21
-20.15500000000002
  0
LINE
  5
197
100
AcDbEntity
  8
0
  6
CONTINUOUS
 62
             7
100
AcDbLine
 10
-202.6249999999996
 20
-19.95500000000002
 11
-203.79999999999961
 21
-19.95500000000002
  0
LINE
  5
196
100
AcDbEntity
  8
0
  6
CONTINUOUS
 62
             7
100
AcDbLine
 10
-202.6249999999996
 20
-17.62500000000001
 11
-203.79999999999961
 21
-17.62499999999999
  0
LINE
  5
195
100
AcDbEntity
  8
0
  6
CONTINUOUS
 62
             7
100
AcDbLine
 10
-203.79999999999961
 20
-17.42499999999999
 11
-203.79999999999961
 21
-17.62499999999999
  0
LINE
  5
194
100
AcDbEntity
  8
0
  6
CONTINUOUS
 62
             7
100
AcDbLine
 10
-203.79999999999961
 20
-14.875
 11
-203.79999999999961
 21
-15.075
  0
LINE
  5
193
100
AcDbEntity
  8
0
  6
CONTINUOUS
 62
             7
100
AcDbLine
 10
-203.79999999999961
 20
-15.075
 11
-203.79999999999961
 21
-17.42499999999999
  0
LINE
  5
192
100
AcDbEntity
  8
0
  6
CONTINUOUS
 62
             7
100
AcDbLine
 10
-203.79999999999961
 20
-17.42499999999999
 11
-202.6249999999996
 21
-17.42500000000001
  0
LINE
  5
191
100
AcDbEntity
  8
0
  6
CONTINUOUS
 62
             7
100
AcDbLine
 10
-202.6249999999996
 20
-15.07500000000002
 11
-203.79999999999961
 21
-15.075
  0
LINE
  5
190
100
AcDbEntity
  8
0
  6
CONTINUOUS
 62
             7
100
AcDbLine
 10
-202.6249999999996
 20
-14.87500000000001
 11
-203.79999999999961
 21
-14.875
  0
LINE
  5
18F
100
AcDbEntity
  8
0
  6
CONTINUOUS
 62
             7
100
AcDbLine
 10
-203.79999999999961
 20
-19.95500000000002
 11
-203.79999999999961
 21
-20.15500000000002
  0
LINE
  5
18E
100
AcDbEntity
  8
0
  6
CONTINUOUS
 62
             7
100
AcDbLine
 10
-202.6249999999996
 20
-22.70500000000002
 11
-203.79999999999961
 21
-22.70500000000002
  0
LINE
  5
18D
100
AcDbEntity
  8
0
  6
CONTINUOUS
 62
             7
100
AcDbLine
 10
-203.41897459621521
 20
-28.95
 11
-203.89999999999961
 21
-28.95
  0
LINE
  5
18C
100
AcDbEntity
  8
0
  6
CONTINUOUS
 62
             7
100
AcDbLine
 10
-202.40000000000089
 20
-28.95
 11
-203.41897459621521
 21
-28.95
  0
LINE
  5
18B
100
AcDbEntity
  8
0
  6
CONTINUOUS
 62
             7
100
AcDbLine
 10
-201.19999999999959
 20
-28.95
 11
-202.40000000000089
 21
-28.95
  0
LINE
  5
18A
100
AcDbEntity
  8
0
  6
CONTINUOUS
 62
             7
100
AcDbLine
 10
-200.9000000000012
 20
1.53
 11
-200.9000000000012
 21
3.13
  0
LINE
  5
189
100
AcDbEntity
  8
0
  6
CONTINUOUS
 62
             7
100
AcDbLine
 10
-200.89999999999961
 20
-1.01
 11
-200.9000000000012
 21
1.53
  0
LINE
  5
188
100
AcDbEntity
  8
0
  6
CONTINUOUS
 62
             7
100
AcDbLine
 10
-201.91999999999959
 20
3.13
 11
-201.93000000000089
 21
3.13
  0
LINE
  5
187
100
AcDbEntity
  8
0
  6
CONTINUOUS
 62
             7
100
AcDbLine
 10
-202.6249999999996
 20
2.895
 11
-203.79999999999961
 21
2.89499999999999
  0
LINE
  5
186
100
AcDbEntity
  8
0
  6
CONTINUOUS
 62
             7
100
AcDbLine
 10
-203.79999999999961
 20
2.89499999999999
 11
-203.79999999999961
 21
2.69499999999998
  0
LINE
  5
185
100
AcDbEntity
  8
0
  6
CONTINUOUS
 62
             7
100
AcDbLine
 10
-202.6249999999996
 20
2.69499999999999
 11
-203.79999999999961
 21
2.69499999999998
  0
LINE
  5
184
100
AcDbEntity
  8
0
  6
CONTINUOUS
 62
             7
100
AcDbLine
 10
-203.79999999999961
 20
2.89499999999999
 11
-203.79999999999961
 21
5.245
  0
LINE
  5
183
100
AcDbEntity
  8
0
  6
CONTINUOUS
 62
             7
100
AcDbLine
 10
-203.89999999999961
 20
-28.95
 11
-203.89999999999961
 21
6.61
  0
LINE
  5
182
100
AcDbEntity
  8
0
  6
CONTINUOUS
 62
             7
100
AcDbLine
 10
-200.89999999999961
 20
6.61
 11
-201.19999999999959
 21
6.61
  0
LINE
  5
181
100
AcDbEntity
  8
0
  6
CONTINUOUS
 62
             7
100
AcDbLine
 10
-203.38310538561501
 20
6.61
 11
-203.41897459621521
 21
6.61
  0
LINE
  5
180
100
AcDbEntity
  8
0
  6
CONTINUOUS
 62
             7
100
AcDbLine
 10
-210.5499999999997
 20
-4.04000000000001
 11
-210.5499999999997
 21
-8.14000000000001
  0
LINE
  5
17F
100
AcDbEntity
  8
0
  6
CONTINUOUS
 62
             7
100
AcDbLine
 10
-208.19999999999959
 20
6.61
 11
-208.39999999999961
 21
6.61
  0
LINE
  5
17E
100
AcDbEntity
  8
0
  6
CONTINUOUS
 62
             7
100
AcDbLine
 10
-208.39999999999961
 20
6.11999999999999
 11
-208.39999999999961
 21
6.61
  0
LINE
  5
17D
100
AcDbEntity
  8
0
  6
CONTINUOUS
 62
             7
100
AcDbLine
 10
-208.19999999999959
 20
6.11999999999999
 11
-208.39999999999961
 21
6.11999999999999
  0
LINE
  5
17C
100
AcDbEntity
  8
0
  6
CONTINUOUS
 62
             7
100
AcDbLine
 10
-203.79999999999961
 20
5.44499999999998
 11
-203.79999999999961
 21
5.245
  0
LINE
  5
17B
100
AcDbEntity
  8
0
  6
CONTINUOUS
 62
             7
100
AcDbLine
 10
-203.79999999999961
 20
5.44499999999998
 11
-202.6249999999996
 21
5.44499999999999
  0
LINE
  5
17A
100
AcDbEntity
  8
0
  6
CONTINUOUS
 62
             7
100
AcDbLine
 10
-203.79999999999961
 20
5.245
 11
-202.6249999999996
 21
5.24499999999999
  0
LINE
  5
179
100
AcDbEntity
  8
0
  6
CONTINUOUS
 62
             7
100
AcDbLine
 10
-202.6249999999996
 20
0.36499999999999
 11
-203.79999999999961
 21
0.36499999999999
  0
LINE
  5
178
100
AcDbEntity
  8
0
  6
CONTINUOUS
 62
             7
100
AcDbLine
 10
-203.79999999999961
 20
0.36499999999999
 11
-203.79999999999961
 21
0.16500000000001
  0
LINE
  5
177
100
AcDbEntity
  8
0
  6
CONTINUOUS
 62
             7
100
AcDbLine
 10
-208.39999999999961
 20
6.11999999999999
 11
-208.39999999999961
 21
2.02
  0
LINE
  5
176
100
AcDbEntity
  8
0
  6
CONTINUOUS
 62
             7
100
AcDbLine
 10
-203.89999999999961
 20
6.61
 11
-203.76528976152349
 21
6.61
  0
LINE
  5
175
100
AcDbEntity
  8
0
  6
CONTINUOUS
 62
             7
100
AcDbLine
 10
-204.5870944389298
 20
6.61
 11
-204.7293298638655
 21
6.61
  0
LINE
  5
174
100
AcDbEntity
  8
0
  6
CONTINUOUS
 62
             7
100
AcDbLine
 10
-204.7293298638655
 20
6.61
 11
-204.96927881483839
 21
6.61
  0
LINE
  5
173
100
AcDbEntity
  8
0
  6
CONTINUOUS
 62
             7
100
AcDbLine
 10
-204.96927881483839
 20
6.61
 11
-205.1273756742718
 21
6.61
  0
LINE
  5
172
100
AcDbEntity
  8
0
  6
CONTINUOUS
 62
             7
100
AcDbLine
 10
-203.22500852618151
 20
6.61
 11
-203.38310538561501
 21
6.61
  0
LINE
  5
171
100
AcDbEntity
  8
0
  6
CONTINUOUS
 62
             7
100
AcDbLine
 10
-203.41897459621521
 20
6.61
 11
-203.62305433658781
 21
6.61
  0
LINE
  5
170
100
AcDbEntity
  8
0
  6
CONTINUOUS
 62
             7
100
AcDbLine
 10
-203.62305433658781
 20
6.61
 11
-203.76528976152349
 21
6.61
  0
LINE
  5
16F
100
AcDbEntity
  8
0
  6
CONTINUOUS
 62
             7
100
AcDbLine
 10
-205.416894614379
 20
6.61
 11
-205.1273756742718
 21
6.61
  0
LINE
  5
16E
100
AcDbEntity
  8
0
  6
CONTINUOUS
 62
             7
100
AcDbLine
 10
-205.416894614379
 20
6.61
 11
-205.5749914738125
 21
6.61
  0
LINE
  5
16D
100
AcDbEntity
  8
0
  6
CONTINUOUS
 62
             7
100
AcDbLine
 10
-204.28499999999971
 20
6.61
 11
-204.1761921002267
 21
6.61
  0
LINE
  5
16C
100
AcDbEntity
  8
0
  6
CONTINUOUS
 62
             7
100
AcDbLine
 10
-204.5870944389298
 20
6.61
 11
-204.40455423051949
 21
6.61
  0
LINE
  5
16B
100
AcDbEntity
  8
0
  6
CONTINUOUS
 62
             7
100
AcDbLine
 10
-204.0999999999996
 20
6.61
 11
-203.94782996993391
 21
6.61
  0
LINE
  5
16A
100
AcDbEntity
  8
0
  6
CONTINUOUS
 62
             7
100
AcDbLine
 10
-203.94782996993391
 20
6.61
 11
-203.89999999999961
 21
6.61
  0
LINE
  5
169
100
AcDbEntity
  8
0
  6
CONTINUOUS
 62
             7
100
AcDbLine
 10
-204.1761921002267
 20
6.61
 11
-204.0999999999996
 21
6.61
  0
LINE
  5
168
100
AcDbEntity
  8
0
  6
CONTINUOUS
 62
             7
100
AcDbLine
 10
-204.40455423051949
 20
6.61
 11
-204.29999999999961
 21
6.61
  0
LINE
  5
167
100
AcDbEntity
  8
0
  6
CONTINUOUS
 62
             7
100
AcDbLine
 10
-205.5749914738125
 20
6.61
 11
-205.68920418742289
 21
6.61
  0
LINE
  5
166
100
AcDbEntity
  8
0
  6
CONTINUOUS
 62
             7
100
AcDbLine
 10
-205.68920418742289
 20
6.61
 11
-205.90000000000089
 21
6.61
  0
LINE
  5
165
100
AcDbEntity
  8
0
  6
CONTINUOUS
 62
             7
100
AcDbLine
 10
-206.99903783772709
 20
6.61
 11
-207.199999866025
 21
6.61
  0
LINE
  5
164
100
AcDbEntity
  8
0
  6
CONTINUOUS
 62
             7
100
AcDbLine
 10
-207.40096189432299
 20
6.61
 11
-208.19999999999959
 21
6.61
  0
LINE
  5
163
100
AcDbEntity
  8
0
  6
CONTINUOUS
 62
             7
100
AcDbLine
 10
-207.199999866025
 20
6.61
 11
-207.40096189432299
 21
6.61
  0
LINE
  5
162
100
AcDbEntity
  8
0
  6
CONTINUOUS
 62
             7
100
AcDbLine
 10
-205.90000000000089
 20
6.61
 11
-206.99903783772709
 21
6.61
  0
LINE
  5
161
100
AcDbEntity
  8
0
  6
CONTINUOUS
 62
             7
100
AcDbLine
 10
-208.69999999999959
 20
6.61
 11
-208.39999999999961
 21
6.61
  0
LINE
  5
160
100
AcDbEntity
  8
0
  6
CONTINUOUS
 62
             7
100
AcDbLine
 10
-208.39999999999961
 20
1.04000000000001
 11
-208.39999999999961
 21
-3.06000000000002
  0
LINE
  5
15F
100
AcDbEntity
  8
0
  6
CONTINUOUS
 62
             7
100
AcDbLine
 10
-208.47499999999951
 20
-2.96000000000001
 11
-208.47499999999951
 21
0.94
  0
LINE
  5
15E
100
AcDbEntity
  8
0
  6
CONTINUOUS
 62
             7
100
AcDbLine
 10
-208.39999999999961
 20
-4.04000000000001
 11
-208.39999999999961
 21
-3.06000000000002
  0
LINE
  5
15D
100
AcDbEntity
  8
0
  6
CONTINUOUS
 62
             7
100
AcDbLine
 10
-208.19999999999959
 20
-4.04000000000001
 11
-208.39999999999961
 21
-4.04000000000001
  0
LINE
  5
15C
100
AcDbEntity
  8
0
  6
CONTINUOUS
 62
             7
100
AcDbLine
 10
-208.19999999999959
 20
-3.06000000000002
 11
-208.39999999999961
 21
-3.06000000000002
  0
LINE
  5
15B
100
AcDbEntity
  8
0
  6
CONTINUOUS
 62
             7
100
AcDbLine
 10
-208.47499999999951
 20
-4.14000000000001
 11
-208.67499999999961
 21
-4.14000000000001
  0
LINE
  5
15A
100
AcDbEntity
  8
0
  6
CONTINUOUS
 62
             7
100
AcDbLine
 10
-208.67499999999961
 20
0.94
 11
-208.47499999999951
 21
0.94
  0
LINE
  5
159
100
AcDbEntity
  8
0
  6
CONTINUOUS
 62
             7
100
AcDbLine
 10
-208.67499999999961
 20
-2.96000000000001
 11
-208.47499999999951
 21
-2.96000000000001
  0
LINE
  5
158
100
AcDbEntity
  8
0
  6
CONTINUOUS
 62
             7
100
AcDbLine
 10
-208.39999999999961
 20
-4.04000000000001
 11
-208.69999999999959
 21
-4.04000000000001
  0
LINE
  5
157
100
AcDbEntity
  8
0
  6
CONTINUOUS
 62
             7
100
AcDbLine
 10
-208.69999999999959
 20
-8.14000000000001
 11
-208.39999999999961
 21
-8.14000000000001
  0
LINE
  5
156
100
AcDbEntity
  8
0
  6
CONTINUOUS
 62
             7
100
AcDbLine
 10
-208.39999999999961
 20
-4.04000000000001
 11
-208.39999999999961
 21
-8.14000000000001
  0
LINE
  5
155
100
AcDbEntity
  8
0
  6
CONTINUOUS
 62
             7
100
AcDbLine
 10
-210.5813097706359
 20
-3.06000000000002
 11
-210.5813097706359
 21
-4.04000000000001
  0
LINE
  5
154
100
AcDbEntity
  8
0
  6
CONTINUOUS
 62
             7
100
AcDbLine
 10
-210.3094174345249
 20
-4.04000000000001
 11
-210.5499999999997
 21
-4.04000000000001
  0
LINE
  5
153
100
AcDbEntity
  8
0
  6
CONTINUOUS
 62
             7
100
AcDbLine
 10
-208.69999999999959
 20
-4.04000000000001
 11
-210.3094174345249
 21
-4.04000000000001
  0
LINE
  5
152
100
AcDbEntity
  8
0
  6
CONTINUOUS
 62
             7
100
AcDbLine
 10
-208.69999999999959
 20
-3.06000000000002
 11
-208.39999999999961
 21
-3.06000000000002
  0
LINE
  5
151
100
AcDbEntity
  8
0
  6
CONTINUOUS
 62
             7
100
AcDbLine
 10
-208.67499999999961
 20
2.11999999999999
 11
-208.789714202673
 21
2.11999999999999
  0
LINE
  5
150
100
AcDbEntity
  8
0
  6
CONTINUOUS
 62
             7
100
AcDbLine
 10
-208.67499999999961
 20
6.02
 11
-208.789714202673
 21
6.02
  0
LINE
  5
14F
100
AcDbEntity
  8
0
  6
CONTINUOUS
 62
             7
100
AcDbLine
 10
-208.67499999999961
 20
0.94
 11
-208.789714202673
 21
0.94
  0
LINE
  5
14E
100
AcDbEntity
  8
0
  6
CONTINUOUS
 62
             7
100
AcDbLine
 10
-208.67499999999961
 20
-2.96000000000001
 11
-208.789714202673
 21
-2.96000000000001
  0
LINE
  5
14D
100
AcDbEntity
  8
0
  6
CONTINUOUS
 62
             7
100
AcDbLine
 10
-210.5499999999997
 20
1.04000000000001
 11
-210.5499999999997
 21
-3.06000000000002
  0
LINE
  5
14C
100
AcDbEntity
  8
0
  6
CONTINUOUS
 62
             7
100
AcDbLine
 10
-209.19999999999959
 20
6.61
 11
-210.3094174345249
 21
6.61
  0
LINE
  5
14B
100
AcDbEntity
  8
0
  6
CONTINUOUS
 62
             7
100
AcDbLine
 10
-208.69999999999959
 20
6.61
 11
-209.19999999999959
 21
6.61
  0
LINE
  5
14A
100
AcDbEntity
  8
0
  6
CONTINUOUS
 62
             7
100
AcDbLine
 10
-209.76788880213559
 20
0.94
 11
-209.91621179554619
 21
0.94
  0
LINE
  5
149
100
AcDbEntity
  8
0
  6
CONTINUOUS
 62
             7
100
AcDbLine
 10
-210.5813097706359
 20
2.02
 11
-210.5813097706359
 21
1.04000000000001
  0
LINE
  5
148
100
AcDbEntity
  8
0
  6
CONTINUOUS
 62
             7
100
AcDbLine
 10
-210.5813097706359
 20
1.04000000000001
 11
-210.5499999999997
 21
1.04000000000001
  0
LINE
  5
147
100
AcDbEntity
  8
0
  6
CONTINUOUS
 62
             7
100
AcDbLine
 10
-210.5813097706359
 20
2.02
 11
-210.5499999999997
 21
2.02
  0
LINE
  5
146
100
AcDbEntity
  8
0
  6
CONTINUOUS
 62
             7
100
AcDbLine
 10
-210.5813097706359
 20
6.11999999999999
 11
-210.5813097706359
 21
6.61
  0
LINE
  5
145
100
AcDbEntity
  8
0
  6
CONTINUOUS
 62
             7
100
AcDbLine
 10
-210.5813097706359
 20
6.61
 11
-210.3094174345249
 21
6.61
  0
LINE
  5
144
100
AcDbEntity
  8
0
  6
CONTINUOUS
 62
             7
100
AcDbLine
 10
-210.5499999999997
 20
6.11999999999999
 11
-210.5499999999997
 21
2.02
  0
LINE
  5
143
100
AcDbEntity
  8
0
  6
CONTINUOUS
 62
             7
100
AcDbLine
 10
-210.5813097706359
 20
6.11999999999999
 11
-210.5499999999997
 21
6.11999999999999
  0
LINE
  5
142
100
AcDbEntity
  8
0
  6
CONTINUOUS
 62
             7
100
AcDbLine
 10
-210.47499999999951
 20
0.94
 11
-210.27499999999949
 21
0.94
  0
LINE
  5
141
100
AcDbEntity
  8
0
  6
CONTINUOUS
 62
             7
100
AcDbLine
 10
-209.76788880213559
 20
-2.96000000000001
 11
-209.91621179554619
 21
-2.96000000000001
  0
LINE
  5
140
100
AcDbEntity
  8
0
  6
CONTINUOUS
 62
             7
100
AcDbLine
 10
-210.47499999999951
 20
-2.96000000000001
 11
-210.47499999999951
 21
0.94
  0
LINE
  5
13F
100
AcDbEntity
  8
0
  6
CONTINUOUS
 62
             7
100
AcDbLine
 10
-210.47499999999951
 20
-2.96000000000001
 11
-210.27499999999949
 21
-2.96000000000001
  0
LINE
  5
13E
100
AcDbEntity
  8
0
  6
CONTINUOUS
 62
             7
100
AcDbLine
 10
-210.1602857973262
 20
2.11999999999999
 11
-210.27499999999949
 21
2.11999999999999
  0
LINE
  5
13D
100
AcDbEntity
  8
0
  6
CONTINUOUS
 62
             7
100
AcDbLine
 10
-209.91621179554619
 20
2.11999999999999
 11
-210.1602857973262
 21
2.11999999999999
  0
LINE
  5
13C
100
AcDbEntity
  8
0
  6
CONTINUOUS
 62
             7
100
AcDbLine
 10
-209.76788880213559
 20
2.11999999999999
 11
-209.91621179554619
 21
2.11999999999999
  0
LINE
  5
13B
100
AcDbEntity
  8
0
  6
CONTINUOUS
 62
             7
100
AcDbLine
 10
-209.18211119786361
 20
2.11999999999999
 11
-209.76788880213559
 21
2.11999999999999
  0
LINE
  5
13A
100
AcDbEntity
  8
0
  6
CONTINUOUS
 62
             7
100
AcDbLine
 10
-209.033788204453
 20
2.11999999999999
 11
-209.18211119786361
 21
2.11999999999999
  0
LINE
  5
139
100
AcDbEntity
  8
0
  6
CONTINUOUS
 62
             7
100
AcDbLine
 10
-210.1602857973262
 20
6.02
 11
-210.27499999999949
 21
6.02
  0
LINE
  5
138
100
AcDbEntity
  8
0
  6
CONTINUOUS
 62
             7
100
AcDbLine
 10
-209.91621179554619
 20
6.02
 11
-210.1602857973262
 21
6.02
  0
LINE
  5
137
100
AcDbEntity
  8
0
  6
CONTINUOUS
 62
             7
100
AcDbLine
 10
-209.76788880213559
 20
6.02
 11
-209.91621179554619
 21
6.02
  0
LINE
  5
136
100
AcDbEntity
  8
0
  6
CONTINUOUS
 62
             7
100
AcDbLine
 10
-209.18211119786361
 20
6.02
 11
-209.76788880213559
 21
6.02
  0
LINE
  5
135
100
AcDbEntity
  8
0
  6
CONTINUOUS
 62
             7
100
AcDbLine
 10
-209.033788204453
 20
6.02
 11
-209.18211119786361
 21
6.02
  0
LINE
  5
134
100
AcDbEntity
  8
0
  6
CONTINUOUS
 62
             7
100
AcDbLine
 10
-210.3094174345249
 20
-3.06000000000002
 11
-208.69999999999959
 21
-3.06000000000002
  0
LINE
  5
133
100
AcDbEntity
  8
0
  6
CONTINUOUS
 62
             7
100
AcDbLine
 10
-210.5499999999997
 20
-3.06000000000002
 11
-210.3094174345249
 21
-3.06000000000002
  0
LINE
  5
132
100
AcDbEntity
  8
0
  6
CONTINUOUS
 62
             7
100
AcDbLine
 10
-209.18211119786361
 20
0.94
 11
-209.76788880213559
 21
0.94
  0
LINE
  5
131
100
AcDbEntity
  8
0
  6
CONTINUOUS
 62
             7
100
AcDbLine
 10
-209.033788204453
 20
0.94
 11
-209.18211119786361
 21
0.94
  0
LINE
  5
130
100
AcDbEntity
  8
0
  6
CONTINUOUS
 62
             7
100
AcDbLine
 10
-209.18211119786361
 20
-2.96000000000001
 11
-209.76788880213559
 21
-2.96000000000001
  0
LINE
  5
12F
100
AcDbEntity
  8
0
  6
CONTINUOUS
 62
             7
100
AcDbLine
 10
-209.033788204453
 20
-2.96000000000001
 11
-209.18211119786361
 21
-2.96000000000001
  0
LINE
  5
12E
100
AcDbEntity
  8
0
  6
CONTINUOUS
 62
             7
100
AcDbLine
 10
-210.47499999999951
 20
-8.04000000000001
 11
-210.47499999999951
 21
-4.14000000000001
  0
LINE
  5
12D
100
AcDbEntity
  8
0
  6
CONTINUOUS
 62
             7
100
AcDbLine
 10
-210.27499999999949
 20
-4.14000000000001
 11
-210.47499999999951
 21
-4.14000000000001
  0
LINE
  5
12C
100
AcDbEntity
  8
0
  6
CONTINUOUS
 62
             7
100
AcDbLine
 10
-209.033788204453
 20
-4.14000000000001
 11
-209.18211119786361
 21
-4.14000000000001
  0
LINE
  5
12B
100
AcDbEntity
  8
0
  6
CONTINUOUS
 62
             7
100
AcDbLine
 10
-208.789714202673
 20
-4.14000000000001
 11
-209.033788204453
 21
-4.14000000000001
  0
LINE
  5
12A
100
AcDbEntity
  8
0
  6
CONTINUOUS
 62
             7
100
AcDbLine
 10
-208.67499999999961
 20
-4.14000000000001
 11
-208.789714202673
 21
-4.14000000000001
  0
LINE
  5
129
100
AcDbEntity
  8
0
  6
CONTINUOUS
 62
             7
100
AcDbLine
 10
-209.18211119786361
 20
-4.14000000000001
 11
-209.76788880213559
 21
-4.14000000000001
  0
LINE
  5
128
100
AcDbEntity
  8
0
  6
CONTINUOUS
 62
             7
100
AcDbLine
 10
-209.76788880213559
 20
-4.14000000000001
 11
-209.91621179554619
 21
-4.14000000000001
  0
LINE
  5
127
100
AcDbEntity
  8
0
  6
CONTINUOUS
 62
             7
100
AcDbLine
 10
-210.1602857973262
 20
-4.14000000000001
 11
-210.27499999999949
 21
-4.14000000000001
  0
LINE
  5
126
100
AcDbEntity
  8
0
  6
CONTINUOUS
 62
             7
100
AcDbLine
 10
-209.91621179554619
 20
-4.14000000000001
 11
-210.1602857973262
 21
-4.14000000000001
  0
LINE
  5
125
100
AcDbEntity
  8
0
  6
CONTINUOUS
 62
             7
100
AcDbLine
 10
-208.4749999999996
 20
-8.04000000000001
 11
-208.47499999999951
 21
-4.14000000000001
  0
LINE
  5
124
100
AcDbEntity
  8
0
  6
CONTINUOUS
 62
             7
100
AcDbLine
 10
-210.27499999999949
 20
-8.04000000000001
 11
-210.47499999999951
 21
-8.04000000000001
  0
LINE
  5
123
100
AcDbEntity
  8
0
  6
CONTINUOUS
 62
             7
100
AcDbLine
 10
-209.18211119786361
 20
-8.04000000000001
 11
-209.76788880213559
 21
-8.04000000000001
  0
LINE
  5
122
100
AcDbEntity
  8
0
  6
CONTINUOUS
 62
             7
100
AcDbLine
 10
-209.033788204453
 20
-8.04000000000001
 11
-209.18211119786361
 21
-8.04000000000001
  0
LINE
  5
121
100
AcDbEntity
  8
0
  6
CONTINUOUS
 62
             7
100
AcDbLine
 10
-208.789714202673
 20
-8.04000000000001
 11
-209.033788204453
 21
-8.04000000000001
  0
LINE
  5
120
100
AcDbEntity
  8
0
  6
CONTINUOUS
 62
             7
100
AcDbLine
 10
-208.67499999999961
 20
-8.04000000000001
 11
-208.789714202673
 21
-8.04000000000001
  0
LINE
  5
11F
100
AcDbEntity
  8
0
  6
CONTINUOUS
 62
             7
100
AcDbLine
 10
-208.4749999999996
 20
-8.04000000000001
 11
-208.67499999999961
 21
-8.04000000000001
  0
LINE
  5
11E
100
AcDbEntity
  8
0
  6
CONTINUOUS
 62
             7
100
AcDbLine
 10
-209.76788880213559
 20
-8.04000000000001
 11
-209.91621179554619
 21
-8.04000000000001
  0
LINE
  5
11D
100
AcDbEntity
  8
0
  6
CONTINUOUS
 62
             7
100
AcDbLine
 10
-210.1602857973262
 20
-8.04000000000001
 11
-210.27499999999949
 21
-8.04000000000001
  0
LINE
  5
11C
100
AcDbEntity
  8
0
  6
CONTINUOUS
 62
             7
100
AcDbLine
 10
-209.91621179554619
 20
-8.04000000000001
 11
-210.1602857973262
 21
-8.04000000000001
  0
LINE
  5
11B
100
AcDbEntity
  8
0
  6
CONTINUOUS
 62
             7
100
AcDbLine
 10
-210.3094174345249
 20
-8.14000000000001
 11
-208.69999999999959
 21
-8.14000000000001
  0
LINE
  5
11A
100
AcDbEntity
  8
0
  6
CONTINUOUS
 62
             7
100
AcDbLine
 10
-210.5499999999997
 20
-8.14000000000001
 11
-210.3094174345249
 21
-8.14000000000001
  0
LINE
  5
119
100
AcDbEntity
  8
0
  6
CONTINUOUS
 62
             7
100
AcDbLine
 10
-208.19999999999959
 20
-8.14000000000001
 11
-208.39999999999961
 21
-8.14000000000001
  0
LINE
  5
118
100
AcDbEntity
  8
0
  6
CONTINUOUS
 62
             7
100
AcDbLine
 10
-215.89999999999961
 20
-5.89000000000001
 11
-215.89999999999961
 21
-0.81
  0
LINE
  5
117
100
AcDbEntity
  8
0
  6
CONTINUOUS
 62
             7
100
AcDbLine
 10
-208.19999999999959
 20
-9.12
 11
-208.39999999999961
 21
-9.12
  0
LINE
  5
116
100
AcDbEntity
  8
0
  6
CONTINUOUS
 62
             7
100
AcDbLine
 10
-208.69999999999959
 20
-9.12000000000002
 11
-210.3094174345249
 21
-9.12000000000002
  0
LINE
  5
115
100
AcDbEntity
  8
0
  6
CONTINUOUS
 62
             7
100
AcDbLine
 10
-208.39999999999961
 20
-9.12
 11
-208.39999999999961
 21
-8.14000000000001
  0
LINE
  5
114
100
AcDbEntity
  8
0
  6
CONTINUOUS
 62
             7
100
AcDbLine
 10
-208.69999999999959
 20
-9.12000000000002
 11
-208.39999999999961
 21
-9.12
  0
LINE
  5
113
100
AcDbEntity
  8
0
  6
CONTINUOUS
 62
             7
100
AcDbLine
 10
-209.18211119786361
 20
-9.22
 11
-209.76788880213559
 21
-9.22000000000001
  0
LINE
  5
112
100
AcDbEntity
  8
0
  6
CONTINUOUS
 62
             7
100
AcDbLine
 10
-209.033788204453
 20
-9.22
 11
-208.789714202673
 21
-9.22
  0
LINE
  5
111
100
AcDbEntity
  8
0
  6
CONTINUOUS
 62
             7
100
AcDbLine
 10
-209.033788204453
 20
-9.22
 11
-209.18211119786361
 21
-9.22
  0
LINE
  5
110
100
AcDbEntity
  8
0
  6
CONTINUOUS
 62
             7
100
AcDbLine
 10
-208.67499999999961
 20
-9.22
 11
-208.789714202673
 21
-9.22
  0
LINE
  5
10F
100
AcDbEntity
  8
0
  6
CONTINUOUS
 62
             7
100
AcDbLine
 10
-208.67499999999961
 20
-9.22
 11
-208.47499999999951
 21
-9.22
  0
LINE
  5
10E
100
AcDbEntity
  8
0
  6
CONTINUOUS
 62
             7
100
AcDbLine
 10
-209.76788880213559
 20
-9.22000000000001
 11
-209.91621179554619
 21
-9.22
  0
LINE
  5
10D
100
AcDbEntity
  8
0
  6
CONTINUOUS
 62
             7
100
AcDbLine
 10
-210.1602857973262
 20
-9.22000000000001
 11
-210.27499999999949
 21
-9.22
  0
LINE
  5
10C
100
AcDbEntity
  8
0
  6
CONTINUOUS
 62
             7
100
AcDbLine
 10
-210.27499999999949
 20
-9.22
 11
-210.47499999999951
 21
-9.22
  0
LINE
  5
10B
100
AcDbEntity
  8
0
  6
CONTINUOUS
 62
             7
100
AcDbLine
 10
-215.39999999999969
 20
6.61
 11
-215.5999999999996
 21
6.61
  0
LINE
  5
10A
100
AcDbEntity
  8
0
  6
CONTINUOUS
 62
             7
100
AcDbLine
 10
-210.5813097706359
 20
-9.12
 11
-210.5499999999997
 21
-9.12000000000002
  0
LINE
  5
109
100
AcDbEntity
  8
0
  6
CONTINUOUS
 62
             7
100
AcDbLine
 10
-210.9942287421309
 20
-9.12
 11
-210.5813097706359
 21
-9.12
  0
LINE
  5
108
100
AcDbEntity
  8
0
  6
CONTINUOUS
 62
             7
100
AcDbLine
 10
-211.26612107824189
 20
-9.12000000000002
 11
-210.9942287421309
 21
-9.12
  0
LINE
  5
107
100
AcDbEntity
  8
0
  6
CONTINUOUS
 62
             7
100
AcDbLine
 10
-210.9942287421309
 20
-3.06000000000002
 11
-210.9942287421309
 21
-4.04000000000001
  0
LINE
  5
106
100
AcDbEntity
  8
0
  6
CONTINUOUS
 62
             7
100
AcDbLine
 10
-210.9942287421309
 20
-8.14000000000001
 11
-210.9942287421309
 21
-9.12
  0
LINE
  5
105
100
AcDbEntity
  8
0
  6
CONTINUOUS
 62
             7
100
AcDbLine
 10
-211.26612107824181
 20
6.61
 11
-215.39999999999969
 21
6.61
  0
LINE
  5
104
100
AcDbEntity
  8
0
  6
CONTINUOUS
 62
             7
100
AcDbLine
 10
-211.26612107824181
 20
-8.14000000000001
 11
-210.9942287421309
 21
-8.14000000000001
  0
LINE
  5
103
100
AcDbEntity
  8
0
  6
CONTINUOUS
 62
             7
100
AcDbLine
 10
-210.5813097706359
 20
-3.06000000000002
 11
-210.5499999999997
 21
-3.06000000000002
  0
LINE
  5
102
100
AcDbEntity
  8
0
  6
CONTINUOUS
 62
             7
100
AcDbLine
 10
-211.26612107824181
 20
-3.06000000000002
 11
-210.9942287421309
 21
-3.06000000000002
  0
LINE
  5
101
100
AcDbEntity
  8
0
  6
CONTINUOUS
 62
             7
100
AcDbLine
 10
-210.9942287421309
 20
-3.06000000000002
 11
-210.5813097706359
 21
-3.06000000000002
  0
LINE
  5
100
100
AcDbEntity
  8
0
  6
CONTINUOUS
 62
             7
100
AcDbLine
 10
-210.5813097706359
 20
-8.14000000000001
 11
-210.5499999999997
 21
-8.14000000000001
  0
LINE
  5
FF
100
AcDbEntity
  8
0
  6
CONTINUOUS
 62
             7
100
AcDbLine
 10
-210.9942287421309
 20
-8.14000000000001
 11
-210.5813097706359
 21
-8.14000000000001
  0
LINE
  5
FE
100
AcDbEntity
  8
0
  6
CONTINUOUS
 62
             7
100
AcDbLine
 10
-210.5813097706359
 20
-4.04000000000001
 11
-210.5499999999997
 21
-4.04000000000001
  0
LINE
  5
FD
100
AcDbEntity
  8
0
  6
CONTINUOUS
 62
             7
100
AcDbLine
 10
-211.26612107824189
 20
-4.04000000000001
 11
-210.9942287421309
 21
-4.04000000000001
  0
LINE
  5
FC
100
AcDbEntity
  8
0
  6
CONTINUOUS
 62
             7
100
AcDbLine
 10
-210.9942287421309
 20
-4.04000000000001
 11
-210.5813097706359
 21
-4.04000000000001
  0
LINE
  5
FB
100
AcDbEntity
  8
0
  6
CONTINUOUS
 62
             7
100
AcDbLine
 10
-210.5813097706359
 20
-8.14000000000001
 11
-210.5813097706359
 21
-9.12
  0
LINE
  5
FA
100
AcDbEntity
  8
0
  6
CONTINUOUS
 62
             7
100
AcDbLine
 10
-214.1999999999997
 20
-6.85306801421292
 11
-214.1999999999997
 21
-4.92693198578711
  0
LINE
  5
F9
100
AcDbEntity
  8
0
  6
CONTINUOUS
 62
             7
100
AcDbLine
 10
-211.89999999999969
 20
-6.85306801421292
 11
-211.89999999999969
 21
-4.92693198578711
  0
LINE
  5
F8
100
AcDbEntity
  8
0
  6
CONTINUOUS
 62
             7
100
AcDbLine
 10
-210.5499999999997
 20
-9.12000000000002
 11
-210.3094174345249
 21
-9.12000000000002
  0
LINE
  5
F7
100
AcDbEntity
  8
0
  6
CONTINUOUS
 62
             7
100
AcDbLine
 10
-210.1602857973262
 20
-9.22000000000001
 11
-209.91621179554619
 21
-9.22
  0
LINE
  5
F6
100
AcDbEntity
  8
0
  6
CONTINUOUS
 62
             7
100
AcDbLine
 10
-215.89999999999969
 20
4.27
 11
-215.89999999999961
 21
-0.81
  0
LINE
  5
F5
100
AcDbEntity
  8
0
  6
CONTINUOUS
 62
             7
100
AcDbLine
 10
-215.5999999999996
 20
6.61
 11
-215.89999999999961
 21
6.61
  0
LINE
  5
F4
100
AcDbEntity
  8
0
  6
CONTINUOUS
 62
             7
100
AcDbLine
 10
-215.89999999999961
 20
6.61
 11
-215.89999999999969
 21
4.27
  0
LINE
  5
F3
100
AcDbEntity
  8
0
  6
CONTINUOUS
 62
             7
100
AcDbLine
 10
-210.9942287421309
 20
6.12
 11
-210.9942287421309
 21
6.61
  0
LINE
  5
F2
100
AcDbEntity
  8
0
  6
CONTINUOUS
 62
             7
100
AcDbLine
 10
-210.5813097706359
 20
6.11999999999999
 11
-210.9942287421309
 21
6.12
  0
LINE
  5
F1
100
AcDbEntity
  8
0
  6
CONTINUOUS
 62
             7
100
AcDbLine
 10
-208.4749999999996
 20
2.12
 11
-208.47499999999951
 21
6.02
  0
LINE
  5
F0
100
AcDbEntity
  8
0
  6
CONTINUOUS
 62
             7
100
AcDbLine
 10
-210.47499999999951
 20
2.12
 11
-210.47499999999951
 21
6.02
  0
LINE
  5
EF
100
AcDbEntity
  8
0
  6
CONTINUOUS
 62
             7
100
AcDbLine
 10
-209.033788204453
 20
0.94
 11
-208.789714202673
 21
0.94
  0
LINE
  5
EE
100
AcDbEntity
  8
0
  6
CONTINUOUS
 62
             7
100
AcDbLine
 10
-210.1602857973262
 20
0.93999999999999
 11
-210.27499999999949
 21
0.94
  0
LINE
  5
ED
100
AcDbEntity
  8
0
  6
CONTINUOUS
 62
             7
100
AcDbLine
 10
-210.9942287421309
 20
2.01999999999999
 11
-210.9942287421309
 21
1.04000000000001
  0
LINE
  5
EC
100
AcDbEntity
  8
0
  6
CONTINUOUS
 62
             7
100
AcDbLine
 10
-210.9942287421309
 20
2.01999999999999
 11
-211.26612107824181
 21
2.01999999999999
  0
LINE
  5
EB
100
AcDbEntity
  8
0
  6
CONTINUOUS
 62
             7
100
AcDbLine
 10
-210.5499999999997
 20
2.02
 11
-210.3094174345249
 21
2.01999999999999
  0
LINE
  5
EA
100
AcDbEntity
  8
0
  6
CONTINUOUS
 62
             7
100
AcDbLine
 10
-210.9942287421309
 20
1.04000000000001
 11
-211.26612107824189
 21
1.03999999999998
  0
LINE
  5
E9
100
AcDbEntity
  8
0
  6
CONTINUOUS
 62
             7
100
AcDbLine
 10
-210.5499999999997
 20
1.04000000000001
 11
-210.3094174345249
 21
1.03999999999998
  0
LINE
  5
E8
100
AcDbEntity
  8
0
  6
CONTINUOUS
 62
             7
100
AcDbLine
 10
-210.9942287421309
 20
2.01999999999999
 11
-210.5813097706359
 21
2.02
  0
LINE
  5
E7
100
AcDbEntity
  8
0
  6
CONTINUOUS
 62
             7
100
AcDbLine
 10
-210.5813097706359
 20
1.04000000000001
 11
-210.9942287421309
 21
1.04000000000001
  0
LINE
  5
E6
100
AcDbEntity
  8
0
  6
CONTINUOUS
 62
             7
100
AcDbLine
 10
-210.47499999999951
 20
2.12
 11
-210.27499999999949
 21
2.11999999999999
  0
LINE
  5
E5
100
AcDbEntity
  8
0
  6
CONTINUOUS
 62
             7
100
AcDbLine
 10
-209.033788204453
 20
2.11999999999999
 11
-208.789714202673
 21
2.11999999999999
  0
LINE
  5
E4
100
AcDbEntity
  8
0
  6
CONTINUOUS
 62
             7
100
AcDbLine
 10
-210.1602857973262
 20
0.93999999999999
 11
-209.91621179554619
 21
0.94
  0
LINE
  5
E3
100
AcDbEntity
  8
0
  6
CONTINUOUS
 62
             7
100
AcDbLine
 10
-211.89999999999969
 20
-1.77306801421292
 11
-211.89999999999969
 21
0.15306801421291
  0
LINE
  5
E2
100
AcDbEntity
  8
0
  6
CONTINUOUS
 62
             7
100
AcDbLine
 10
-209.033788204453
 20
-2.96000000000001
 11
-208.789714202673
 21
-2.96000000000001
  0
LINE
  5
E1
100
AcDbEntity
  8
0
  6
CONTINUOUS
 62
             7
100
AcDbLine
 10
-210.1602857973262
 20
-2.96000000000001
 11
-210.27499999999949
 21
-2.96000000000001
  0
LINE
  5
E0
100
AcDbEntity
  8
0
  6
CONTINUOUS
 62
             7
100
AcDbLine
 10
-210.1602857973262
 20
-2.96000000000001
 11
-209.91621179554619
 21
-2.96000000000001
  0
LINE
  5
DF
100
AcDbEntity
  8
0
  6
CONTINUOUS
 62
             7
100
AcDbLine
 10
-214.1999999999997
 20
0.15306801421291
 11
-214.1999999999997
 21
-1.77306801421292
  0
LINE
  5
DE
100
AcDbEntity
  8
0
  6
CONTINUOUS
 62
             7
100
AcDbLine
 10
-208.69999999999959
 20
2.01999999999999
 11
-208.39999999999961
 21
2.02
  0
LINE
  5
DD
100
AcDbEntity
  8
0
  6
CONTINUOUS
 62
             7
100
AcDbLine
 10
-208.67499999999961
 20
2.11999999999999
 11
-208.4749999999996
 21
2.12
  0
LINE
  5
DC
100
AcDbEntity
  8
0
  6
CONTINUOUS
 62
             7
100
AcDbLine
 10
-208.19999999999959
 20
2.01999999999999
 11
-208.39999999999961
 21
2.02
  0
LINE
  5
DB
100
AcDbEntity
  8
0
  6
CONTINUOUS
 62
             7
100
AcDbLine
 10
-211.89999999999969
 20
3.3069319857871
 11
-211.89999999999969
 21
5.23306801421289
  0
LINE
  5
DA
100
AcDbEntity
  8
0
  6
CONTINUOUS
 62
             7
100
AcDbLine
 10
-208.39999999999961
 20
1.04000000000001
 11
-208.39999999999961
 21
2.02
  0
LINE
  5
D9
100
AcDbEntity
  8
0
  6
CONTINUOUS
 62
             7
100
AcDbLine
 10
-208.69999999999959
 20
1.03999999999998
 11
-208.39999999999961
 21
1.04000000000001
  0
LINE
  5
D8
100
AcDbEntity
  8
0
  6
CONTINUOUS
 62
             7
100
AcDbLine
 10
-208.69999999999959
 20
1.03999999999998
 11
-210.3094174345249
 21
1.03999999999998
  0
LINE
  5
D7
100
AcDbEntity
  8
0
  6
CONTINUOUS
 62
             7
100
AcDbLine
 10
-208.69999999999959
 20
2.01999999999999
 11
-210.3094174345249
 21
2.01999999999999
  0
LINE
  5
D6
100
AcDbEntity
  8
0
  6
CONTINUOUS
 62
             7
100
AcDbLine
 10
-208.19999999999959
 20
1.04000000000001
 11
-208.39999999999961
 21
1.04000000000001
  0
LINE
  5
D5
100
AcDbEntity
  8
0
  6
CONTINUOUS
 62
             7
100
AcDbLine
 10
-214.1999999999997
 20
5.23306801421289
 11
-214.1999999999997
 21
3.3069319857871
  0
LINE
  5
D4
100
AcDbEntity
  8
0
  6
CONTINUOUS
 62
             7
100
AcDbLine
 10
-209.033788204453
 20
6.02
 11
-208.789714202673
 21
6.02
  0
LINE
  5
D3
100
AcDbEntity
  8
0
  6
CONTINUOUS
 62
             7
100
AcDbLine
 10
-210.47499999999951
 20
6.02
 11
-210.27499999999949
 21
6.02
  0
LINE
  5
D2
100
AcDbEntity
  8
0
  6
CONTINUOUS
 62
             7
100
AcDbLine
 10
-208.67499999999961
 20
6.02
 11
-208.47499999999951
 21
6.02
  0
LINE
  5
D1
100
AcDbEntity
  8
0
  6
CONTINUOUS
 62
             7
100
AcDbLine
 10
-208.69999999999959
 20
6.11999999999999
 11
-208.39999999999961
 21
6.11999999999999
  0
LINE
  5
D0
100
AcDbEntity
  8
0
  6
CONTINUOUS
 62
             7
100
AcDbLine
 10
-208.69999999999959
 20
6.11999999999999
 11
-210.3094174345249
 21
6.11999999999999
  0
LINE
  5
CF
100
AcDbEntity
  8
0
  6
CONTINUOUS
 62
             7
100
AcDbLine
 10
-210.5499999999997
 20
6.11999999999999
 11
-210.3094174345249
 21
6.11999999999999
  0
LINE
  5
CE
100
AcDbEntity
  8
0
  6
CONTINUOUS
 62
             7
100
AcDbLine
 10
-210.9942287421309
 20
6.12
 11
-211.26612107824181
 21
6.11999999999999
  0
LINE
  5
CD
100
AcDbEntity
  8
0
  6
CONTINUOUS
 62
             7
100
AcDbLine
 10
-210.9942287421309
 20
6.61
 11
-211.26612107824181
 21
6.61
  0
LINE
  5
CC
100
AcDbEntity
  8
0
  6
CONTINUOUS
 62
             7
100
AcDbLine
 10
-210.5813097706359
 20
6.61
 11
-210.9942287421309
 21
6.61
  0
LINE
  5
CB
100
AcDbEntity
  8
0
  6
CONTINUOUS
 62
             7
100
AcDbLine
 10
-210.5499999999997
 20
-19.28000000000002
 11
-210.5499999999997
 21
-23.38000000000002
  0
LINE
  5
CA
100
AcDbEntity
  8
0
  6
CONTINUOUS
 62
             7
100
AcDbLine
 10
-210.5813097706359
 20
-19.28000000000002
 11
-210.5499999999997
 21
-19.28000000000002
  0
LINE
  5
C9
100
AcDbEntity
  8
0
  6
CONTINUOUS
 62
             7
100
AcDbLine
 10
-211.26612107824181
 20
-13.22000000000002
 11
-210.9942287421309
 21
-13.22000000000002
  0
LINE
  5
C8
100
AcDbEntity
  8
0
  6
CONTINUOUS
 62
             7
100
AcDbLine
 10
-211.26612107824189
 20
-14.20000000000001
 11
-210.9942287421309
 21
-14.20000000000001
  0
LINE
  5
C7
100
AcDbEntity
  8
0
  6
CONTINUOUS
 62
             7
100
AcDbLine
 10
-211.26612107824181
 20
-18.30000000000001
 11
-210.9942287421309
 21
-18.30000000000001
  0
LINE
  5
C6
100
AcDbEntity
  8
0
  6
CONTINUOUS
 62
             7
100
AcDbLine
 10
-215.89999999999961
 20
-10.97000000000001
 11
-215.89999999999961
 21
-5.89000000000001
  0
LINE
  5
C5
100
AcDbEntity
  8
0
  6
CONTINUOUS
 62
             7
100
AcDbLine
 10
-214.1999999999997
 20
-10.00693198578711
 11
-214.1999999999997
 21
-11.93306801421292
  0
LINE
  5
C4
100
AcDbEntity
  8
0
  6
CONTINUOUS
 62
             7
100
AcDbLine
 10
-211.89999999999969
 20
-11.93306801421292
 11
-211.89999999999969
 21
-10.00693198578711
  0
LINE
  5
C3
100
AcDbEntity
  8
0
  6
CONTINUOUS
 62
             7
100
AcDbLine
 10
-215.89999999999961
 20
-16.05000000000001
 11
-215.89999999999961
 21
-10.97000000000001
  0
LINE
  5
C2
100
AcDbEntity
  8
0
  6
CONTINUOUS
 62
             7
100
AcDbLine
 10
-214.1999999999997
 20
-17.01306801421292
 11
-214.1999999999997
 21
-15.0869319857871
  0
LINE
  5
C1
100
AcDbEntity
  8
0
  6
CONTINUOUS
 62
             7
100
AcDbLine
 10
-211.89999999999969
 20
-17.01306801421292
 11
-211.89999999999969
 21
-15.0869319857871
  0
LINE
  5
C0
100
AcDbEntity
  8
0
  6
CONTINUOUS
 62
             7
100
AcDbLine
 10
-210.9942287421309
 20
-18.30000000000001
 11
-210.9942287421309
 21
-19.28000000000002
  0
LINE
  5
BF
100
AcDbEntity
  8
0
  6
CONTINUOUS
 62
             7
100
AcDbLine
 10
-210.9942287421309
 20
-13.22000000000002
 11
-210.9942287421309
 21
-14.20000000000001
  0
LINE
  5
BE
100
AcDbEntity
  8
0
  6
CONTINUOUS
 62
             7
100
AcDbLine
 10
-210.5813097706359
 20
-18.30000000000001
 11
-210.5499999999997
 21
-18.30000000000001
  0
LINE
  5
BD
100
AcDbEntity
  8
0
  6
CONTINUOUS
 62
             7
100
AcDbLine
 10
-210.9942287421309
 20
-18.30000000000001
 11
-210.5813097706359
 21
-18.30000000000001
  0
LINE
  5
BC
100
AcDbEntity
  8
0
  6
CONTINUOUS
 62
             7
100
AcDbLine
 10
-210.5813097706359
 20
-13.22000000000002
 11
-210.5499999999997
 21
-13.22000000000001
  0
LINE
  5
BB
100
AcDbEntity
  8
0
  6
CONTINUOUS
 62
             7
100
AcDbLine
 10
-210.9942287421309
 20
-13.22000000000002
 11
-210.5813097706359
 21
-13.22000000000002
  0
LINE
  5
BA
100
AcDbEntity
  8
0
  6
CONTINUOUS
 62
             7
100
AcDbLine
 10
-210.5813097706359
 20
-14.20000000000001
 11
-210.5499999999997
 21
-14.20000000000002
  0
LINE
  5
B9
100
AcDbEntity
  8
0
  6
CONTINUOUS
 62
             7
100
AcDbLine
 10
-210.9942287421309
 20
-14.20000000000001
 11
-210.5813097706359
 21
-14.20000000000001
  0
LINE
  5
B8
100
AcDbEntity
  8
0
  6
CONTINUOUS
 62
             7
100
AcDbLine
 10
-210.5813097706359
 20
-18.30000000000001
 11
-210.5813097706359
 21
-19.28000000000002
  0
LINE
  5
B7
100
AcDbEntity
  8
0
  6
CONTINUOUS
 62
             7
100
AcDbLine
 10
-210.5499999999997
 20
-9.12000000000002
 11
-210.5499999999997
 21
-13.22000000000001
  0
LINE
  5
B6
100
AcDbEntity
  8
0
  6
CONTINUOUS
 62
             7
100
AcDbLine
 10
-210.5499999999997
 20
-14.20000000000002
 11
-210.5499999999997
 21
-18.30000000000001
  0
LINE
  5
B5
100
AcDbEntity
  8
0
  6
CONTINUOUS
 62
             7
100
AcDbLine
 10
-210.5813097706359
 20
-13.22000000000002
 11
-210.5813097706359
 21
-14.20000000000001
  0
LINE
  5
B4
100
AcDbEntity
  8
0
  6
CONTINUOUS
 62
             7
100
AcDbLine
 10
-210.9942287421309
 20
-19.28000000000002
 11
-210.5813097706359
 21
-19.28000000000002
  0
LINE
  5
B3
100
AcDbEntity
  8
0
  6
CONTINUOUS
 62
             7
100
AcDbLine
 10
-211.26612107824189
 20
-19.28000000000002
 11
-210.9942287421309
 21
-19.28000000000002
  0
LINE
  5
B2
100
AcDbEntity
  8
0
  6
CONTINUOUS
 62
             7
100
AcDbLine
 10
-215.89999999999961
 20
-16.05000000000001
 11
-215.89999999999961
 21
-21.13000000000002
  0
LINE
  5
B1
100
AcDbEntity
  8
0
  6
CONTINUOUS
 62
             7
100
AcDbLine
 10
-210.5813097706359
 20
-23.38000000000002
 11
-210.5499999999997
 21
-23.38000000000002
  0
LINE
  5
B0
100
AcDbEntity
  8
0
  6
CONTINUOUS
 62
             7
100
AcDbLine
 10
-210.9942287421309
 20
-23.38000000000002
 11
-210.5813097706359
 21
-23.38000000000002
  0
LINE
  5
AF
100
AcDbEntity
  8
0
  6
CONTINUOUS
 62
             7
100
AcDbLine
 10
-211.26612107824181
 20
-23.38000000000002
 11
-210.9942287421309
 21
-23.38000000000002
  0
LINE
  5
AE
100
AcDbEntity
  8
0
  6
CONTINUOUS
 62
             7
100
AcDbLine
 10
-211.89999999999969
 20
-22.09306801421293
 11
-211.89999999999969
 21
-20.16693198578711
  0
LINE
  5
AD
100
AcDbEntity
  8
0
  6
CONTINUOUS
 62
             7
100
AcDbLine
 10
-214.1999999999997
 20
-20.16693198578711
 11
-214.1999999999997
 21
-22.09306801421293
  0
LINE
  5
AC
100
AcDbEntity
  8
0
  6
CONTINUOUS
 62
             7
100
AcDbLine
 10
-210.5499999999997
 20
-24.36
 11
-210.5499999999997
 21
-28.46000000000002
  0
LINE
  5
AB
100
AcDbEntity
  8
0
  6
CONTINUOUS
 62
             7
100
AcDbLine
 10
-215.39999999999969
 20
-28.95
 11
-215.5999999999996
 21
-28.95
  0
LINE
  5
AA
100
AcDbEntity
  8
0
  6
CONTINUOUS
 62
             7
100
AcDbLine
 10
-211.26612107824181
 20
-28.95
 11
-215.39999999999969
 21
-28.95
  0
LINE
  5
A9
100
AcDbEntity
  8
0
  6
CONTINUOUS
 62
             7
100
AcDbLine
 10
-211.89999999999969
 20
-27.17306801421292
 11
-211.89999999999969
 21
-25.24693198578711
  0
LINE
  5
A8
100
AcDbEntity
  8
0
  6
CONTINUOUS
 62
             7
100
AcDbLine
 10
-210.9942287421309
 20
-28.46000000000002
 11
-211.26612107824181
 21
-28.46000000000002
  0
LINE
  5
A7
100
AcDbEntity
  8
0
  6
CONTINUOUS
 62
             7
100
AcDbLine
 10
-210.5813097706359
 20
-28.46000000000002
 11
-210.9942287421309
 21
-28.46000000000002
  0
LINE
  5
A6
100
AcDbEntity
  8
0
  6
CONTINUOUS
 62
             7
100
AcDbLine
 10
-210.5499999999997
 20
-28.46000000000002
 11
-210.5813097706359
 21
-28.46000000000002
  0
LINE
  5
A5
100
AcDbEntity
  8
0
  6
CONTINUOUS
 62
             7
100
AcDbLine
 10
-210.5813097706359
 20
-24.36000000000002
 11
-210.5499999999997
 21
-24.36
  0
LINE
  5
A4
100
AcDbEntity
  8
0
  6
CONTINUOUS
 62
             7
100
AcDbLine
 10
-210.9942287421309
 20
-24.36000000000002
 11
-210.5813097706359
 21
-24.36000000000002
  0
LINE
  5
A3
100
AcDbEntity
  8
0
  6
CONTINUOUS
 62
             7
100
AcDbLine
 10
-211.26612107824189
 20
-24.36000000000002
 11
-210.9942287421309
 21
-24.36000000000002
  0
LINE
  5
A2
100
AcDbEntity
  8
0
  6
CONTINUOUS
 62
             7
100
AcDbLine
 10
-210.9942287421309
 20
-28.95
 11
-210.9942287421309
 21
-28.46000000000002
  0
LINE
  5
A1
100
AcDbEntity
  8
0
  6
CONTINUOUS
 62
             7
100
AcDbLine
 10
-210.9942287421309
 20
-28.95
 11
-211.26612107824181
 21
-28.95
  0
LINE
  5
A0
100
AcDbEntity
  8
0
  6
CONTINUOUS
 62
             7
100
AcDbLine
 10
-210.5813097706359
 20
-28.95
 11
-210.9942287421309
 21
-28.95
  0
LINE
  5
9F
100
AcDbEntity
  8
0
  6
CONTINUOUS
 62
             7
100
AcDbLine
 10
-210.5813097706359
 20
-28.95
 11
-210.5813097706359
 21
-28.46000000000002
  0
LINE
  5
9E
100
AcDbEntity
  8
0
  6
CONTINUOUS
 62
             7
100
AcDbLine
 10
-214.1999999999997
 20
-25.24693198578711
 11
-214.1999999999997
 21
-27.17306801421292
  0
LINE
  5
9D
100
AcDbEntity
  8
0
  6
CONTINUOUS
 62
             7
100
AcDbLine
 10
-215.89999999999961
 20
-28.95
 11
-215.89999999999961
 21
-26.21000000000002
  0
LINE
  5
9C
100
AcDbEntity
  8
0
  6
CONTINUOUS
 62
             7
100
AcDbLine
 10
-215.89999999999961
 20
-28.95
 11
-215.5999999999996
 21
-28.95
  0
LINE
  5
9B
100
AcDbEntity
  8
0
  6
CONTINUOUS
 62
             7
100
AcDbLine
 10
-210.5813097706359
 20
-23.38000000000002
 11
-210.5813097706359
 21
-24.36000000000002
  0
LINE
  5
9A
100
AcDbEntity
  8
0
  6
CONTINUOUS
 62
             7
100
AcDbLine
 10
-210.9942287421309
 20
-23.38000000000002
 11
-210.9942287421309
 21
-24.36000000000002
  0
LINE
  5
99
100
AcDbEntity
  8
0
  6
CONTINUOUS
 62
             7
100
AcDbLine
 10
-215.89999999999961
 20
-26.21000000000002
 11
-215.89999999999961
 21
-21.13000000000002
  0
LINE
  5
98
100
AcDbEntity
  8
0
  6
CONTINUOUS
 62
             7
100
AcDbLine
 10
-208.39999999999961
 20
-9.12
 11
-208.39999999999961
 21
-13.22000000000001
  0
LINE
  5
97
100
AcDbEntity
  8
0
  6
CONTINUOUS
 62
             7
100
AcDbLine
 10
-208.69999999999959
 20
-13.22000000000002
 11
-208.39999999999961
 21
-13.22000000000001
  0
LINE
  5
96
100
AcDbEntity
  8
0
  6
CONTINUOUS
 62
             7
100
AcDbLine
 10
-210.3094174345249
 20
-13.22000000000001
 11
-208.69999999999959
 21
-13.22000000000002
  0
LINE
  5
95
100
AcDbEntity
  8
0
  6
CONTINUOUS
 62
             7
100
AcDbLine
 10
-208.69999999999959
 20
-14.20000000000001
 11
-208.39999999999961
 21
-14.20000000000001
  0
LINE
  5
94
100
AcDbEntity
  8
0
  6
CONTINUOUS
 62
             7
100
AcDbLine
 10
-210.1602857973262
 20
-14.30000000000002
 11
-210.27499999999949
 21
-14.30000000000002
  0
LINE
  5
93
100
AcDbEntity
  8
0
  6
CONTINUOUS
 62
             7
100
AcDbLine
 10
-210.1602857973262
 20
-18.20000000000001
 11
-210.27499999999949
 21
-18.20000000000002
  0
LINE
  5
92
100
AcDbEntity
  8
0
  6
CONTINUOUS
 62
             7
100
AcDbLine
 10
-210.1602857973262
 20
-13.12000000000001
 11
-210.27499999999949
 21
-13.12000000000001
  0
LINE
  5
91
100
AcDbEntity
  8
0
  6
CONTINUOUS
 62
             7
100
AcDbLine
 10
-208.4749999999996
 20
-18.20000000000001
 11
-208.4749999999996
 21
-14.30000000000002
  0
LINE
  5
90
100
AcDbEntity
  8
0
  6
CONTINUOUS
 62
             7
100
AcDbLine
 10
-209.033788204453
 20
-14.30000000000002
 11
-208.789714202673
 21
-14.30000000000002
  0
LINE
  5
8F
100
AcDbEntity
  8
0
  6
CONTINUOUS
 62
             7
100
AcDbLine
 10
-209.76788880213559
 20
-14.30000000000002
 11
-209.91621179554619
 21
-14.30000000000002
  0
LINE
  5
8E
100
AcDbEntity
  8
0
  6
CONTINUOUS
 62
             7
100
AcDbLine
 10
-209.18211119786361
 20
-14.30000000000002
 11
-209.76788880213559
 21
-14.30000000000002
  0
LINE
  5
8D
100
AcDbEntity
  8
0
  6
CONTINUOUS
 62
             7
100
AcDbLine
 10
-209.033788204453
 20
-14.30000000000002
 11
-209.18211119786361
 21
-14.30000000000002
  0
LINE
  5
8C
100
AcDbEntity
  8
0
  6
CONTINUOUS
 62
             7
100
AcDbLine
 10
-209.76788880213559
 20
-13.12000000000001
 11
-209.91621179554619
 21
-13.12000000000002
  0
LINE
  5
8B
100
AcDbEntity
  8
0
  6
CONTINUOUS
 62
             7
100
AcDbLine
 10
-209.033788204453
 20
-13.12000000000001
 11
-208.789714202673
 21
-13.12000000000001
  0
LINE
  5
8A
100
AcDbEntity
  8
0
  6
CONTINUOUS
 62
             7
100
AcDbLine
 10
-209.18211119786361
 20
-13.12000000000001
 11
-209.76788880213559
 21
-13.12000000000001
  0
LINE
  5
89
100
AcDbEntity
  8
0
  6
CONTINUOUS
 62
             7
100
AcDbLine
 10
-209.033788204453
 20
-13.12000000000001
 11
-209.18211119786361
 21
-13.12000000000001
  0
LINE
  5
88
100
AcDbEntity
  8
0
  6
CONTINUOUS
 62
             7
100
AcDbLine
 10
-209.033788204453
 20
-18.20000000000001
 11
-208.789714202673
 21
-18.20000000000001
  0
LINE
  5
87
100
AcDbEntity
  8
0
  6
CONTINUOUS
 62
             7
100
AcDbLine
 10
-209.76788880213559
 20
-18.20000000000001
 11
-209.91621179554619
 21
-18.20000000000001
  0
LINE
  5
86
100
AcDbEntity
  8
0
  6
CONTINUOUS
 62
             7
100
AcDbLine
 10
-209.18211119786361
 20
-18.20000000000001
 11
-209.76788880213559
 21
-18.20000000000001
  0
LINE
  5
85
100
AcDbEntity
  8
0
  6
CONTINUOUS
 62
             7
100
AcDbLine
 10
-209.033788204453
 20
-18.20000000000001
 11
-209.18211119786361
 21
-18.20000000000001
  0
LINE
  5
84
100
AcDbEntity
  8
0
  6
CONTINUOUS
 62
             7
100
AcDbLine
 10
-208.67499999999961
 20
-14.30000000000001
 11
-208.4749999999996
 21
-14.30000000000002
  0
LINE
  5
83
100
AcDbEntity
  8
0
  6
CONTINUOUS
 62
             7
100
AcDbLine
 10
-208.67499999999961
 20
-13.12000000000001
 11
-208.789714202673
 21
-13.12000000000001
  0
LINE
  5
82
100
AcDbEntity
  8
0
  6
CONTINUOUS
 62
             7
100
AcDbLine
 10
-208.67499999999961
 20
-13.12000000000001
 11
-208.47499999999951
 21
-13.12000000000002
  0
LINE
  5
81
100
AcDbEntity
  8
0
  6
CONTINUOUS
 62
             7
100
AcDbLine
 10
-208.47499999999951
 20
-13.12000000000002
 11
-208.47499999999951
 21
-9.22
  0
LINE
  5
80
100
AcDbEntity
  8
0
  6
CONTINUOUS
 62
             7
100
AcDbLine
 10
-210.1602857973262
 20
-13.12000000000001
 11
-209.91621179554619
 21
-13.12000000000002
  0
LINE
  5
7F
100
AcDbEntity
  8
0
  6
CONTINUOUS
 62
             7
100
AcDbLine
 10
-209.91621179554619
 20
-14.30000000000002
 11
-210.1602857973262
 21
-14.30000000000002
  0
LINE
  5
7E
100
AcDbEntity
  8
0
  6
CONTINUOUS
 62
             7
100
AcDbLine
 10
-208.67499999999961
 20
-14.30000000000001
 11
-208.789714202673
 21
-14.30000000000002
  0
LINE
  5
7D
100
AcDbEntity
  8
0
  6
CONTINUOUS
 62
             7
100
AcDbLine
 10
-208.67499999999961
 20
-18.20000000000001
 11
-208.4749999999996
 21
-18.20000000000001
  0
LINE
  5
7C
100
AcDbEntity
  8
0
  6
CONTINUOUS
 62
             7
100
AcDbLine
 10
-209.91621179554619
 20
-18.20000000000001
 11
-210.1602857973262
 21
-18.20000000000001
  0
LINE
  5
7B
100
AcDbEntity
  8
0
  6
CONTINUOUS
 62
             7
100
AcDbLine
 10
-208.67499999999961
 20
-18.20000000000001
 11
-208.789714202673
 21
-18.20000000000001
  0
LINE
  5
7A
100
AcDbEntity
  8
0
  6
CONTINUOUS
 62
             7
100
AcDbLine
 10
-208.69999999999959
 20
-14.20000000000001
 11
-210.3094174345249
 21
-14.20000000000001
  0
LINE
  5
79
100
AcDbEntity
  8
0
  6
CONTINUOUS
 62
             7
100
AcDbLine
 10
-208.39999999999961
 20
-14.20000000000001
 11
-208.39999999999961
 21
-13.22000000000001
  0
LINE
  5
78
100
AcDbEntity
  8
0
  6
CONTINUOUS
 62
             7
100
AcDbLine
 10
-210.27499999999949
 20
-13.12000000000001
 11
-210.47499999999951
 21
-13.12000000000002
  0
LINE
  5
77
100
AcDbEntity
  8
0
  6
CONTINUOUS
 62
             7
100
AcDbLine
 10
-210.47499999999951
 20
-13.12000000000002
 11
-210.47499999999951
 21
-9.22
  0
LINE
  5
76
100
AcDbEntity
  8
0
  6
CONTINUOUS
 62
             7
100
AcDbLine
 10
-210.47499999999951
 20
-18.20000000000001
 11
-210.47499999999951
 21
-14.30000000000002
  0
LINE
  5
75
100
AcDbEntity
  8
0
  6
CONTINUOUS
 62
             7
100
AcDbLine
 10
-210.27499999999949
 20
-14.30000000000002
 11
-210.47499999999951
 21
-14.30000000000002
  0
LINE
  5
74
100
AcDbEntity
  8
0
  6
CONTINUOUS
 62
             7
100
AcDbLine
 10
-210.27499999999949
 20
-18.20000000000002
 11
-210.47499999999951
 21
-18.20000000000001
  0
LINE
  5
73
100
AcDbEntity
  8
0
  6
CONTINUOUS
 62
             7
100
AcDbLine
 10
-210.5499999999997
 20
-13.22000000000001
 11
-210.3094174345249
 21
-13.22000000000001
  0
LINE
  5
72
100
AcDbEntity
  8
0
  6
CONTINUOUS
 62
             7
100
AcDbLine
 10
-210.5499999999997
 20
-14.20000000000002
 11
-210.3094174345249
 21
-14.20000000000001
  0
LINE
  5
71
100
AcDbEntity
  8
0
  6
CONTINUOUS
 62
             7
100
AcDbLine
 10
-208.39999999999961
 20
-19.28000000000002
 11
-208.39999999999961
 21
-23.38000000000002
  0
LINE
  5
70
100
AcDbEntity
  8
0
  6
CONTINUOUS
 62
             7
100
AcDbLine
 10
-208.69999999999959
 20
-18.30000000000001
 11
-208.39999999999961
 21
-18.30000000000002
  0
LINE
  5
6F
100
AcDbEntity
  8
0
  6
CONTINUOUS
 62
             7
100
AcDbLine
 10
-208.69999999999959
 20
-19.28000000000002
 11
-208.39999999999961
 21
-19.28000000000002
  0
LINE
  5
6E
100
AcDbEntity
  8
0
  6
CONTINUOUS
 62
             7
100
AcDbLine
 10
-208.39999999999961
 20
-19.28000000000002
 11
-208.39999999999961
 21
-18.30000000000002
  0
LINE
  5
6D
100
AcDbEntity
  8
0
  6
CONTINUOUS
 62
             7
100
AcDbLine
 10
-208.19999999999959
 20
-14.20000000000001
 11
-208.39999999999961
 21
-14.20000000000001
  0
LINE
  5
6C
100
AcDbEntity
  8
0
  6
CONTINUOUS
 62
             7
100
AcDbLine
 10
-208.19999999999959
 20
-13.22000000000002
 11
-208.39999999999961
 21
-13.22000000000001
  0
LINE
  5
6B
100
AcDbEntity
  8
0
  6
CONTINUOUS
 62
             7
100
AcDbLine
 10
-208.39999999999961
 20
-14.20000000000001
 11
-208.39999999999961
 21
-18.30000000000002
  0
LINE
  5
6A
100
AcDbEntity
  8
0
  6
CONTINUOUS
 62
             7
100
AcDbLine
 10
-208.19999999999959
 20
-19.28000000000002
 11
-208.39999999999961
 21
-19.28000000000002
  0
LINE
  5
69
100
AcDbEntity
  8
0
  6
CONTINUOUS
 62
             7
100
AcDbLine
 10
-208.19999999999959
 20
-18.30000000000001
 11
-208.39999999999961
 21
-18.30000000000002
  0
LINE
  5
68
100
AcDbEntity
  8
0
  6
CONTINUOUS
 62
             7
100
AcDbLine
 10
-208.4749999999996
 20
-23.28
 11
-208.47499999999951
 21
-19.38000000000002
  0
LINE
  5
67
100
AcDbEntity
  8
0
  6
CONTINUOUS
 62
             7
100
AcDbLine
 10
-208.47499999999951
 20
-19.38000000000002
 11
-208.67499999999961
 21
-19.38000000000002
  0
LINE
  5
66
100
AcDbEntity
  8
0
  6
CONTINUOUS
 62
             7
100
AcDbLine
 10
-208.4749999999996
 20
-23.28
 11
-208.67499999999961
 21
-23.28000000000002
  0
LINE
  5
65
100
AcDbEntity
  8
0
  6
CONTINUOUS
 62
             7
100
AcDbLine
 10
-208.39999999999961
 20
-23.38000000000002
 11
-208.19999999999959
 21
-23.38000000000002
  0
LINE
  5
64
100
AcDbEntity
  8
0
  6
CONTINUOUS
 62
             7
100
AcDbLine
 10
-210.3094174345249
 20
-18.30000000000002
 11
-208.69999999999959
 21
-18.30000000000001
  0
LINE
  5
63
100
AcDbEntity
  8
0
  6
CONTINUOUS
 62
             7
100
AcDbLine
 10
-208.69999999999959
 20
-23.38000000000002
 11
-208.39999999999961
 21
-23.38000000000002
  0
LINE
  5
62
100
AcDbEntity
  8
0
  6
CONTINUOUS
 62
             7
100
AcDbLine
 10
-210.5499999999997
 20
-23.38000000000002
 11
-210.3094174345249
 21
-23.38000000000002
  0
LINE
  5
61
100
AcDbEntity
  8
0
  6
CONTINUOUS
 62
             7
100
AcDbLine
 10
-210.3094174345249
 20
-23.38000000000002
 11
-208.69999999999959
 21
-23.38000000000002
  0
LINE
  5
60
100
AcDbEntity
  8
0
  6
CONTINUOUS
 62
             7
100
AcDbLine
 10
-208.69999999999959
 20
-19.28000000000002
 11
-210.3094174345249
 21
-19.28000000000002
  0
LINE
  5
5F
100
AcDbEntity
  8
0
  6
CONTINUOUS
 62
             7
100
AcDbLine
 10
-210.5499999999997
 20
-19.28000000000002
 11
-210.3094174345249
 21
-19.28000000000002
  0
LINE
  5
5E
100
AcDbEntity
  8
0
  6
CONTINUOUS
 62
             7
100
AcDbLine
 10
-210.1602857973262
 20
-19.38000000000001
 11
-209.91621179554619
 21
-19.38000000000002
  0
LINE
  5
5D
100
AcDbEntity
  8
0
  6
CONTINUOUS
 62
             7
100
AcDbLine
 10
-210.1602857973262
 20
-23.28000000000002
 11
-209.91621179554619
 21
-23.28000000000002
  0
LINE
  5
5C
100
AcDbEntity
  8
0
  6
CONTINUOUS
 62
             7
100
AcDbLine
 10
-209.76788880213559
 20
-23.28000000000002
 11
-209.91621179554619
 21
-23.28000000000002
  0
LINE
  5
5B
100
AcDbEntity
  8
0
  6
CONTINUOUS
 62
             7
100
AcDbLine
 10
-209.76788880213559
 20
-19.38000000000002
 11
-209.91621179554619
 21
-19.38000000000002
  0
LINE
  5
5A
100
AcDbEntity
  8
0
  6
CONTINUOUS
 62
             7
100
AcDbLine
 10
-209.033788204453
 20
-23.28000000000002
 11
-209.18211119786361
 21
-23.28000000000002
  0
LINE
  5
59
100
AcDbEntity
  8
0
  6
CONTINUOUS
 62
             7
100
AcDbLine
 10
-209.033788204453
 20
-19.38000000000002
 11
-209.18211119786361
 21
-19.38000000000002
  0
LINE
  5
58
100
AcDbEntity
  8
0
  6
CONTINUOUS
 62
             7
100
AcDbLine
 10
-208.67499999999961
 20
-19.38000000000002
 11
-208.789714202673
 21
-19.38000000000002
  0
LINE
  5
57
100
AcDbEntity
  8
0
  6
CONTINUOUS
 62
             7
100
AcDbLine
 10
-209.033788204453
 20
-19.38000000000002
 11
-208.789714202673
 21
-19.38000000000002
  0
LINE
  5
56
100
AcDbEntity
  8
0
  6
CONTINUOUS
 62
             7
100
AcDbLine
 10
-209.033788204453
 20
-23.28000000000002
 11
-208.789714202673
 21
-23.28000000000002
  0
LINE
  5
55
100
AcDbEntity
  8
0
  6
CONTINUOUS
 62
             7
100
AcDbLine
 10
-208.67499999999961
 20
-23.28000000000002
 11
-208.789714202673
 21
-23.28000000000002
  0
LINE
  5
54
100
AcDbEntity
  8
0
  6
CONTINUOUS
 62
             7
100
AcDbLine
 10
-209.18211119786361
 20
-23.28000000000002
 11
-209.76788880213559
 21
-23.28000000000002
  0
LINE
  5
53
100
AcDbEntity
  8
0
  6
CONTINUOUS
 62
             7
100
AcDbLine
 10
-209.18211119786361
 20
-19.38000000000002
 11
-209.76788880213559
 21
-19.38000000000002
  0
LINE
  5
52
100
AcDbEntity
  8
0
  6
CONTINUOUS
 62
             7
100
AcDbLine
 10
-210.27499999999949
 20
-23.28000000000002
 11
-210.47499999999951
 21
-23.28000000000002
  0
LINE
  5
51
100
AcDbEntity
  8
0
  6
CONTINUOUS
 62
             7
100
AcDbLine
 10
-210.1602857973262
 20
-23.28000000000002
 11
-210.27499999999949
 21
-23.28000000000002
  0
LINE
  5
50
100
AcDbEntity
  8
0
  6
CONTINUOUS
 62
             7
100
AcDbLine
 10
-210.47499999999951
 20
-23.28000000000002
 11
-210.47499999999951
 21
-19.38000000000002
  0
LINE
  5
4F
100
AcDbEntity
  8
0
  6
CONTINUOUS
 62
             7
100
AcDbLine
 10
-210.27499999999949
 20
-19.38000000000002
 11
-210.47499999999951
 21
-19.38000000000002
  0
LINE
  5
4E
100
AcDbEntity
  8
0
  6
CONTINUOUS
 62
             7
100
AcDbLine
 10
-210.1602857973262
 20
-19.38000000000001
 11
-210.27499999999949
 21
-19.38000000000002
  0
LINE
  5
4D
100
AcDbEntity
  8
0
  6
CONTINUOUS
 62
             7
100
AcDbLine
 10
-210.5499999999997
 20
-18.30000000000001
 11
-210.3094174345249
 21
-18.30000000000002
  0
LINE
  5
4C
100
AcDbEntity
  8
0
  6
CONTINUOUS
 62
             7
100
AcDbLine
 10
-210.3094174345249
 20
-28.95
 11
-210.5813097706359
 21
-28.95
  0
LINE
  5
4B
100
AcDbEntity
  8
0
  6
CONTINUOUS
 62
             7
100
AcDbLine
 10
-208.39999999999961
 20
-28.95
 11
-208.39999999999961
 21
-28.46000000000002
  0
LINE
  5
4A
100
AcDbEntity
  8
0
  6
CONTINUOUS
 62
             7
100
AcDbLine
 10
-204.29999999999961
 20
-28.95
 11
-208.19999999999959
 21
-28.95
  0
LINE
  5
49
100
AcDbEntity
  8
0
  6
CONTINUOUS
 62
             7
100
AcDbLine
 10
-208.39999999999961
 20
-24.36000000000002
 11
-208.39999999999961
 21
-28.46000000000002
  0
LINE
  5
48
100
AcDbEntity
  8
0
  6
CONTINUOUS
 62
             7
100
AcDbLine
 10
-208.19999999999959
 20
-28.46000000000002
 11
-208.39999999999961
 21
-28.46000000000002
  0
LINE
  5
47
100
AcDbEntity
  8
0
  6
CONTINUOUS
 62
             7
100
AcDbLine
 10
-208.47499999999951
 20
-28.36000000000002
 11
-208.47499999999951
 21
-24.46000000000002
  0
LINE
  5
46
100
AcDbEntity
  8
0
  6
CONTINUOUS
 62
             7
100
AcDbLine
 10
-208.39999999999961
 20
-24.36000000000002
 11
-208.19999999999959
 21
-24.36000000000002
  0
LINE
  5
45
100
AcDbEntity
  8
0
  6
CONTINUOUS
 62
             7
100
AcDbLine
 10
-208.39999999999961
 20
-28.95
 11
-208.19999999999959
 21
-28.95
  0
LINE
  5
44
100
AcDbEntity
  8
0
  6
CONTINUOUS
 62
             7
100
AcDbLine
 10
-208.69999999999959
 20
-28.95
 11
-208.39999999999961
 21
-28.95
  0
LINE
  5
43
100
AcDbEntity
  8
0
  6
CONTINUOUS
 62
             7
100
AcDbLine
 10
-209.19999999999959
 20
-28.95
 11
-208.69999999999959
 21
-28.95
  0
LINE
  5
42
100
AcDbEntity
  8
0
  6
CONTINUOUS
 62
             7
100
AcDbLine
 10
-209.19999999999959
 20
-28.95
 11
-210.3094174345249
 21
-28.95
  0
LINE
  5
41
100
AcDbEntity
  8
0
  6
CONTINUOUS
 62
             7
100
AcDbLine
 10
-210.1602857973262
 20
-28.36000000000002
 11
-210.27499999999949
 21
-28.36000000000002
  0
LINE
  5
40
100
AcDbEntity
  8
0
  6
CONTINUOUS
 62
             7
100
AcDbLine
 10
-208.67499999999961
 20
-24.46000000000002
 11
-208.47499999999951
 21
-24.46000000000002
  0
LINE
  5
3F
100
AcDbEntity
  8
0
  6
CONTINUOUS
 62
             7
100
AcDbLine
 10
-210.5499999999997
 20
-24.36
 11
-210.3094174345249
 21
-24.36
  0
LINE
  5
3E
100
AcDbEntity
  8
0
  6
CONTINUOUS
 62
             7
100
AcDbLine
 10
-210.47499999999951
 20
-24.45999999999999
 11
-210.27499999999949
 21
-24.46000000000002
  0
LINE
  5
3D
100
AcDbEntity
  8
0
  6
CONTINUOUS
 62
             7
100
AcDbLine
 10
-210.1602857973262
 20
-24.46000000000002
 11
-210.27499999999949
 21
-24.46000000000002
  0
LINE
  5
3C
100
AcDbEntity
  8
0
  6
CONTINUOUS
 62
             7
100
AcDbLine
 10
-210.1602857973262
 20
-24.46000000000002
 11
-209.91621179554619
 21
-24.46000000000002
  0
LINE
  5
3B
100
AcDbEntity
  8
0
  6
CONTINUOUS
 62
             7
100
AcDbLine
 10
-209.76788880213559
 20
-24.46000000000002
 11
-209.91621179554619
 21
-24.46000000000002
  0
LINE
  5
3A
100
AcDbEntity
  8
0
  6
CONTINUOUS
 62
             7
100
AcDbLine
 10
-209.033788204453
 20
-24.46000000000002
 11
-209.18211119786361
 21
-24.46000000000002
  0
LINE
  5
39
100
AcDbEntity
  8
0
  6
CONTINUOUS
 62
             7
100
AcDbLine
 10
-209.033788204453
 20
-24.46000000000002
 11
-208.789714202673
 21
-24.46000000000002
  0
LINE
  5
38
100
AcDbEntity
  8
0
  6
CONTINUOUS
 62
             7
100
AcDbLine
 10
-209.18211119786361
 20
-24.46000000000002
 11
-209.76788880213559
 21
-24.46000000000002
  0
LINE
  5
37
100
AcDbEntity
  8
0
  6
CONTINUOUS
 62
             7
100
AcDbLine
 10
-208.67499999999961
 20
-24.46000000000002
 11
-208.789714202673
 21
-24.46000000000002
  0
LINE
  5
36
100
AcDbEntity
  8
0
  6
CONTINUOUS
 62
             7
100
AcDbLine
 10
-208.39999999999961
 20
-24.36000000000002
 11
-208.39999999999961
 21
-23.38000000000002
  0
LINE
  5
35
100
AcDbEntity
  8
0
  6
CONTINUOUS
 62
             7
100
AcDbLine
 10
-208.69999999999959
 20
-24.36000000000002
 11
-208.39999999999961
 21
-24.36000000000002
  0
LINE
  5
34
100
AcDbEntity
  8
0
  6
CONTINUOUS
 62
             7
100
AcDbLine
 10
-208.69999999999959
 20
-24.36000000000002
 11
-210.3094174345249
 21
-24.36
  0
LINE
  5
33
100
AcDbEntity
  8
0
  6
CONTINUOUS
 62
             7
100
AcDbLine
 10
-208.67499999999961
 20
-28.36
 11
-208.47499999999951
 21
-28.36000000000002
  0
LINE
  5
32
100
AcDbEntity
  8
0
  6
CONTINUOUS
 62
             7
100
AcDbLine
 10
-210.47499999999951
 20
-28.36000000000002
 11
-210.47499999999951
 21
-24.45999999999999
  0
LINE
  5
31
100
AcDbEntity
  8
0
  6
CONTINUOUS
 62
             7
100
AcDbLine
 10
-210.47499999999951
 20
-28.36000000000002
 11
-210.27499999999949
 21
-28.36000000000002
  0
LINE
  5
30
100
AcDbEntity
  8
0
  6
CONTINUOUS
 62
             7
100
AcDbLine
 10
-209.033788204453
 20
-28.36000000000002
 11
-208.789714202673
 21
-28.36
  0
LINE
  5
2F
100
AcDbEntity
  8
0
  6
CONTINUOUS
 62
             7
100
AcDbLine
 10
-209.033788204453
 20
-28.36000000000002
 11
-209.18211119786361
 21
-28.36000000000002
  0
LINE
  5
2E
100
AcDbEntity
  8
0
  6
CONTINUOUS
 62
             7
100
AcDbLine
 10
-209.18211119786361
 20
-28.36000000000002
 11
-209.76788880213559
 21
-28.36000000000002
  0
LINE
  5
2D
100
AcDbEntity
  8
0
  6
CONTINUOUS
 62
             7
100
AcDbLine
 10
-210.1602857973262
 20
-28.36000000000002
 11
-209.91621179554619
 21
-28.36000000000002
  0
LINE
  5
2C
100
AcDbEntity
  8
0
  6
CONTINUOUS
 62
             7
100
AcDbLine
 10
-209.76788880213559
 20
-28.36000000000002
 11
-209.91621179554619
 21
-28.36000000000002
  0
LINE
  5
2B
100
AcDbEntity
  8
0
  6
CONTINUOUS
 62
             7
100
AcDbLine
 10
-208.67499999999961
 20
-28.36
 11
-208.789714202673
 21
-28.36
  0
LINE
  5
2A
100
AcDbEntity
  8
0
  6
CONTINUOUS
 62
             7
100
AcDbLine
 10
-210.3094174345249
 20
-28.46000000000002
 11
-210.5499999999997
 21
-28.46000000000002
  0
LINE
  5
29
100
AcDbEntity
  8
0
  6
CONTINUOUS
 62
             7
100
AcDbLine
 10
-208.39999999999961
 20
-28.46000000000002
 11
-208.69999999999959
 21
-28.45999999999999
  0
LINE
  5
28
100
AcDbEntity
  8
0
  6
CONTINUOUS
 62
             7
100
AcDbLine
 10
-208.69999999999959
 20
-28.45999999999999
 11
-210.3094174345249
 21
-28.46000000000002
  0
ENDSEC
  0
SECTION
  2
OBJECTS
  0
DICTIONARY
  5
19
100
AcDbDictionary
  3
ACAD_GROUP
350
1A
  3
ACAD_MLINESTYLE
350
1B
  0
DICTIONARY
  5
1A
102
{ACAD_REACTORS
330
19
102
}
100
AcDbDictionary
  0
DICTIONARY
  5
1B
102
{ACAD_REACTORS
330
19
102
}
100
AcDbDictionary
  3
STANDARD
350
1C
  0
MLINESTYLE
  5
1C
102
{ACAD_REACTORS
330
1B
102
}
100
AcDbMlineStyle
  2
STANDARD
 70
             0
  3

 62
             0
 51
90.0
 52
90.0
 71
             2
 49
0.5
 62
           256
  6
BYLAYER
 49
-0.5
 62
           256
  6
BYLAYER
  0
ENDSEC
  0
EOF
